  0
SECTION
  2
HEADER
  9
$ACADVER
  1
AC1018
  9
$ACADMAINTVER
 70
   104
  9
$DWGCODEPAGE
  3
ANSI_1252
  9
$LASTSAVEDBY
  1
Joseph H Fortier
  9
$INSBASE
 10
0.0
 20
0.0
 30
0.0
  9
$EXTMIN
 10
-0.8951802582263113
 20
0.0
 30
0.0
  9
$EXTMAX
 10
9.642500000000001
 20
7.124999999999998
 30
0.0
  9
$LIMMIN
 10
0.0
 20
0.0
  9
$LIMMAX
 10
12.0
 20
9.0
  9
$ORTHOMODE
 70
     1
  9
$REGENMODE
 70
     1
  9
$FILLMODE
 70
     1
  9
$QTEXTMODE
 70
     0
  9
$MIRRTEXT
 70
     0
  9
$LTSCALE
 40
1.0
  9
$ATTMODE
 70
     1
  9
$TEXTSIZE
 40
0.4732662766460578
  9
$TRACEWID
 40
0.05
  9
$TEXTSTYLE
  7
DETAIL TEXT
  9
$CLAYER
  8
0
  9
$CELTYPE
  6
ByLayer
  9
$CECOLOR
 62
   256
  9
$CELTSCALE
 40
1.0
  9
$DISPSILH
 70
     0
  9
$DIMSCALE
 40
1.0
  9
$DIMASZ
 40
0.18
  9
$DIMEXO
 40
0.0625
  9
$DIMDLI
 40
0.38
  9
$DIMRND
 40
0.0
  9
$DIMDLE
 40
0.0
  9
$DIMEXE
 40
0.18
  9
$DIMTP
 40
0.0
  9
$DIMTM
 40
0.0
  9
$DIMTXT
 40
0.18
  9
$DIMCEN
 40
0.09
  9
$DIMTSZ
 40
0.0
  9
$DIMTOL
 70
     0
  9
$DIMLIM
 70
     0
  9
$DIMTIH
 70
     1
  9
$DIMTOH
 70
     1
  9
$DIMSE1
 70
     0
  9
$DIMSE2
 70
     0
  9
$DIMTAD
 70
     0
  9
$DIMZIN
 70
     0
  9
$DIMBLK
  1

  9
$DIMASO
 70
     1
  9
$DIMSHO
 70
     1
  9
$DIMPOST
  1

  9
$DIMAPOST
  1

  9
$DIMALT
 70
     0
  9
$DIMALTD
 70
     2
  9
$DIMALTF
 40
25.4
  9
$DIMLFAC
 40
1.0
  9
$DIMTOFL
 70
     0
  9
$DIMTVP
 40
0.0
  9
$DIMTIX
 70
     0
  9
$DIMSOXD
 70
     0
  9
$DIMSAH
 70
     0
  9
$DIMBLK1
  1

  9
$DIMBLK2
  1

  9
$DIMSTYLE
  2
Standard
  9
$DIMCLRD
 70
     0
  9
$DIMCLRE
 70
     0
  9
$DIMCLRT
 70
     0
  9
$DIMTFAC
 40
1.0
  9
$DIMGAP
 40
0.09
  9
$DIMJUST
 70
     0
  9
$DIMSD1
 70
     0
  9
$DIMSD2
 70
     0
  9
$DIMTOLJ
 70
     1
  9
$DIMTZIN
 70
     0
  9
$DIMALTZ
 70
     0
  9
$DIMALTTZ
 70
     0
  9
$DIMUPT
 70
     0
  9
$DIMDEC
 70
     4
  9
$DIMTDEC
 70
     4
  9
$DIMALTU
 70
     2
  9
$DIMALTTD
 70
     2
  9
$DIMTXSTY
  7
Standard
  9
$DIMAUNIT
 70
     0
  9
$DIMADEC
 70
     0
  9
$DIMALTRND
 40
0.0
  9
$DIMAZIN
 70
     0
  9
$DIMDSEP
 70
    46
  9
$DIMATFIT
 70
     3
  9
$DIMFRAC
 70
     0
  9
$DIMLDRBLK
  1

  9
$DIMLUNIT
 70
     2
  9
$DIMLWD
 70
    -2
  9
$DIMLWE
 70
    -2
  9
$DIMTMOVE
 70
     0
  9
$LUNITS
 70
     2
  9
$LUPREC
 70
     4
  9
$SKETCHINC
 40
0.1
  9
$FILLETRAD
 40
0.0
  9
$AUNITS
 70
     0
  9
$AUPREC
 70
     0
  9
$MENU
  1
.
  9
$ELEVATION
 40
0.0
  9
$PELEVATION
 40
0.0
  9
$THICKNESS
 40
0.0
  9
$LIMCHECK
 70
     0
  9
$CHAMFERA
 40
0.0
  9
$CHAMFERB
 40
0.0
  9
$CHAMFERC
 40
0.0
  9
$CHAMFERD
 40
0.0
  9
$SKPOLY
 70
     0
  9
$TDCREATE
 40
2456012.517465637
  9
$TDUCREATE
 40
2456012.809132303
  9
$TDUPDATE
 40
2456153.461118322
  9
$TDUUPDATE
 40
2456153.752784989
  9
$TDINDWG
 40
0.2530535185
  9
$TDUSRTIMER
 40
0.2530535185
  9
$USRTIMER
 70
     1
  9
$ANGBASE
 50
0.0
  9
$ANGDIR
 70
     0
  9
$PDMODE
 70
     0
  9
$PDSIZE
 40
0.0
  9
$PLINEWID
 40
0.0
  9
$SPLFRAME
 70
     0
  9
$SPLINETYPE
 70
     6
  9
$SPLINESEGS
 70
     8
  9
$HANDSEED
  5
29E9
  9
$SURFTAB1
 70
     6
  9
$SURFTAB2
 70
     6
  9
$SURFTYPE
 70
     6
  9
$SURFU
 70
     6
  9
$SURFV
 70
     6
  9
$UCSBASE
  2

  9
$UCSNAME
  2

  9
$UCSORG
 10
0.0
 20
0.0
 30
0.0
  9
$UCSXDIR
 10
1.0
 20
0.0
 30
0.0
  9
$UCSYDIR
 10
0.0
 20
1.0
 30
0.0
  9
$UCSORTHOREF
  2

  9
$UCSORTHOVIEW
 70
     0
  9
$UCSORGTOP
 10
0.0
 20
0.0
 30
0.0
  9
$UCSORGBOTTOM
 10
0.0
 20
0.0
 30
0.0
  9
$UCSORGLEFT
 10
0.0
 20
0.0
 30
0.0
  9
$UCSORGRIGHT
 10
0.0
 20
0.0
 30
0.0
  9
$UCSORGFRONT
 10
0.0
 20
0.0
 30
0.0
  9
$UCSORGBACK
 10
0.0
 20
0.0
 30
0.0
  9
$PUCSBASE
  2

  9
$PUCSNAME
  2

  9
$PUCSORG
 10
0.0
 20
0.0
 30
0.0
  9
$PUCSXDIR
 10
1.0
 20
0.0
 30
0.0
  9
$PUCSYDIR
 10
0.0
 20
1.0
 30
0.0
  9
$PUCSORTHOREF
  2

  9
$PUCSORTHOVIEW
 70
     0
  9
$PUCSORGTOP
 10
0.0
 20
0.0
 30
0.0
  9
$PUCSORGBOTTOM
 10
0.0
 20
0.0
 30
0.0
  9
$PUCSORGLEFT
 10
0.0
 20
0.0
 30
0.0
  9
$PUCSORGRIGHT
 10
0.0
 20
0.0
 30
0.0
  9
$PUCSORGFRONT
 10
0.0
 20
0.0
 30
0.0
  9
$PUCSORGBACK
 10
0.0
 20
0.0
 30
0.0
  9
$USERI1
 70
     0
  9
$USERI2
 70
     0
  9
$USERI3
 70
     0
  9
$USERI4
 70
     0
  9
$USERI5
 70
     0
  9
$USERR1
 40
0.0
  9
$USERR2
 40
0.0
  9
$USERR3
 40
0.0
  9
$USERR4
 40
0.0
  9
$USERR5
 40
1.0
  9
$WORLDVIEW
 70
     1
  9
$SHADEDGE
 70
     3
  9
$SHADEDIF
 70
    70
  9
$TILEMODE
 70
     1
  9
$MAXACTVP
 70
    64
  9
$PINSBASE
 10
0.0
 20
0.0
 30
0.0
  9
$PLIMCHECK
 70
     0
  9
$PEXTMIN
 10
0.0
 20
0.0
 30
0.0
  9
$PEXTMAX
 10
0.0
 20
0.0
 30
0.0
  9
$PLIMMIN
 10
0.0
 20
0.0
  9
$PLIMMAX
 10
12.0
 20
9.0
  9
$UNITMODE
 70
     0
  9
$VISRETAIN
 70
     1
  9
$PLINEGEN
 70
     0
  9
$PSLTSCALE
 70
     1
  9
$TREEDEPTH
 70
  3020
  9
$CMLSTYLE
  2
Standard
  9
$CMLJUST
 70
     0
  9
$CMLSCALE
 40
1.0
  9
$PROXYGRAPHICS
 70
     1
  9
$MEASUREMENT
 70
     0
  9
$CELWEIGHT
370
    -1
  9
$ENDCAPS
280
     0
  9
$JOINSTYLE
280
     0
  9
$LWDISPLAY
290
     0
  9
$INSUNITS
 70
     1
  9
$HYPERLINKBASE
  1

  9
$STYLESHEET
  1

  9
$XEDIT
290
     1
  9
$CEPSNTYPE
380
     0
  9
$PSTYLEMODE
290
     1
  9
$FINGERPRINTGUID
  2
{54E25747-DECD-4F46-8E40-CC13C71438EE}
  9
$VERSIONGUID
  2
{93C521C6-45F2-4B53-96CE-1FDBD395D397}
  9
$EXTNAMES
290
     1
  9
$PSVPSCALE
 40
0.0
  9
$OLESTARTUP
290
     0
  9
$SORTENTS
280
   127
  9
$INDEXCTL
280
     0
  9
$HIDETEXT
280
     1
  9
$XCLIPFRAME
290
     0
  9
$HALOGAP
280
     0
  9
$OBSCOLOR
 70
   257
  9
$OBSLTYPE
280
     0
  9
$INTERSECTIONDISPLAY
280
     0
  9
$INTERSECTIONCOLOR
 70
   257
  9
$DIMASSOC
280
     2
  9
$PROJECTNAME
  1

  0
ENDSEC
  0
SECTION
  2
CLASSES
  0
CLASS
  1
ACDBDICTIONARYWDFLT
  2
AcDbDictionaryWithDefault
  3
ObjectDBX Classes
 90
        0
 91
        1
280
     0
281
     0
  0
CLASS
  1
DICTIONARYVAR
  2
AcDbDictionaryVar
  3
ObjectDBX Classes
 90
        0
 91
       13
280
     0
281
     0
  0
CLASS
  1
TABLESTYLE
  2
AcDbTableStyle
  3
ObjectDBX Classes
 90
     4095
 91
        2
280
     0
281
     0
  0
CLASS
  1
MATERIAL
  2
AcDbMaterial
  3
ObjectDBX Classes
 90
     1153
 91
        3
280
     0
281
     0
  0
CLASS
  1
VISUALSTYLE
  2
AcDbVisualStyle
  3
ObjectDBX Classes
 90
     4095
 91
       26
280
     0
281
     0
  0
CLASS
  1
SCALE
  2
AcDbScale
  3
ObjectDBX Classes
 90
     1153
 91
       33
280
     0
281
     0
  0
CLASS
  1
MLEADERSTYLE
  2
AcDbMLeaderStyle
  3
ACDB_MLEADERSTYLE_CLASS
 90
     4095
 91
        2
280
     0
281
     0
  0
CLASS
  1
CELLSTYLEMAP
  2
AcDbCellStyleMap
  3
ObjectDBX Classes
 90
     1152
 91
        6
280
     0
281
     0
  0
CLASS
  1
EXACXREFPANELOBJECT
  2
ExAcXREFPanelObject
  3
EXAC_ESW
 90
     1025
 91
        0
280
     0
281
     0
  0
CLASS
  1
NPOCOLLECTION
  2
AcDbImpNonPersistentObjectsCollection
  3
ObjectDBX Classes
 90
     1153
 91
        0
280
     0
281
     0
  0
CLASS
  1
LAYER_INDEX
  2
AcDbLayerIndex
  3
ObjectDBX Classes
 90
        0
 91
        0
280
     0
281
     0
  0
CLASS
  1
SPATIAL_INDEX
  2
AcDbSpatialIndex
  3
ObjectDBX Classes
 90
        0
 91
        0
280
     0
281
     0
  0
CLASS
  1
IDBUFFER
  2
AcDbIdBuffer
  3
ObjectDBX Classes
 90
        0
 91
        0
280
     0
281
     0
  0
CLASS
  1
DMMAPMANAGER
  2
AcMapDMMapManager
  3
AcMapDisplayManagement
 90
     1024
 91
        1
280
     0
281
     0
  0
CLASS
  1
DMSTYLELIBRARY
  2
AcMapDMStyleLibrary
  3
AcMapDisplayManagement
 90
     1024
 91
        1
280
     0
281
     0
  0
CLASS
  1
DMSTYLECATEGORY
  2
AcMapDMStyleCategory
  3
AcMapDisplayManagement
 90
     1024
 91
        1
280
     0
281
     0
  0
CLASS
  1
DATATABLE
  2
AcDbDataTable
  3
ObjectDBX Classes
 90
        0
 91
        1
280
     0
281
     0
  0
CLASS
  1
DMMAP
  2
AcMapDMMap
  3
AcMapDisplayManagement
 90
     1024
 91
        1
280
     0
281
     0
  0
CLASS
  1
DMBASEELEMENT
  2
AcMapDMBaseElement
  3
AcMapDisplayManagement
 90
     1024
 91
        1
280
     0
281
     0
  0
CLASS
  1
DMDEFAULTSTYLE
  2
AcMapDMDefaultStyle
  3
AcMapDisplayManagement
 90
     1024
 91
        1
280
     0
281
     0
  0
CLASS
  1
DMSTYLEREFERENCE
  2
AcMapDMStyleReference
  3
AcMapDisplayManagement
 90
     1024
 91
        1
280
     0
281
     0
  0
CLASS
  1
DMSURROGATESTYLESETS
  2
AcMapDMSurrogateStyleSets
  3
AcMapDisplayManagement
 90
     1153
 91
        1
280
     0
281
     0
  0
CLASS
  1
SORTENTSTABLE
  2
AcDbSortentsTable
  3
ObjectDBX Classes
 90
        0
 91
        2
280
     0
281
     0
  0
CLASS
  1
DMSTYLIZEDENTITIESTABLE
  2
AcMapDMStylizedEntitiesTable
  3
AcMapDisplayManagement
 90
     1024
 91
        1
280
     0
281
     0
  0
CLASS
  1
MAPGWSUNDOOBJECT
  2
AcMapGWSUndoRecorder
  3
AcMapFeatureSourceManager
 90
     1025
 91
        1
280
     0
281
     0
  0
CLASS
  1
SUN
  2
AcDbSun
  3
SCENEOE
 90
     1153
 91
        1
280
     0
281
     0
  0
CLASS
  1
GEODATA
  2
AcDbGeoData
  3
ObjectDBX Classes
 90
     4095
 91
        1
280
     0
281
     0
  0
CLASS
  1
MAPRESOURCEMANAGEROBJECT
  2
AcMapResourceManager
  3
AcMapSharedComponents
 90
     1024
 91
        0
280
     0
281
     0
  0
CLASS
  1
MULTILEADER
  2
AcDbMLeader
  3
ACDB_MLEADER_CLASS
 90
     1025
 91
       10
280
     0
281
     1
  0
CLASS
  1
PLOTSETTINGS
  2
AcDbPlotSettings
  3
ObjectDBX Classes
 90
        0
 91
        1
280
     0
281
     0
  0
ENDSEC
  0
SECTION
  2
TABLES
  0
TABLE
  2
VPORT
  5
8
102
{ACAD_XDICTIONARY
360
2943
102
}
330
0
100
AcDbSymbolTable
 70
     1
  0
VPORT
  5
94
330
8
100
AcDbSymbolTableRecord
100
AcDbViewportTableRecord
  2
*Active
 70
     0
 10
0.0
 20
0.0
 11
1.0
 21
1.0
 12
4.373672235716408
 22
4.192657648982926
 13
0.0
 23
0.0
 14
0.5
 24
0.5
 15
0.5
 25
0.5
 16
0.0
 26
0.0
 36
1.0
 17
0.0
 27
0.0
 37
0.0
 40
7.175061061665395
 41
1.784580498866213
 42
50.0
 43
0.0
 44
0.0
 50
0.0
 51
0.0
 71
     0
 72
  1000
 73
     1
 74
     3
 75
     0
 76
     0
 77
     0
 78
     0
281
     0
 65
     1
110
0.0
120
0.0
130
0.0
111
1.0
121
0.0
131
0.0
112
0.0
122
1.0
132
0.0
 79
     0
146
0.0
1001
ACAD_NAV_VCDISPLAY
1070
     3
  0
ENDTAB
  0
TABLE
  2
LTYPE
  5
5
330
0
100
AcDbSymbolTable
 70
     1
  0
LTYPE
  5
14
330
5
100
AcDbSymbolTableRecord
100
AcDbLinetypeTableRecord
  2
ByBlock
 70
     0
  3

 72
    65
 73
     0
 40
0.0
  0
LTYPE
  5
15
330
5
100
AcDbSymbolTableRecord
100
AcDbLinetypeTableRecord
  2
ByLayer
 70
     0
  3

 72
    65
 73
     0
 40
0.0
  0
LTYPE
  5
16
330
5
100
AcDbSymbolTableRecord
100
AcDbLinetypeTableRecord
  2
Continuous
 70
     0
  3
Solid line
 72
    65
 73
     0
 40
0.0
  0
ENDTAB
  0
TABLE
  2
LAYER
  5
2
102
{ACAD_XDICTIONARY
360
20C
102
}
330
0
100
AcDbSymbolTable
 70
    11
  0
LAYER
  5
10
102
{ACAD_XDICTIONARY
360
E6
102
}
330
2
100
AcDbSymbolTableRecord
100
AcDbLayerTableRecord
  2
0
 70
     0
 62
     7
  6
Continuous
370
    -3
390
F
  0
LAYER
  5
2249
330
2
100
AcDbSymbolTableRecord
100
AcDbLayerTableRecord
  2
NETAFIM-L-DETL-025M
 70
     0
 62
     2
  6
Continuous
370
    -3
390
F
  0
LAYER
  5
224A
330
2
100
AcDbSymbolTableRecord
100
AcDbLayerTableRecord
  2
NETAFIM-LG-DETL-ANNO
 70
     0
 62
     1
  6
Continuous
370
    -3
390
F
  0
LAYER
  5
224B
102
{ACAD_XDICTIONARY
360
224C
102
}
330
2
100
AcDbSymbolTableRecord
100
AcDbLayerTableRecord
  2
NETAFIM-D-TEXT-025M
 70
     0
 62
     2
  6
Continuous
370
    -3
390
F
  0
LAYER
  5
224D
102
{ACAD_XDICTIONARY
360
224E
102
}
330
2
100
AcDbSymbolTableRecord
100
AcDbLayerTableRecord
  2
NETAFIM-D-070M
 70
     0
 62
     6
  6
Continuous
370
    -3
390
F
  0
LAYER
  5
224F
102
{ACAD_XDICTIONARY
360
2250
102
}
330
2
100
AcDbSymbolTableRecord
100
AcDbLayerTableRecord
  2
NETAFIM-D-NPLT
 70
     0
 62
     1
  6
Continuous
370
    -3
390
F
  0
LAYER
  5
2251
330
2
100
AcDbSymbolTableRecord
100
AcDbLayerTableRecord
  2
NETAFIM-L-DETL-013M
 70
     0
 62
     1
  6
Continuous
370
    -3
390
F
  0
LAYER
  5
2254
102
{ACAD_XDICTIONARY
360
2255
102
}
330
2
100
AcDbSymbolTableRecord
100
AcDbLayerTableRecord
  2
NETAFIM-L-DETL-TEXT-LEADER-025M
 70
     0
 62
     2
  6
Continuous
370
    -3
390
F
1001
AcAecLayerStandard
1000

1000

  0
LAYER
  5
2257
330
2
100
AcDbSymbolTableRecord
100
AcDbLayerTableRecord
  2
NETAFIM-L-DETL-035M
 70
     0
 62
     4
  6
Continuous
370
    -3
390
F
  0
LAYER
  5
2259
330
2
100
AcDbSymbolTableRecord
100
AcDbLayerTableRecord
  2
NETAFIM-L-DETL-025M-TUBING
 70
     0
 62
    25
  6
Continuous
370
    -3
390
F
1001
AcAecLayerStandard
1000

1000

  0
LAYER
  5
2874
330
2
100
AcDbSymbolTableRecord
100
AcDbLayerTableRecord
  2
NETAFIM-L-DETL-TEXT
 70
     0
 62
     1
  6
Continuous
370
    -3
390
F
1001
AcAecLayerStandard
1000

1000

1001
AcCmTransparency
1071
        0
  0
ENDTAB
  0
TABLE
  2
STYLE
  5
3
330
0
100
AcDbSymbolTable
 70
     6
  0
STYLE
  5
11
330
3
100
AcDbSymbolTableRecord
100
AcDbTextStyleTableRecord
  2
Standard
 70
     0
 40
0.0
 41
1.0
 50
0.0
 71
     0
 42
0.2
  3
arial.ttf
  4

1001
ACAD
1000
Arial
1071
       34
  0
STYLE
  5
180
330
3
100
AcDbSymbolTableRecord
100
AcDbTextStyleTableRecord
  2
Legend
 70
     0
 40
0.0
 41
1.0
 50
0.0
 71
     0
 42
0.2
  3
CALIBRI.TTF
  4

1001
ACAD
1000
Calibri
1071
      256
  0
STYLE
  5
1A9
330
3
100
AcDbSymbolTableRecord
100
AcDbTextStyleTableRecord
  2
DETAIL NUMBER
 70
     0
 40
0.0
 41
1.0
 50
0.0
 71
     0
 42
0.24
  3
swiss.ttf
  4

1001
ACAD
1000
Swis721 BT
1071
       34
  0
STYLE
  5
1AA
330
3
100
AcDbSymbolTableRecord
100
AcDbTextStyleTableRecord
  2
DETAIL TITLE
 70
     0
 40
0.0
 41
1.0
 50
0.0
 71
     0
 42
0.18
  3
swiss.ttf
  4

1001
ACAD
1000
Swis721 BT
1071
       34
  0
STYLE
  5
1AB
330
3
100
AcDbSymbolTableRecord
100
AcDbTextStyleTableRecord
  2
DETAIL TEXT
 70
     0
 40
0.0
 41
1.0
 50
0.0
 71
     0
 42
0.4732662766460578
  3
ROMANS.SHX
  4

  0
STYLE
  5
225A
330
3
100
AcDbSymbolTableRecord
100
AcDbTextStyleTableRecord
  2
Netafim Detail
 70
     0
 40
0.09
 41
1.0
 50
0.0
 71
     0
 42
0.2
  3
arial.ttf
  4

1001
ACAD
1000
Arial
1071
       34
  0
ENDTAB
  0
TABLE
  2
VIEW
  5
6
330
0
100
AcDbSymbolTable
 70
     1
  0
ENDTAB
  0
TABLE
  2
UCS
  5
7
330
0
100
AcDbSymbolTable
 70
     0
  0
ENDTAB
  0
TABLE
  2
APPID
  5
9
330
0
100
AcDbSymbolTable
 70
    19
  0
APPID
  5
12
330
9
100
AcDbSymbolTableRecord
100
AcDbRegAppTableRecord
  2
ACAD
 70
     0
  0
APPID
  5
DD
330
9
100
AcDbSymbolTableRecord
100
AcDbRegAppTableRecord
  2
AcadAnnoPO
 70
     0
  0
APPID
  5
DE
330
9
100
AcDbSymbolTableRecord
100
AcDbRegAppTableRecord
  2
AcadAnnotative
 70
     0
  0
APPID
  5
DF
330
9
100
AcDbSymbolTableRecord
100
AcDbRegAppTableRecord
  2
ACAD_DSTYLE_DIMJAG
 70
     0
  0
APPID
  5
E0
330
9
100
AcDbSymbolTableRecord
100
AcDbRegAppTableRecord
  2
ACAD_DSTYLE_DIMTALN
 70
     0
  0
APPID
  5
107
330
9
100
AcDbSymbolTableRecord
100
AcDbRegAppTableRecord
  2
ACAD_MLEADERVER
 70
     0
  0
APPID
  5
184
330
9
100
AcDbSymbolTableRecord
100
AcDbRegAppTableRecord
  2
AcMapDMDisplayStyleRegapp
 70
     0
  0
APPID
  5
18E
330
9
100
AcDbSymbolTableRecord
100
AcDbRegAppTableRecord
  2
ADE
 70
     0
  0
APPID
  5
191
330
9
100
AcDbSymbolTableRecord
100
AcDbRegAppTableRecord
  2
MapGWS
 70
     0
  0
APPID
  5
194
330
9
100
AcDbSymbolTableRecord
100
AcDbRegAppTableRecord
  2
DCO15
 70
     0
  0
APPID
  5
19E
330
9
100
AcDbSymbolTableRecord
100
AcDbRegAppTableRecord
  2
LandFX
 70
     0
  0
APPID
  5
1AC
330
9
100
AcDbSymbolTableRecord
100
AcDbRegAppTableRecord
  2
RAK
 70
     0
  0
APPID
  5
1AD
330
9
100
AcDbSymbolTableRecord
100
AcDbRegAppTableRecord
  2
ACAD_EXEMPT_FROM_CAD_STANDARDS
 70
     0
  0
APPID
  5
209
330
9
100
AcDbSymbolTableRecord
100
AcDbRegAppTableRecord
  2
ACAD_PSEXT
 70
     0
  0
APPID
  5
20A
330
9
100
AcDbSymbolTableRecord
100
AcDbRegAppTableRecord
  2
AcAecLayerStandard
 70
     0
  0
APPID
  5
20B
330
9
100
AcDbSymbolTableRecord
100
AcDbRegAppTableRecord
  2
ACAD_NAV_VCDISPLAY
 70
     0
  0
APPID
  5
27AF
330
9
100
AcDbSymbolTableRecord
100
AcDbRegAppTableRecord
  2
AcLayerTools
 70
     0
  0
APPID
  5
2875
330
9
100
AcDbSymbolTableRecord
100
AcDbRegAppTableRecord
  2
AcCmTransparency
 70
     0
  0
APPID
  5
28F7
330
9
100
AcDbSymbolTableRecord
100
AcDbRegAppTableRecord
  2
ACAD_DSTYLE_DIMBREAK
 70
     0
  0
ENDTAB
  0
TABLE
  2
DIMSTYLE
  5
A
330
0
100
AcDbSymbolTable
 70
     2
100
AcDbDimStyleTable
 71
     1
340
27
  0
DIMSTYLE
105
27
330
A
100
AcDbSymbolTableRecord
100
AcDbDimStyleTableRecord
  2
Standard
 70
     0
340
11
  0
DIMSTYLE
105
28F6
330
A
100
AcDbSymbolTableRecord
100
AcDbDimStyleTableRecord
  2
Netafim Detail
 70
     0
 41
0.12
140
0.09
271
     2
272
     2
340
225A
1001
ACAD_DSTYLE_DIMBREAK
1070
   391
1040
0.125
1001
ACAD_DSTYLE_DIMJAG
1070
   388
1040
1.5
1001
ACAD_DSTYLE_DIMTALN
1070
   392
1070
     0
  0
ENDTAB
  0
TABLE
  2
BLOCK_RECORD
  5
1
330
0
100
AcDbSymbolTable
 70
     2
  0
BLOCK_RECORD
  5
1F
102
{ACAD_XDICTIONARY
360
15D
102
}
330
1
100
AcDbSymbolTableRecord
100
AcDbBlockTableRecord
  2
*Model_Space
340
22
  0
BLOCK_RECORD
  5
58
330
1
100
AcDbSymbolTableRecord
100
AcDbBlockTableRecord
  2
*Paper_Space
340
59
  0
BLOCK_RECORD
  5
5D
330
1
100
AcDbSymbolTableRecord
100
AcDbBlockTableRecord
  2
*Paper_Space0
340
5E
  0
BLOCK_RECORD
  5
28F8
102
{ACAD_XDICTIONARY
360
28FB
102
}
330
1
100
AcDbSymbolTableRecord
100
AcDbBlockTableRecord
  2
LIMITATIONS
340
0
102
{BLKREFS
331
2900
102
}
1001
ACAD
1000
DesignCenter Data
1002
{
1070
     1
1070
     1
1002
}
  0
ENDTAB
  0
ENDSEC
  0
SECTION
  2
BLOCKS
  0
BLOCK
  5
20
330
1F
100
AcDbEntity
  8
0
100
AcDbBlockBegin
  2
*Model_Space
 70
     0
 10
0.0
 20
0.0
 30
0.0
  3
*Model_Space
  1

  0
ENDBLK
  5
21
330
1F
100
AcDbEntity
  8
0
100
AcDbBlockEnd
  0
BLOCK
  5
5A
330
58
100
AcDbEntity
 67
     1
  8
0
100
AcDbBlockBegin
  2
*Paper_Space
 70
     0
 10
0.0
 20
0.0
 30
0.0
  3
*Paper_Space
  1

  0
ENDBLK
  5
5B
330
58
100
AcDbEntity
 67
     1
  8
0
100
AcDbBlockEnd
  0
BLOCK
  5
5F
330
5D
100
AcDbEntity
 67
     1
  8
0
100
AcDbBlockBegin
  2
*Paper_Space0
 70
     0
 10
0.0
 20
0.0
 30
0.0
  3
*Paper_Space0
  1

  0
ENDBLK
  5
60
330
5D
100
AcDbEntity
 67
     1
  8
0
100
AcDbBlockEnd
  0
BLOCK
  5
28FD
330
28F8
100
AcDbEntity
  8
0
100
AcDbBlockBegin
  2
LIMITATIONS
 70
     0
 10
0.0
 20
0.0
 30
0.0
  3
LIMITATIONS
  1

  0
MTEXT
  5
28F9
330
28F8
100
AcDbEntity
  8
NETAFIM-D-NPLT
100
AcDbMText
 10
-0.7827171174748458
 20
0.2352495300830739
 30
0.0
 40
0.06
 41
6.843161446901433
 71
     1
 72
     5
  3
{\fArial|b0|i0|c0|p34;LIMITATIONS:\P\PALLOWING FOR A WIDE VARIETY OF APPLICATIONS AND CONDITIONS, NETAFIM IRRIGATION INC. IS NOT RESPONSIBLE FOR CORRECTNESS OR APPLICABILITY TO PURPOSE OR COMPATIBILITY TO ANY SITE OR JOB CONDITION. WARRANTY FOR SUITA
  3
BILITY IS NOT GIVEN OR IMPLIED. MODIFICATIONS FOR SPECIFIC PURPOSES MAY BE NECESSARY AND ARE THE SPECIFIERS' RESPONSIBILITY. THE USE OF THESE DETAILS SHALL NOT BE RESTRICTED AND PUBLICATION THEREOF IS NOT LIMITED TO ANY PURPOSE.  REPRODUCTION, PUBLIC
  1
ATION AND REUSE BY ANY METHOD IN WHOLE OR PART IS FULLY AUTHORIZED. OWNERSHIP IS RETAINED BY NETAFIM IRRIGATION INC.  VISUAL CONTACT WITH THESE DETAILS SHALL CONSTITUTE PRIMA FACIA EVIDENCE OF THE ACCEPTANCE OF THESE RESTRICTIONS.}
  7
DETAIL TEXT
 11
0.0000000000000001
 21
1.0
 31
0.0
 73
     1
 44
1.0
1001
ACAD
1000
ACAD_MTEXT_COLUMN_INFO_BEGIN
1070
    75
1070
     2
1070
    79
1070
     0
1070
    76
1070
     1
1070
    78
1070
     0
1070
    48
1040
6.843161446901433
1070
    49
1040
0.45
1070
    50
1070
     1
1040
0.0
1000
ACAD_MTEXT_COLUMN_INFO_END
  0
LWPOLYLINE
  5
28FA
330
28F8
100
AcDbEntity
  8
NETAFIM-D-NPLT
100
AcDbPolyline
 90
        4
 70
     1
 43
0.0
 10
0.0
 20
7.124999999999998
 10
-0.8951802582263113
 20
7.124999999999998
 10
-0.8951802582263113
 20
0.0
 10
0.0
 20
0.0
  0
ENDBLK
  5
28FE
330
28F8
100
AcDbEntity
  8
0
100
AcDbBlockEnd
  0
ENDSEC
  0
SECTION
  2
ENTITIES
  0
LWPOLYLINE
  5
25D3
330
1F
100
AcDbEntity
  8
NETAFIM-LG-DETL-ANNO
100
AcDbPolyline
 90
        4
 70
     1
 43
0.0
 10
0.0
 20
0.0
 10
9.642500000000001
 20
0.0
 10
9.642500000000001
 20
7.124999999999998
 10
0.0
 20
7.124999999999998
1001
LandFX
1000
DETAIL-FORMAT
1000
1A
1040
1.0
1000
DIM1
  0
LINE
  5
25D4
330
1F
100
AcDbEntity
  8
NETAFIM-D-070M
100
AcDbLine
 10
0.6827834977815748
 20
0.3411345796340779
 30
0.0
 11
9.402671659680127
 21
0.3411345796340779
 31
0.0
  0
CIRCLE
  5
25D5
330
1F
100
AcDbEntity
  8
NETAFIM-D-070M
100
AcDbCircle
 10
0.4015334977815748
 20
0.3411345796340779
 30
0.0
 40
0.28125
1001
LandFX
1000
DETAIL-CIRCLE
  0
TEXT
  5
25D6
330
1F
100
AcDbEntity
  8
NETAFIM-D-TEXT-025M
100
AcDbText
 10
0.2183970415697622
 20
0.2363665608325967
 30
0.0
 40
0.24
  1
00
  7
DETAIL NUMBER
 72
     1
 11
0.4015334977815748
 21
0.2363665608325967
 31
0.0
100
AcDbText
1001
LandFX
1000
DETAIL-NUMBER
  0
TEXT
  5
25D7
330
1F
100
AcDbEntity
  8
NETAFIM-D-TEXT-025M
100
AcDbText
 10
0.862738956263076
 20
0.4291972829225479
 30
0.0
 40
0.18
  1
Techline® USED AS PERIMETER TRIM
  7
DETAIL TITLE
100
AcDbText
1001
LandFX
1000
DETAIL-TITLE
  0
TEXT
  5
25D8
330
1F
100
AcDbEntity
  8
NETAFIM-D-TEXT-025M
100
AcDbText
 10
0.8697210820341609
 20
0.139743013662887
 30
0.0
 40
0.09
  1
NOT TO SCALE
  7
DETAIL TEXT
100
AcDbText
1001
LandFX
1000
DETAIL-SCALE
  0
TEXT
  5
25D9
330
1F
100
AcDbEntity
  8
NETAFIM-D-TEXT-025M
100
AcDbText
 10
8.355334937694632
 20
0.1348378227173228
 30
0.0
 40
0.09
  1
DETAIL - A106
  7
DETAIL TEXT
 72
     2
 11
9.392477794837489
 21
0.1348378227173228
 31
0.0
100
AcDbText
1001
LandFX
1000
DETAIL-FILE
  0
LINE
  5
25DA
330
1F
100
AcDbEntity
  8
NETAFIM-D-NPLT
100
AcDbLine
 10
0.0
 20
0.1500000000000003
 30
0.0
 11
0.0
 21
0.0
 31
0.0
  0
LINE
  5
25DB
330
1F
100
AcDbEntity
  8
NETAFIM-D-NPLT
100
AcDbLine
 10
9.642500000000001
 20
0.1500000000000003
 30
0.0
 11
9.642500000000001
 21
0.0
 31
0.0
  0
LINE
  5
25DC
330
1F
100
AcDbEntity
  8
NETAFIM-D-NPLT
100
AcDbLine
 10
0.0
 20
0.0
 30
0.0
 11
0.1499999999999986
 21
0.0
 31
0.0
  0
LINE
  5
25DD
330
1F
100
AcDbEntity
  8
NETAFIM-D-NPLT
100
AcDbLine
 10
9.492500000000003
 20
0.0
 30
0.0
 11
9.642500000000001
 21
0.0
 31
0.0
  0
HATCH
  5
25DE
330
1F
100
AcDbEntity
  8
NETAFIM-L-DETL-013M
100
AcDbHatch
 10
0.0
 20
0.0
 30
0.0
210
0.0
220
0.0
230
1.0
  2
SOLID
 70
     1
 71
     0
 91
       12
 92
        7
 72
     1
 73
     1
 93
        3
 10
8.182780123719755
 20
0.5088580073223393
 42
1.407273687863683
 10
8.306610455730019
 20
0.5088580073223393
 42
0.0
 10
8.244695289724887
 20
0.6547209976358977
 42
0.0
 97
        0
 92
        7
 72
     1
 73
     1
 93
        3
 10
8.328564270341036
 20
0.7413756720831879
 42
0.0
 10
8.289189270341037
 20
0.6486139851788782
 42
1.407273687863691
 10
8.367939270341036
 20
0.6486139851788782
 42
0.0
 97
        0
 92
        7
 72
     0
 73
     1
 93
       10
 10
8.471403918155896
 20
0.6487752618358354
 10
8.504014490154165
 20
0.5638218173297345
 10
8.553964490154164
 20
0.5638218173297345
 10
8.576479131873487
 20
0.7240218173297351
 10
8.526529131873488
 20
0.7240218173297351
 10
8.514589703871756
 20
0.6390683728236333
 10
8.481979131873487
 20
0.7240218173297351
 10
8.432029131873488
 20
0.7240218173297351
 10
8.409514490154162
 20
0.5638218173297345
 10
8.459464490154164
 20
0.5638218173297345
 97
        0
 92
        7
 72
     0
 73
     1
 93
       12
 10
8.631780241607764
 20
0.6237577921903182
 10
8.672276386040906
 20
0.6237577921903182
 10
8.678084469672661
 20
0.6650844546087989
 10
8.637588325239523
 20
0.6650844546087989
 10
8.639780301579644
 20
0.6806811766914782
 10
8.683787503302859
 20
0.6806811766914782
 10
8.689878633114695
 20
0.7240218173297351
 10
8.593129131873485
 20
0.7240218173297351
 10
8.570614490154163
 20
0.5638218173297345
 10
8.667363991395372
 20
0.5638218173297345
 10
8.673438897252278
 20
0.6070470185303041
 10
8.629431695529063
 20
0.6070470185303041
 97
        0
 92
        7
 72
     0
 73
     1
 93
        8
 10
8.711801491395373
 20
0.5638218173297345
 10
8.761751491395372
 20
0.5638218173297345
 10
8.778191227257789
 20
0.6807966161291646
 10
8.808228727257787
 20
0.6807966161291646
 10
8.814303633114693
 20
0.7240218173297351
 10
8.704278633114697
 20
0.7240218173297351
 10
8.698203727257787
 20
0.6807966161291646
 10
8.72824122725779
 20
0.6807966161291646
 97
        0
 92
        7
 72
     0
 73
     1
 93
        8
 10
8.775267221775955
 20
0.5638218173297345
 10
8.829267221775953
 20
0.5638218173297345
 10
8.837971398315644
 20
0.5849499593903494
 10
8.880785001506225
 20
0.5849499593903494
 10
8.881852988542362
 20
0.5638218173297345
 10
8.933602988542361
 20
0.5638218173297345
 10
8.912512258428861
 20
0.7240218173297351
 10
8.855139995386114
 20
0.7240218173297351
 97
        0
 92
       22
 72
     0
 73
     1
 93
        3
 10
8.853959090316418
 20
0.6237577921903182
 10
8.876105958546798
 20
0.677516143257237
 10
8.878823340030642
 20
0.6237577921903182
 97
        0
 92
        7
 72
     0
 73
     1
 93
       10
 10
9.008384722948694
 20
0.6237577921903182
 10
9.048880867381832
 20
0.6237577921903182
 10
9.054688951013591
 20
0.6650844546087989
 10
9.014192806580449
 20
0.6650844546087989
 10
9.016384782920571
 20
0.6806811766914782
 10
9.060391984643786
 20
0.6806811766914782
 10
9.066483114455625
 20
0.7240218173297351
 10
8.969600912732406
 20
0.7240218173297351
 10
8.947086271013084
 20
0.5638218173297345
 10
8.999961271013084
 20
0.5638218173297345
 97
        0
 92
        7
 72
     0
 73
     1
 93
        4
 10
9.134433114455621
 20
0.7240218173297351
 10
9.081558114455621
 20
0.7240218173297351
 10
9.059043472736302
 20
0.5638218173297345
 10
9.111918472736302
 20
0.5638218173297345
 97
        0
 92
        7
 72
     0
 73
     1
 93
       13
 10
9.194590601815551
 20
0.6425896221603678
 10
9.204960580050983
 20
0.5638218173297345
 10
9.239362041544534
 20
0.5638218173297345
 10
9.269742683095667
 20
0.6491494233452482
 10
9.269742683095667
 20
0.5638218173297345
 10
9.317892683095667
 20
0.5638218173297345
 10
9.317892683095667
 20
0.7240218173297351
 10
9.261999315857149
 20
0.7240218173297351
 10
9.233007043797716
 20
0.6425936103704402
 10
9.222286816977462
 20
0.7240218173297351
 10
9.168440908032582
 20
0.7240218173297351
 10
9.122504297234019
 20
0.5638218173297345
 10
9.172004297234021
 20
0.5638218173297345
 97
        0
 92
        7
 72
     0
 73
     1
 93
        8
 10
9.359631383606693
 20
0.7240218173297351
 10
9.334881383606692
 20
0.7240218173297351
 10
9.334881383606692
 20
0.7192968173297345
 10
9.343881383606689
 20
0.7192968173297345
 10
9.343881383606689
 20
0.694321817329735
 10
9.350631383606692
 20
0.694321817329735
 10
9.350631383606692
 20
0.7192968173297345
 10
9.359631383606693
 20
0.7192968173297345
 97
        0
 92
        7
 72
     0
 73
     1
 93
       13
 10
9.374481383606692
 20
0.7240218173297351
 10
9.363456383606692
 20
0.7240218173297351
 10
9.363456383606692
 20
0.694321817329735
 10
9.370206383606692
 20
0.694321817329735
 10
9.370206383606692
 20
0.7157621053595414
 10
9.378868883606692
 20
0.694321817329735
 10
9.383368883606692
 20
0.694321817329735
 10
9.392031383606692
 20
0.7157621053595405
 10
9.392031383606692
 20
0.694321817329735
 10
9.398781383606692
 20
0.694321817329735
 10
9.398781383606692
 20
0.7240218173297351
 10
9.387756383606692
 20
0.7240218173297351
 10
9.381118883606692
 20
0.7075935446835198
 97
        0
 75
     0
 76
     1
 47
0.0019728894204142
 98
       12
 10
8.230372135110648
 20
0.5103152141502978
 10
8.336056493365362
 20
0.6443730516044504
 10
8.449733788517161
 20
0.6372706487929696
 10
8.618473522372621
 20
0.6372706487929696
 10
8.745472374982277
 20
0.6354950490973606
 10
8.829842238882047
 20
0.6124122429818311
 10
8.829842238882047
 20
0.6124122429818311
 10
8.987924728588001
 20
0.6239536450323345
 10
9.102490125147951
 20
0.6257292467424663
 10
9.1877480965118
 20
0.6488120528579949
 10
9.348494893470178
 20
0.7224994724581278
 10
9.365368868672501
 20
0.7233872723059323
450
        0
451
        0
460
0.0
461
0.0
452
        1
462
1.0
453
        2
463
0.0
 63
     5
421
      255
463
1.0
 63
     7
421
 16777215
470
LINEAR
1001
ACAD
1010
0.0
1020
0.0
1030
0.0
  0
LWPOLYLINE
  5
25DF
330
1F
100
AcDbEntity
  8
NETAFIM-L-DETL-013M
100
AcDbPolyline
 90
        3
 70
     1
 43
0.0
 10
8.328564270341036
 20
0.7413756720831879
 10
8.289189270341037
 20
0.6486139851788782
 42
1.407273687863686
 10
8.367939270341036
 20
0.6486139851788773
  0
LWPOLYLINE
  5
25E0
330
1F
100
AcDbEntity
  8
NETAFIM-L-DETL-013M
100
AcDbPolyline
 90
        3
 70
     1
 43
0.0
 10
8.244695289724887
 20
0.6547209976358977
 10
8.182780123719755
 20
0.5088580073223393
 42
1.407273687863686
 10
8.306610455730019
 20
0.5088580073223393
  0
LWPOLYLINE
  5
25E1
330
1F
100
AcDbEntity
  8
NETAFIM-L-DETL-013M
100
AcDbPolyline
 90
        2
 70
     0
 43
0.0
 10
8.432029131873488
 20
0.7240218173297351
 10
8.481979131873487
 20
0.7240218173297351
  0
LWPOLYLINE
  5
25E2
330
1F
100
AcDbEntity
  8
NETAFIM-L-DETL-013M
100
AcDbPolyline
 90
        2
 70
     0
 43
0.0
 10
8.526529131873488
 20
0.7240218173297351
 10
8.576479131873487
 20
0.7240218173297351
  0
LWPOLYLINE
  5
25E3
330
1F
100
AcDbEntity
  8
NETAFIM-L-DETL-013M
100
AcDbPolyline
 90
        2
 70
     0
 43
0.0
 10
8.704278633114697
 20
0.7240218173297351
 10
8.814303633114693
 20
0.7240218173297351
  0
LWPOLYLINE
  5
25E4
330
1F
100
AcDbEntity
  8
NETAFIM-L-DETL-013M
100
AcDbPolyline
 90
        2
 70
     0
 43
0.0
 10
8.855139995386114
 20
0.7240218173297351
 10
8.912512258428861
 20
0.7240218173297351
  0
LWPOLYLINE
  5
25E5
330
1F
100
AcDbEntity
  8
NETAFIM-L-DETL-013M
100
AcDbPolyline
 90
        2
 70
     0
 43
0.0
 10
8.969600912732406
 20
0.7240218173297351
 10
9.066483114455625
 20
0.7240218173297351
  0
LWPOLYLINE
  5
25E6
330
1F
100
AcDbEntity
  8
NETAFIM-L-DETL-013M
100
AcDbPolyline
 90
        2
 70
     0
 43
0.0
 10
9.081558114455621
 20
0.7240218173297351
 10
9.134433114455621
 20
0.7240218173297351
  0
LWPOLYLINE
  5
25E7
330
1F
100
AcDbEntity
  8
NETAFIM-L-DETL-013M
100
AcDbPolyline
 90
        2
 70
     0
 43
0.0
 10
9.168440908032582
 20
0.7240218173297351
 10
9.222286816977462
 20
0.7240218173297351
  0
LWPOLYLINE
  5
25E8
330
1F
100
AcDbEntity
  8
NETAFIM-L-DETL-013M
100
AcDbPolyline
 90
        2
 70
     0
 43
0.0
 10
9.261999315857149
 20
0.7240218173297351
 10
9.317892683095667
 20
0.7240218173297351
  0
LWPOLYLINE
  5
25E9
330
1F
100
AcDbEntity
  8
NETAFIM-L-DETL-013M
100
AcDbPolyline
 90
        2
 70
     0
 43
0.0
 10
9.334881383606692
 20
0.7240218173297351
 10
9.359631383606693
 20
0.7240218173297351
  0
LWPOLYLINE
  5
25EA
330
1F
100
AcDbEntity
  8
NETAFIM-L-DETL-013M
100
AcDbPolyline
 90
        2
 70
     0
 43
0.0
 10
9.363456383606692
 20
0.7240218173297351
 10
9.374481383606692
 20
0.7240218173297351
  0
LWPOLYLINE
  5
25EB
330
1F
100
AcDbEntity
  8
NETAFIM-L-DETL-013M
100
AcDbPolyline
 90
        2
 70
     0
 43
0.0
 10
9.387756383606692
 20
0.7240218173297351
 10
9.398781383606692
 20
0.7240218173297351
  0
LWPOLYLINE
  5
25EC
330
1F
100
AcDbEntity
  8
NETAFIM-L-DETL-013M
100
AcDbPolyline
 90
        2
 70
     0
 43
0.0
 10
9.343881383606689
 20
0.694321817329735
 10
9.350631383606692
 20
0.694321817329735
  0
LWPOLYLINE
  5
25ED
330
1F
100
AcDbEntity
  8
NETAFIM-L-DETL-013M
100
AcDbPolyline
 90
        2
 70
     0
 43
0.0
 10
9.363456383606692
 20
0.694321817329735
 10
9.370206383606692
 20
0.694321817329735
  0
LWPOLYLINE
  5
25EE
330
1F
100
AcDbEntity
  8
NETAFIM-L-DETL-013M
100
AcDbPolyline
 90
        2
 70
     0
 43
0.0
 10
9.378868883606692
 20
0.694321817329735
 10
9.383368883606692
 20
0.694321817329735
  0
LWPOLYLINE
  5
25EF
330
1F
100
AcDbEntity
  8
NETAFIM-L-DETL-013M
100
AcDbPolyline
 90
        2
 70
     0
 43
0.0
 10
9.392031383606692
 20
0.694321817329735
 10
9.398781383606692
 20
0.694321817329735
  0
LWPOLYLINE
  5
25F0
330
1F
100
AcDbEntity
  8
NETAFIM-L-DETL-013M
100
AcDbPolyline
 90
        2
 70
     0
 43
0.0
 10
8.409514490154162
 20
0.5638218173297345
 10
8.459464490154164
 20
0.5638218173297345
  0
LWPOLYLINE
  5
25F1
330
1F
100
AcDbEntity
  8
NETAFIM-L-DETL-013M
100
AcDbPolyline
 90
        2
 70
     0
 43
0.0
 10
8.504014490154165
 20
0.5638218173297345
 10
8.553964490154164
 20
0.5638218173297345
  0
LWPOLYLINE
  5
25F2
330
1F
100
AcDbEntity
  8
NETAFIM-L-DETL-013M
100
AcDbPolyline
 90
        2
 70
     0
 43
0.0
 10
8.570614490154163
 20
0.5638218173297345
 10
8.667363991395372
 20
0.5638218173297345
  0
LWPOLYLINE
  5
25F3
330
1F
100
AcDbEntity
  8
NETAFIM-L-DETL-013M
100
AcDbPolyline
 90
        2
 70
     0
 43
0.0
 10
8.711801491395373
 20
0.5638218173297345
 10
8.761751491395372
 20
0.5638218173297345
  0
LWPOLYLINE
  5
25F4
330
1F
100
AcDbEntity
  8
NETAFIM-L-DETL-013M
100
AcDbPolyline
 90
        2
 70
     0
 43
0.0
 10
8.775267221775955
 20
0.5638218173297345
 10
8.829267221775953
 20
0.5638218173297345
  0
LWPOLYLINE
  5
25F5
330
1F
100
AcDbEntity
  8
NETAFIM-L-DETL-013M
100
AcDbPolyline
 90
        2
 70
     0
 43
0.0
 10
8.881852988542362
 20
0.5638218173297345
 10
8.933602988542361
 20
0.5638218173297345
  0
LWPOLYLINE
  5
25F6
330
1F
100
AcDbEntity
  8
NETAFIM-L-DETL-013M
100
AcDbPolyline
 90
        2
 70
     0
 43
0.0
 10
8.947086271013084
 20
0.5638218173297345
 10
8.999961271013084
 20
0.5638218173297345
  0
LWPOLYLINE
  5
25F7
330
1F
100
AcDbEntity
  8
NETAFIM-L-DETL-013M
100
AcDbPolyline
 90
        2
 70
     0
 43
0.0
 10
9.059043472736302
 20
0.5638218173297345
 10
9.111918472736302
 20
0.5638218173297345
  0
LWPOLYLINE
  5
25F8
330
1F
100
AcDbEntity
  8
NETAFIM-L-DETL-013M
100
AcDbPolyline
 90
        2
 70
     0
 43
0.0
 10
9.122504297234019
 20
0.5638218173297345
 10
9.172004297234021
 20
0.5638218173297345
  0
LWPOLYLINE
  5
25F9
330
1F
100
AcDbEntity
  8
NETAFIM-L-DETL-013M
100
AcDbPolyline
 90
        2
 70
     0
 43
0.0
 10
9.204960580050983
 20
0.5638218173297345
 10
9.239362041544534
 20
0.5638218173297345
  0
LWPOLYLINE
  5
25FA
330
1F
100
AcDbEntity
  8
NETAFIM-L-DETL-013M
100
AcDbPolyline
 90
        2
 70
     0
 43
0.0
 10
9.269742683095667
 20
0.5638218173297345
 10
9.317892683095667
 20
0.5638218173297345
  0
LWPOLYLINE
  5
25FB
330
1F
100
AcDbEntity
  8
NETAFIM-L-DETL-013M
100
AcDbPolyline
 90
        2
 70
     0
 43
0.0
 10
8.409514490154162
 20
0.5638218173297345
 10
8.432029131873488
 20
0.7240218173297351
  0
LWPOLYLINE
  5
25FC
330
1F
100
AcDbEntity
  8
NETAFIM-L-DETL-013M
100
AcDbPolyline
 90
        2
 70
     0
 43
0.0
 10
8.459464490154164
 20
0.5638218173297345
 10
8.471403918155896
 20
0.6487752618358354
  0
LWPOLYLINE
  5
25FD
330
1F
100
AcDbEntity
  8
NETAFIM-L-DETL-013M
100
AcDbPolyline
 90
        2
 70
     0
 43
0.0
 10
8.514589703871756
 20
0.6390683728236333
 10
8.481979131873487
 20
0.7240218173297351
  0
LWPOLYLINE
  5
25FE
330
1F
100
AcDbEntity
  8
NETAFIM-L-DETL-013M
100
AcDbPolyline
 90
        2
 70
     0
 43
0.0
 10
8.514589703871756
 20
0.6390683728236333
 10
8.526529131873488
 20
0.7240218173297351
  0
LWPOLYLINE
  5
25FF
330
1F
100
AcDbEntity
  8
NETAFIM-L-DETL-013M
100
AcDbPolyline
 90
        2
 70
     0
 43
0.0
 10
8.504014490154165
 20
0.5638218173297345
 10
8.471403918155896
 20
0.6487752618358354
  0
LWPOLYLINE
  5
2600
330
1F
100
AcDbEntity
  8
NETAFIM-L-DETL-013M
100
AcDbPolyline
 90
        2
 70
     0
 43
0.0
 10
8.553964490154164
 20
0.5638218173297345
 10
8.576479131873487
 20
0.7240218173297351
  0
LWPOLYLINE
  5
2601
330
1F
100
AcDbEntity
  8
NETAFIM-L-DETL-013M
100
AcDbPolyline
 90
        2
 70
     0
 43
0.0
 10
8.570614490154163
 20
0.5638218173297345
 10
8.593129131873485
 20
0.7240218173297351
  0
LWPOLYLINE
  5
2602
330
1F
100
AcDbEntity
  8
NETAFIM-L-DETL-013M
100
AcDbPolyline
 90
        2
 70
     0
 43
0.0
 10
8.667363991395372
 20
0.5638218173297345
 10
8.673438897252278
 20
0.6070470185303041
  0
LWPOLYLINE
  5
2603
330
1F
100
AcDbEntity
  8
NETAFIM-L-DETL-013M
100
AcDbPolyline
 90
        2
 70
     0
 43
0.0
 10
8.683787503302859
 20
0.6806811766914782
 10
8.689878633114695
 20
0.7240218173297351
  0
LWPOLYLINE
  5
2604
330
1F
100
AcDbEntity
  8
NETAFIM-L-DETL-013M
100
AcDbPolyline
 90
        2
 70
     0
 43
0.0
 10
8.629431695529063
 20
0.6070470185303041
 10
8.631780241607764
 20
0.6237577921903182
  0
LWPOLYLINE
  5
2605
330
1F
100
AcDbEntity
  8
NETAFIM-L-DETL-013M
100
AcDbPolyline
 90
        2
 70
     0
 43
0.0
 10
8.637588325239523
 20
0.6650844546087989
 10
8.639780301579644
 20
0.6806811766914782
  0
LWPOLYLINE
  5
2606
330
1F
100
AcDbEntity
  8
NETAFIM-L-DETL-013M
100
AcDbPolyline
 90
        2
 70
     0
 43
0.0
 10
8.672276386040906
 20
0.6237577921903182
 10
8.678084469672661
 20
0.6650844546087989
  0
LWPOLYLINE
  5
2607
330
1F
100
AcDbEntity
  8
NETAFIM-L-DETL-013M
100
AcDbPolyline
 90
        2
 70
     0
 43
0.0
 10
8.698203727257787
 20
0.6807966161291646
 10
8.704278633114697
 20
0.7240218173297351
  0
LWPOLYLINE
  5
2608
330
1F
100
AcDbEntity
  8
NETAFIM-L-DETL-013M
100
AcDbPolyline
 90
        2
 70
     0
 43
0.0
 10
8.808228727257787
 20
0.6807966161291646
 10
8.814303633114693
 20
0.7240218173297351
  0
LWPOLYLINE
  5
2609
330
1F
100
AcDbEntity
  8
NETAFIM-L-DETL-013M
100
AcDbPolyline
 90
        2
 70
     0
 43
0.0
 10
8.698203727257787
 20
0.6807966161291646
 10
8.72824122725779
 20
0.6807966161291646
  0
LWPOLYLINE
  5
260A
330
1F
100
AcDbEntity
  8
NETAFIM-L-DETL-013M
100
AcDbPolyline
 90
        2
 70
     0
 43
0.0
 10
8.778191227257789
 20
0.6807966161291646
 10
8.808228727257787
 20
0.6807966161291646
  0
LWPOLYLINE
  5
260B
330
1F
100
AcDbEntity
  8
NETAFIM-L-DETL-013M
100
AcDbPolyline
 90
        2
 70
     0
 43
0.0
 10
8.711801491395373
 20
0.5638218173297345
 10
8.72824122725779
 20
0.6807966161291646
  0
LWPOLYLINE
  5
260C
330
1F
100
AcDbEntity
  8
NETAFIM-L-DETL-013M
100
AcDbPolyline
 90
        2
 70
     0
 43
0.0
 10
8.761751491395372
 20
0.5638218173297345
 10
8.778191227257789
 20
0.6807966161291646
  0
LWPOLYLINE
  5
260D
330
1F
100
AcDbEntity
  8
NETAFIM-L-DETL-013M
100
AcDbPolyline
 90
        2
 70
     0
 43
0.0
 10
8.683787503302859
 20
0.6806811766914782
 10
8.639780301579644
 20
0.6806811766914782
  0
LWPOLYLINE
  5
260E
330
1F
100
AcDbEntity
  8
NETAFIM-L-DETL-013M
100
AcDbPolyline
 90
        2
 70
     0
 43
0.0
 10
8.673438897252278
 20
0.6070470185303041
 10
8.629431695529063
 20
0.6070470185303041
  0
LWPOLYLINE
  5
260F
330
1F
100
AcDbEntity
  8
NETAFIM-L-DETL-013M
100
AcDbPolyline
 90
        2
 70
     0
 43
0.0
 10
8.672276386040906
 20
0.6237577921903182
 10
8.631780241607764
 20
0.6237577921903182
  0
LWPOLYLINE
  5
2610
330
1F
100
AcDbEntity
  8
NETAFIM-L-DETL-013M
100
AcDbPolyline
 90
        2
 70
     0
 43
0.0
 10
8.678084469672661
 20
0.6650844546087989
 10
8.637588325239523
 20
0.6650844546087989
  0
LWPOLYLINE
  5
2611
330
1F
100
AcDbEntity
  8
NETAFIM-L-DETL-013M
100
AcDbPolyline
 90
        2
 70
     0
 43
0.0
 10
8.878823340030642
 20
0.6237577921903182
 10
8.853959090316418
 20
0.6237577921903182
  0
LWPOLYLINE
  5
2612
330
1F
100
AcDbEntity
  8
NETAFIM-L-DETL-013M
100
AcDbPolyline
 90
        2
 70
     0
 43
0.0
 10
8.947086271013084
 20
0.5638218173297345
 10
8.969600912732406
 20
0.7240218173297351
  0
LWPOLYLINE
  5
2613
330
1F
100
AcDbEntity
  8
NETAFIM-L-DETL-013M
100
AcDbPolyline
 90
        2
 70
     0
 43
0.0
 10
9.059043472736302
 20
0.5638218173297345
 10
9.081558114455621
 20
0.7240218173297351
  0
LWPOLYLINE
  5
2614
330
1F
100
AcDbEntity
  8
NETAFIM-L-DETL-013M
100
AcDbPolyline
 90
        2
 70
     0
 43
0.0
 10
9.060391984643786
 20
0.6806811766914782
 10
9.066483114455625
 20
0.7240218173297351
  0
LWPOLYLINE
  5
2615
330
1F
100
AcDbEntity
  8
NETAFIM-L-DETL-013M
100
AcDbPolyline
 90
        2
 70
     0
 43
0.0
 10
8.775267221775955
 20
0.5638218173297345
 10
8.855139995386114
 20
0.7240218173297351
  0
LWPOLYLINE
  5
2616
330
1F
100
AcDbEntity
  8
NETAFIM-L-DETL-013M
100
AcDbPolyline
 90
        2
 70
     0
 43
0.0
 10
8.829267221775953
 20
0.5638218173297345
 10
8.837971398315644
 20
0.5849499593903494
  0
LWPOLYLINE
  5
2617
330
1F
100
AcDbEntity
  8
NETAFIM-L-DETL-013M
100
AcDbPolyline
 90
        2
 70
     0
 43
0.0
 10
8.853959090316418
 20
0.6237577921903182
 10
8.876105958546798
 20
0.677516143257237
  0
LWPOLYLINE
  5
2618
330
1F
100
AcDbEntity
  8
NETAFIM-L-DETL-013M
100
AcDbPolyline
 90
        2
 70
     0
 43
0.0
 10
8.933602988542361
 20
0.5638218173297345
 10
8.912512258428861
 20
0.7240218173297351
  0
LWPOLYLINE
  5
2619
330
1F
100
AcDbEntity
  8
NETAFIM-L-DETL-013M
100
AcDbPolyline
 90
        2
 70
     0
 43
0.0
 10
8.881852988542362
 20
0.5638218173297345
 10
8.880785001506225
 20
0.5849499593903494
  0
LWPOLYLINE
  5
261A
330
1F
100
AcDbEntity
  8
NETAFIM-L-DETL-013M
100
AcDbPolyline
 90
        2
 70
     0
 43
0.0
 10
8.878823340030642
 20
0.6237577921903182
 10
8.876105958546798
 20
0.677516143257237
  0
LWPOLYLINE
  5
261B
330
1F
100
AcDbEntity
  8
NETAFIM-L-DETL-013M
100
AcDbPolyline
 90
        2
 70
     0
 43
0.0
 10
9.048880867381832
 20
0.6237577921903182
 10
9.054688951013591
 20
0.6650844546087989
  0
LWPOLYLINE
  5
261C
330
1F
100
AcDbEntity
  8
NETAFIM-L-DETL-013M
100
AcDbPolyline
 90
        2
 70
     0
 43
0.0
 10
9.054688951013591
 20
0.6650844546087989
 10
9.014192806580449
 20
0.6650844546087989
  0
LWPOLYLINE
  5
261D
330
1F
100
AcDbEntity
  8
NETAFIM-L-DETL-013M
100
AcDbPolyline
 90
        2
 70
     0
 43
0.0
 10
9.048880867381832
 20
0.6237577921903182
 10
9.008384722948694
 20
0.6237577921903182
  0
LWPOLYLINE
  5
261E
330
1F
100
AcDbEntity
  8
NETAFIM-L-DETL-013M
100
AcDbPolyline
 90
        2
 70
     0
 43
0.0
 10
8.999961271013084
 20
0.5638218173297345
 10
9.008384722948694
 20
0.6237577921903182
  0
LWPOLYLINE
  5
261F
330
1F
100
AcDbEntity
  8
NETAFIM-L-DETL-013M
100
AcDbPolyline
 90
        2
 70
     0
 43
0.0
 10
9.014192806580449
 20
0.6650844546087989
 10
9.016384782920571
 20
0.6806811766914782
  0
LWPOLYLINE
  5
2620
330
1F
100
AcDbEntity
  8
NETAFIM-L-DETL-013M
100
AcDbPolyline
 90
        2
 70
     0
 43
0.0
 10
8.837971398315644
 20
0.5849499593903494
 10
8.880785001506225
 20
0.5849499593903494
  0
LWPOLYLINE
  5
2621
330
1F
100
AcDbEntity
  8
NETAFIM-L-DETL-013M
100
AcDbPolyline
 90
        2
 70
     0
 43
0.0
 10
9.060391984643786
 20
0.6806811766914782
 10
9.016384782920571
 20
0.6806811766914782
  0
LWPOLYLINE
  5
2622
330
1F
100
AcDbEntity
  8
NETAFIM-L-DETL-013M
100
AcDbPolyline
 90
        2
 70
     0
 43
0.0
 10
9.233007043797716
 20
0.6425936103704402
 10
9.222286816977462
 20
0.7240218173297351
  0
LWPOLYLINE
  5
2623
330
1F
100
AcDbEntity
  8
NETAFIM-L-DETL-013M
100
AcDbPolyline
 90
        2
 70
     0
 43
0.0
 10
9.204960580050983
 20
0.5638218173297345
 10
9.194590601815551
 20
0.6425896221603678
  0
LWPOLYLINE
  5
2624
330
1F
100
AcDbEntity
  8
NETAFIM-L-DETL-013M
100
AcDbPolyline
 90
        2
 70
     0
 43
0.0
 10
9.269742683095667
 20
0.5638218173297345
 10
9.269742683095667
 20
0.6491494233452482
  0
LWPOLYLINE
  5
2625
330
1F
100
AcDbEntity
  8
NETAFIM-L-DETL-013M
100
AcDbPolyline
 90
        2
 70
     0
 43
0.0
 10
9.122504297234019
 20
0.5638218173297345
 10
9.168440908032582
 20
0.7240218173297351
  0
LWPOLYLINE
  5
2626
330
1F
100
AcDbEntity
  8
NETAFIM-L-DETL-013M
100
AcDbPolyline
 90
        2
 70
     0
 43
0.0
 10
9.172004297234021
 20
0.5638218173297345
 10
9.194590601815551
 20
0.6425896221603678
  0
LWPOLYLINE
  5
2627
330
1F
100
AcDbEntity
  8
NETAFIM-L-DETL-013M
100
AcDbPolyline
 90
        2
 70
     0
 43
0.0
 10
9.233007043797716
 20
0.6425936103704402
 10
9.261999315857149
 20
0.7240218173297351
  0
LWPOLYLINE
  5
2628
330
1F
100
AcDbEntity
  8
NETAFIM-L-DETL-013M
100
AcDbPolyline
 90
        2
 70
     0
 43
0.0
 10
9.239362041544534
 20
0.5638218173297354
 10
9.269742683095667
 20
0.6491494233452482
  0
LWPOLYLINE
  5
2629
330
1F
100
AcDbEntity
  8
NETAFIM-L-DETL-013M
100
AcDbPolyline
 90
        2
 70
     0
 43
0.0
 10
8.593129131873485
 20
0.7240218173297351
 10
8.689878633114695
 20
0.7240218173297351
  0
LWPOLYLINE
  5
262A
330
1F
100
AcDbEntity
  8
NETAFIM-L-DETL-013M
100
AcDbPolyline
 90
        2
 70
     0
 43
0.0
 10
9.334881383606692
 20
0.7240218173297351
 10
9.334881383606692
 20
0.7192968173297345
  0
LWPOLYLINE
  5
262B
330
1F
100
AcDbEntity
  8
NETAFIM-L-DETL-013M
100
AcDbPolyline
 90
        2
 70
     0
 43
0.0
 10
9.359631383606693
 20
0.7240218173297351
 10
9.359631383606693
 20
0.7192968173297345
  0
LWPOLYLINE
  5
262C
330
1F
100
AcDbEntity
  8
NETAFIM-L-DETL-013M
100
AcDbPolyline
 90
        2
 70
     0
 43
0.0
 10
9.363456383606692
 20
0.7240218173297351
 10
9.363456383606692
 20
0.694321817329735
  0
LWPOLYLINE
  5
262D
330
1F
100
AcDbEntity
  8
NETAFIM-L-DETL-013M
100
AcDbPolyline
 90
        2
 70
     0
 43
0.0
 10
9.370206383606692
 20
0.694321817329735
 10
9.370206383606692
 20
0.7157621053595405
  0
LWPOLYLINE
  5
262E
330
1F
100
AcDbEntity
  8
NETAFIM-L-DETL-013M
100
AcDbPolyline
 90
        2
 70
     0
 43
0.0
 10
9.392031383606692
 20
0.694321817329735
 10
9.392031383606692
 20
0.7157621053595405
  0
LWPOLYLINE
  5
262F
330
1F
100
AcDbEntity
  8
NETAFIM-L-DETL-013M
100
AcDbPolyline
 90
        2
 70
     0
 43
0.0
 10
9.343881383606689
 20
0.694321817329735
 10
9.343881383606689
 20
0.7192968173297345
  0
LWPOLYLINE
  5
2630
330
1F
100
AcDbEntity
  8
NETAFIM-L-DETL-013M
100
AcDbPolyline
 90
        2
 70
     0
 43
0.0
 10
9.334881383606692
 20
0.7192968173297345
 10
9.343881383606689
 20
0.7192968173297345
  0
LWPOLYLINE
  5
2631
330
1F
100
AcDbEntity
  8
NETAFIM-L-DETL-013M
100
AcDbPolyline
 90
        2
 70
     0
 43
0.0
 10
9.350631383606692
 20
0.7192968173297345
 10
9.359631383606693
 20
0.7192968173297345
  0
LWPOLYLINE
  5
2632
330
1F
100
AcDbEntity
  8
NETAFIM-L-DETL-013M
100
AcDbPolyline
 90
        2
 70
     0
 43
0.0
 10
9.374481383606692
 20
0.7240218173297351
 10
9.381118883606692
 20
0.7075935446835198
  0
LWPOLYLINE
  5
2633
330
1F
100
AcDbEntity
  8
NETAFIM-L-DETL-013M
100
AcDbPolyline
 90
        2
 70
     0
 43
0.0
 10
9.387756383606692
 20
0.7240218173297351
 10
9.381118883606692
 20
0.7075935446835198
  0
LWPOLYLINE
  5
2634
330
1F
100
AcDbEntity
  8
NETAFIM-L-DETL-013M
100
AcDbPolyline
 90
        2
 70
     0
 43
0.0
 10
9.392031383606692
 20
0.7157621053595405
 10
9.383368883606692
 20
0.694321817329735
  0
LWPOLYLINE
  5
2635
330
1F
100
AcDbEntity
  8
NETAFIM-L-DETL-013M
100
AcDbPolyline
 90
        2
 70
     0
 43
0.0
 10
9.370206383606692
 20
0.7157621053595405
 10
9.378868883606692
 20
0.694321817329735
  0
LWPOLYLINE
  5
2636
330
1F
100
AcDbEntity
  8
NETAFIM-L-DETL-013M
100
AcDbPolyline
 90
        2
 70
     0
 43
0.0
 10
9.134433114455621
 20
0.7240218173297351
 10
9.111918472736302
 20
0.5638218173297345
  0
LWPOLYLINE
  5
2637
330
1F
100
AcDbEntity
  8
NETAFIM-L-DETL-013M
100
AcDbPolyline
 90
        2
 70
     0
 43
0.0
 10
9.317892683095667
 20
0.5638218173297345
 10
9.317892683095667
 20
0.7240218173297351
  0
LWPOLYLINE
  5
2638
330
1F
100
AcDbEntity
  8
NETAFIM-L-DETL-013M
100
AcDbPolyline
 90
        2
 70
     0
 43
0.0
 10
9.350631383606692
 20
0.694321817329735
 10
9.350631383606692
 20
0.7192968173297345
  0
LWPOLYLINE
  5
2639
330
1F
100
AcDbEntity
  8
NETAFIM-L-DETL-013M
100
AcDbPolyline
 90
        2
 70
     0
 43
0.0
 10
9.398781383606692
 20
0.694321817329735
 10
9.398781383606692
 20
0.7240218173297351
  0
MULTILEADER
  5
263A
330
1F
100
AcDbEntity
  8
NETAFIM-L-DETL-TEXT-LEADER-025M
 92
      748
310
EC020000150000000C00000016000000000000C00C00000013000000993A0000AC0000000B00000030B863F473791940027FA2D34B161440000000000000000000000000000000000000000000000000000000000000F03F000000000000F03F0000000000000000000000000000000052454D4F544520434F4E54524F4C00
310
000E000000010000000AD7A3703D0AB73F000000000000F03F0000000000000000000000000000F03F0000000000000000000000000000000000000000726F6D616E732E736878000000007000AC0000000B000000CF15A4609E86194068E5083AB27C13400000000000000000000000000000000000000000000000000000
310
00000000F03F000000000000F03F0000000000000000000000000000000056414C564520415353454D424C5900000E000000010000000AD7A3703D0AB73F000000000000F03F0000000000000000000000000000F03F0000000000000000000000000000000000000000726F6D616E732E7368780000000070000C00000010
310
000000070000000C00000016000000000000C00C00000012000000FF7F00000C00000013000000010000000C0000001400000001000000540000000700000003000000FEEDED385BA91840102423F0E781154000000000000000007015E6729FED1840688EE3531CEA15400000000000000000881971AFD7CE184081F390F0
310
6571154000000000000000000C00000013000000891300003C0000000600000002000000C3832F7419BC1840C80B5AF0A67915400000000000000000E8760D53D82F1840C01EBD02293B144000000000000000000C00000013000000112700003C0000000600000002000000E8760D53D82F1840C01EBD02293B1440000000
310
000000000053504CE4D82E1940C01EBD02293B144000000000000000000C00000016000000000000C00C00000012000000FF7F00000C00000017000000000000000C000000130000009A3A00000C00000016000000000000C00C00000012000000FF7F00000C00000017000000FFFFFFFF
100
AcDbMLeader
300
CONTEXT_DATA{
 40
1.0
 10
6.295749251516173
 20
5.057773630898452
 30
0.0
 41
0.09
140
0.12
145
0.09
174
     1
175
     1
176
     0
177
     0
290
     1
304
{\Fromans|c0;REMOTE CONTROL \PVALVE ASSEMBLY}
 11
0.0
 21
0.0
 31
1.0
340
225A
 12
6.385749251516172
 22
5.111773630898452
 32
0.0
 13
1.0
 23
0.0
 33
0.0
 42
0.0
 43
2.045079931307213
 44
0.0
 45
1.0
170
     1
 90
-1073741824
171
     1
172
     5
 91
-1073741824
141
0.0
 92
        0
291
     0
292
     0
173
     0
293
     0
142
0.0
143
0.0
294
     0
295
     0
296
     0
110
3.561314841772786
120
4.751721496572642
130
0.0
111
1.0
121
0.0
131
0.0
112
0.0
122
1.0
132
0.0
297
     0
302
LEADER{
290
     1
291
     1
 10
6.046723649689489
 20
5.057773630898452
 30
0.0
 11
1.0
 21
0.0
 31
0.0
 90
        0
 40
0.2490256018266828
304
LEADER_LINE{
 10
6.232053561490246
 20
5.478623686565335
 30
0.0
 91
        0
305
}
303
}
301
}
340
225B
 90
   279680
170
     1
 91
-1056964608
341
14
171
    -2
290
     1
291
     1
 41
0.36
 42
0.12
172
     2
343
225A
173
     1
 95
        1
174
     1
175
     0
 92
-1056964608
292
     0
 93
-1056964608
 10
1.0
 20
1.0
 30
1.0
 43
0.0
176
     0
293
     0
294
     0
178
     0
179
     1
 45
1.0
1001
ACAD_MLEADERVER
1070
     2
  0
MULTILEADER
  5
263B
330
1F
100
AcDbEntity
  8
NETAFIM-L-DETL-TEXT-LEADER-025M
 92
      576
310
40020000140000000C00000016000000000000C00C00000013000000993A0000AC0000000B0000002FB863F47379194040AAD95839C31940000000000000000000000000000000000000000000000000000000000000F03F000000000000F03F0000000000000000000000000000000045444745204F4620504156494E4700
310
000E000000010000000AD7A3703D0AB73F000000000000F03F0000000000000000000000000000F03F0000000000000000000000000000000000000000726F6D616E732E7368780000000070000C00000010000000070000000C00000016000000000000C00C00000012000000FF7F00000C00000013000000010000000C00
310
0000140000000100000054000000070000000300000057C8088ADD6A1340A7F223224BA418400000000000000000657818EEAFF4124018F1A126E37C184000000000000000004C2B4E6EB2571340CC9D7FD17DC8184000000000000000000C00000013000000891300003C0000000600000002000000D2792BFC4761134039
310
C8D17964B6184000000000000000005497191E90A21540FE49F48716E8194000000000000000000C00000013000000112700003C00000006000000020000005497191E90A21540FE49F48716E81940000000000000000052504CE4D82E1940FE49F48716E8194000000000000000000C00000016000000000000C00C000000
310
12000000FF7F00000C00000017000000000000000C000000130000009A3A00000C00000016000000000000C00C00000012000000FF7F00000C00000017000000FFFFFFFF
100
AcDbMLeader
300
CONTEXT_DATA{
 40
1.0
 10
6.295749251516172
 20
6.476648449216098
 30
0.0
 41
0.09
140
0.12
145
0.09
174
     1
175
     1
176
     0
177
     0
290
     1
304
{\Fromans|c0;EDGE OF PAVING}
 11
0.0
 21
0.0
 31
1.0
340
225A
 12
6.385749251516172
 22
6.530648449216098
 32
0.0
 13
1.0
 23
0.0
 33
0.0
 42
0.0
 43
0.0
 44
0.0
 45
1.0
170
     1
 90
-1073741824
171
     1
172
     5
 91
-1073741824
141
0.0
 92
        0
291
     0
292
     0
173
     0
293
     0
142
0.0
143
0.0
294
     0
295
     0
296
     0
110
3.331653603872055
120
6.232043344031147
130
0.0
111
1.0
121
0.0
131
0.0
112
0.0
122
1.0
132
0.0
297
     0
302
LEADER{
290
     1
291
     1
 10
5.408752889930685
 20
6.476648449216098
 30
0.0
 11
1.0
 21
0.0
 31
0.0
 90
        0
 40
0.8869963615854864
304
LEADER_LINE{
 10
4.738952369922206
 20
6.121960261949674
 30
0.0
 91
        0
305
}
303
}
301
}
340
225B
 90
   279680
170
     1
 91
-1056964608
341
14
171
    -2
290
     1
291
     1
 41
0.36
 42
0.12
172
     2
343
225A
173
     1
 95
        1
174
     1
175
     0
 92
-1056964608
292
     0
 93
-1056964608
 10
1.0
 20
1.0
 30
1.0
 43
0.0
176
     0
293
     0
294
     0
178
     0
179
     1
 45
1.0
1001
ACAD_MLEADERVER
1070
     2
  0
MULTILEADER
  5
263C
330
1F
100
AcDbEntity
  8
NETAFIM-L-DETL-TEXT-LEADER-025M
 92
      576
310
40020000140000000C00000016000000000000C00C00000013000000993A0000AC0000000B0000002FB863F473791940B00B03F8DBFB0740000000000000000000000000000000000000000000000000000000000000F03F000000000000F03F00000000000000000000000000000000455848415553542048454144455200
310
000E000000010000000AD7A3703D0AB73F000000000000F03F0000000000000000000000000000F03F0000000000000000000000000000000000000000726F6D616E732E7368780000000070000C00000010000000070000000C00000016000000000000C00C00000012000000FF7F00000C00000013000000010000000C00
310
000014000000010000005400000007000000030000005E4005128BFB03409B3CE3F4D282064000000000000000004055F62C006A03408083238D9AB8054000000000000000000182B15217B2034096405AA118A7064000000000000000000C00000013000000891300003C00000006000000020000002F615B32D1D6034099
310
BE1ECBF594064000000000000000001038530F75AC04402D4B38569645084000000000000000000C00000013000000112700003C00000006000000020000001038530F75AC04402D4B385696450840000000000000000052504CE4D82E19402D4B38569645084000000000000000000C00000016000000000000C00C000000
310
12000000FF7F00000C00000017000000000000000C000000130000009A3A00000C00000016000000000000C00C00000012000000FF7F00000C00000017000000FFFFFFFF
100
AcDbMLeader
300
CONTEXT_DATA{
 40
1.0
 10
6.295749251516172
 20
3.033978150933214
 30
0.0
 41
0.09
140
0.12
145
0.09
174
     1
175
     1
176
     0
177
     0
290
     1
304
{\Fromans|c0;EXHAUST HEADER}
 11
0.0
 21
0.0
 31
1.0
340
225A
 12
6.385749251516172
 22
3.087978150933214
 32
0.0
 13
1.0
 23
0.0
 33
0.0
 42
0.0
 43
0.0
 44
0.0
 45
1.0
170
     1
 90
-1073741824
171
     1
172
     5
 91
-1073741824
141
0.0
 92
        0
291
     0
292
     0
173
     0
293
     0
142
0.0
143
0.0
294
     0
295
     0
296
     0
110
4.877411042220247
120
1.726440339692828
130
0.0
111
1.0
121
0.0
131
0.0
112
0.0
122
1.0
132
0.0
297
     0
302
LEADER{
290
     1
291
     1
 10
2.584207648970739
 20
3.033978150933214
 30
0.0
 11
1.0
 21
0.0
 31
0.0
 90
        0
 40
3.711541602545433
304
LEADER_LINE{
 10
2.42675814749478
 20
2.715138533254901
 30
0.0
 91
        0
305
}
303
}
301
}
340
225B
 90
   279680
170
     1
 91
-1056964608
341
14
171
    -2
290
     1
291
     1
 41
0.36
 42
0.12
172
     2
343
225A
173
     1
 95
        1
174
     1
175
     0
 92
-1056964608
292
     0
 93
-1056964608
 10
1.0
 20
1.0
 30
1.0
 43
0.0
176
     0
293
     0
294
     0
178
     0
179
     1
 45
1.0
1001
ACAD_MLEADERVER
1070
     2
  0
MULTILEADER
  5
263D
330
1F
100
AcDbEntity
  8
NETAFIM-L-DETL-TEXT-LEADER-025M
 92
     1240
310
D8040000180000000C00000016000000000000C00C00000013000000993A0000A80000000B000000CE15A4609E861940A194AC8FFECF0C40000000000000000000000000000000000000000000000000000000000000F03F000000000000F03F00000000000000000000000000000000546563686C696E65000956E0080000
310
00010000000AD7A3703D0AB73F000000000000F03F0000000000000000000000000000F03F0000000000000000000000000000000000000000726F6D616E732E7368780011000000009C0000000B00000037DE5D30CDA61B40EB3BC2396CCE0C40000000000000000000000000000000000000000000000000000000000000
310
F03F000000000000F03F00000000000000000000000000000000AE00000001000000010000000AD7A3703D0AB73F000000000000F03F0000000000000000000000000000F03F0000000000000000000000000000000000000000417269616C00000000000000A80000000B00000071814A72DA051C40A194AC8FFECF0C4000
310
0000000000000000000000000000000000000000000000000000000000F03F000000000000F03F0000000000000000000000000000000020445249504C494E450000C109000000010000000AD7A3703D0AB73F000000000000F03F0000000000000000000000000000F03F0000000000000000000000000000000000000000
310
726F6D616E732E736878000000800000B00000000B000000CE15A4609E861940B8088F06399B0B40000000000000000000000000000000000000000000000000000000000000F03F000000000000F03F00000000000000000000000000000000415252414E47454420544F20434F56455200000011000000010000000AD7A3
310
703D0AB73F000000000000F03F0000000000000000000000000000F03F0000000000000000000000000000000000000000726F6D616E732E736878000000000000A80000000B000000CE15A4609E86194086D55BD305680A40000000000000000000000000000000000000000000000000000000000000F03F000000000000
310
F03F000000000000000000000000000000005452494D20415245410000C109000000010000000AD7A3703D0AB73F000000000000F03F0000000000000000000000000000F03F0000000000000000000000000000000000000000726F6D616E732E7368780000000000000C00000010000000070000000C0000001600000000
310
0000C00C00000012000000FF7F00000C00000013000000010000000C000000140000000100000054000000070000000300000093BE8FE3F29507407FF08DBD751B0A400000000000000000049B3445ACAD06405CD8832954C109400000000000000000797DE15E296C0740D5468FB1EB610A4000000000000000000C000000
310
13000000891300003C0000000600000002000000069E38210E810740AA9B8EB7B03E0A400000000000000000B0D4F3925B540C40D42CCC434B1B0D4000000000000000000C00000013000000112700003C0000000600000002000000B0D4F3925B540C40D42CCC434B1B0D40000000000000000052504CE4D82E1940D42CCC
310
434B1B0D4000000000000000000C00000016000000000000C00C00000012000000FF7F00000C00000017000000000000000C000000130000009A3A00000C00000016000000000000C00C00000012000000FF7F00000C00000017000000FFFFFFFF
100
AcDbMLeader
300
CONTEXT_DATA{
 40
1.0
 10
6.295749251516172
 20
3.638327150028638
 30
0.0
 41
0.09
140
0.12
145
0.09
174
     1
175
     1
176
     0
177
     0
290
     1
304
\A1;{\Fromans|c0;Techline\A0;\fArial|b0|i0|c0|p34;®\A1;\Fromans|c0; DRIPLINE\PARRANGED TO COVER\PTRIM AREA}
 11
0.0
 21
0.0
 31
1.0
340
225A
 12
6.385749251516172
 22
3.692327150028638
 32
0.0
 13
1.0
 23
0.0
 33
0.0
 42
0.0
 43
0.0
 44
0.0
 45
1.0
170
     1
 90
-1073741824
171
     1
172
     5
 91
-1073741824
141
0.0
 92
        0
291
     0
292
     0
173
     0
293
     0
142
0.0
143
0.0
294
     0
295
     0
296
     0
110
4.403406761485955
120
3.925123114818948
130
0.0
111
1.0
121
0.0
131
0.0
112
0.0
122
1.0
132
0.0
297
     0
302
LEADER{
290
     1
291
     1
 10
3.541190288606763
 20
3.638327150028638
 30
0.0
 11
1.0
 21
0.0
 31
0.0
 90
        0
 40
2.754558962909408
304
LEADER_LINE{
 10
2.834801235835927
 20
3.219398807846159
 30
0.0
 91
        0
305
}
303
}
301
}
340
225B
 90
   279680
170
     1
 91
-1056964608
341
14
171
    -2
290
     1
291
     1
 41
0.36
 42
0.12
172
     2
343
225A
173
     1
 95
        1
174
     1
175
     0
 92
-1056964608
292
     0
 93
-1056964608
 10
1.0
 20
1.0
 30
1.0
 43
0.0
176
     0
293
     0
294
     0
178
   256
179
     1
 45
1.0
1001
ACAD_MLEADERVER
1070
     2
  0
MULTILEADER
  5
263E
330
1F
100
AcDbEntity
  8
NETAFIM-L-DETL-TEXT-LEADER-025M
 92
      764
310
FC020000150000000C00000016000000000000C00C00000013000000993A0000B40000000B000000CE15A4609E861940945FC52A9ABF0040000000000000000000000000000000000000000000000000000000000000F03F000000000000F03F000000000000000000000000000000004155544F4D4154494320464C555348
310
2056414C564500000015000000010000000AD7A3703D0AB73F000000000000F03F0000000000000000000000000000F03F0000000000000000000000000000000000000000726F6D616E732E736878000000000000B40000000B0000002FB863F473791940C05824EFCD18FF3F000000000000000000000000000000000000
310
000000000000000000000000F03F000000000000F03F00000000000000000000000000000000504C554D42454420544F20505643204F5220504F4C59000016000000010000000AD7A3703D0AB73F000000000000F03F0000000000000000000000000000F03F0000000000000000000000000000000000000000726F6D616E
310
732E7368780000000073000C00000010000000070000000C00000016000000000000C00C00000012000000FF7F00000C00000013000000010000000C00000014000000010000005400000007000000030000008F260E2B49080940916031A0D59902400000000000000000CC2BE17AA8320840AC89667D0C1A034000000000
310
000000000342AE4652260940100EDBB40CE6024000000000000000000C00000013000000891300003C00000006000000020000004934DEB84D1709405037862AF1BF0240000000000000000070FB311E82410D40F0EE8720C31B014000000000000000000C00000013000000112700003C000000060000000200000070FB31
310
1E82410D40F0EE8720C31B0140000000000000000052504CE4D82E1940F0EE8720C31B014000000000000000000C00000016000000000000C00C00000012000000FF7F00000C00000017000000000000000C000000130000009A3A00000C00000016000000000000C00C00000012000000FF7F00000C00000017000000FFFF
310
FFFF
100
AcDbMLeader
300
CONTEXT_DATA{
 40
1.0
 10
6.295749251516172
 20
2.138555769108158
 30
0.0
 41
0.09
140
0.12
145
0.09
174
     1
175
     1
176
     0
177
     0
290
     1
304
{\Fromans|c0;AUTOMATIC FLUSH VALVE PLUMBED TO PVC OR POLY}
 11
0.0
 21
0.0
 31
1.0
340
225A
 12
6.385749251516172
 22
2.183555769108158
 32
0.0
 13
1.0
 23
0.0
 33
0.0
 42
0.0
 43
2.342680692474612
 44
0.0
 45
1.0
170
     1
 90
-1073741824
171
     1
172
     5
 91
-1073741824
141
0.0
 92
        0
291
     0
292
     0
173
     0
293
     0
142
0.0
143
0.0
294
     0
295
     0
296
     0
110
3.430079793044273
120
1.966091047293517
130
0.0
111
1.0
121
0.0
131
0.0
112
0.0
122
1.0
132
0.0
297
     0
302
LEADER{
290
     1
291
     1
 10
3.656986461544356
 20
2.138555769108158
 30
0.0
 11
1.0
 21
0.0
 31
0.0
 90
        0
 40
2.638762789971816
304
LEADER_LINE{
 10
3.024735412594486
 20
2.38771913499041
 30
0.0
 91
        0
305
}
303
}
301
}
340
225B
 90
   279680
170
     1
 91
-1056964608
341
14
171
    -2
290
     1
291
     1
 41
0.36
 42
0.12
172
     2
343
225A
173
     1
 95
        1
174
     1
175
     0
 92
-1056964608
292
     0
 93
-1056964608
 10
1.0
 20
1.0
 30
1.0
 43
0.0
176
     0
293
     0
294
     0
178
     0
179
     1
 45
1.0
1001
ACAD_MLEADERVER
1070
     2
  0
MULTILEADER
  5
263F
330
1F
100
AcDbEntity
  8
NETAFIM-L-DETL-TEXT-LEADER-025M
 92
      576
310
40020000140000000C00000016000000000000C00C00000013000000993A0000AC0000000B0000000F82CE6DD77D19409AEC34A271831840000000000000000000000000000000000000000000000000000000000000F03F000000000000F03F00000000000000000000000000000000535550504C59204845414445520056
310
450D000000010000000AD7A3703D0AB73F000000000000F03F0000000000000000000000000000F03F0000000000000000000000000000000000000000726F6D616E732E7368780073007800000C00000010000000070000000C00000016000000000000C00C00000012000000FF7F00000C00000013000000010000000C00
310
00001400000001000000540000000700000003000000BFA03D6EF0171740A29A3325429C17400000000000000000D063BCD76AA816401099338EBE6417400000000000000000836C9E0BE8FF1640E7D0EE466DBD174000000000000000000C00000013000000891300003C0000000600000002000000A106EE3CEC0B1740C4
310
3511B6D7AC17400000000000000000280FEEACFA661840588C4FD14EA8184000000000000000000C00000013000000112700003C0000000600000002000000280FEEACFA661840588C4FD14EA81840000000000000000052504CE4D82E1940588C4FD14EA8184000000000000000000C00000016000000000000C00C000000
310
12000000FF7F00000C00000017000000000000000C000000130000009A3A00000C00000016000000000000C00C00000012000000FF7F00000C00000017000000FFFFFFFF
100
AcDbMLeader
300
CONTEXT_DATA{
 40
1.0
 10
6.295749251516172
 20
6.164363165359723
 30
0.0
 41
0.09
140
0.12
145
0.09
174
     1
175
     1
176
     0
177
     0
290
     1
304
{\Fromans|c0;SUPPLY HEADER}
 11
0.0
 21
0.0
 31
1.0
340
225A
 12
6.385749251516172
 22
6.218363165359724
 32
0.0
 13
1.0
 23
0.0
 33
0.0
 42
0.0
 43
2.342680692474612
 44
0.0
 45
1.0
170
     1
 90
-1073741824
171
     1
172
     5
 91
-1073741824
141
0.0
 92
        0
291
     0
292
     0
173
     0
293
     0
142
0.0
143
0.0
294
     0
295
     0
296
     0
110
3.430079793044271
120
5.246206860872014
130
0.0
111
1.0
121
0.0
131
0.0
112
0.0
122
1.0
132
0.0
297
     0
302
LEADER{
290
     1
291
     1
 10
6.100565626173001
 20
6.164363165359723
 30
0.0
 11
1.0
 21
0.0
 31
0.0
 90
        0
 40
0.1951836253431707
304
LEADER_LINE{
 10
5.664470072625547
 20
5.848383161448751
 30
0.0
 91
        0
305
}
303
}
301
}
340
225B
 90
   279680
170
     1
 91
-1056964608
341
14
171
    -2
290
     1
291
     1
 41
0.36
 42
0.12
172
     2
343
225A
173
     1
 95
        1
174
     1
175
     0
 92
-1056964608
292
     0
 93
-1056964608
 10
1.0
 20
1.0
 30
1.0
 43
0.0
176
     0
293
     0
294
     0
178
     0
179
     1
 45
1.0
1001
ACAD_MLEADERVER
1070
     2
  0
MULTILEADER
  5
2640
330
1F
100
AcDbEntity
  8
NETAFIM-L-DETL-TEXT-LEADER-025M
 92
      936
310
A8030000160000000C00000016000000000000C00C00000013000000993A0000B00000000B0000000F82CE6DD77D1940F40149F9DAD71040000000000000000000000000000000000000000000000000000000000000F03F000000000000F03F00000000000000000000000000000000535052494E4B4C4552204F4E205056
310
430000000010000000010000000AD7A3703D0AB73F000000000000F03F0000000000000000000000000000F03F0000000000000000000000000000000000000000726F6D616E732E736878000000000000B00000000B0000002FB863F4737919405A68AF5F413E104000000000000000000000000000000000000000000000
310
0000000000000000F03F000000000000F03F000000000000000000000000000000004C41544552414C204F4E20494445414C0000000010000000010000000AD7A3703D0AB73F000000000000F03F0000000000000000000000000000F03F0000000000000000000000000000000000000000726F6D616E732E736878000000
310
000000B40000000B0000000F82CE6DD77D1940007680A6C1370F40000000000000000000000000000000000000000000000000000000000000F03F000000000000F03F0000000000000000000000000000000053504143494E47205041545445524E20285459502900000015000000010000000AD7A3703D0AB73F00000000
310
0000F03F0000000000000000000000000000F03F0000000000000000000000000000000000000000726F6D616E732E7368780000000073000C00000010000000070000000C00000016000000000000C00C00000012000000FF7F00000C00000013000000010000000C00000014000000010000005400000007000000030000
310
00196F2439F16710402330999988151040000000000000000060C9A04A21E20F40C0E7B33894E00F4000000000000000007A31C6F36F5510405629503F133A104000000000000000000C00000013000000891300003C000000060000000200000049507596B05E1040BDAC74ECCD2710400000000000000000701DF0A5FFF6
310
11401387344B93F6104000000000000000000C00000013000000112700003C0000000600000002000000701DF0A5FFF611401387344B93F61040000000000000000052504CE4D82E19401387344B93F6104000000000000000000C00000016000000000000C00C00000012000000FF7F00000C00000017000000000000000C
310
000000130000009A3A00000C00000016000000000000C00C00000012000000FF7F00000C00000017000000FFFFFFFF
100
AcDbMLeader
300
CONTEXT_DATA{
 40
1.0
 10
6.295749251516172
 20
4.240796256142647
 30
0.0
 41
0.09
140
0.12
145
0.09
174
     1
175
     1
176
     0
177
     0
290
     1
304
\A1;{\Fromans|c0;SPRINKLER ON PVC \PLATERAL ON IDEAL \PSPACING PATTERN (TYP)}
 11
0.0
 21
0.0
 31
1.0
340
225A
 12
6.385749251516172
 22
4.300796256142646
 32
0.0
 13
1.0
 23
0.0
 33
0.0
 42
0.0
 43
0.0
 44
0.0
 45
1.0
170
     1
 90
-1073741824
171
     1
172
     5
 91
-1073741824
141
0.0
 92
        0
291
     0
292
     0
173
     0
293
     0
142
0.0
143
0.0
294
     0
295
     0
296
     0
110
3.331653603872057
120
3.989703380604431
130
0.0
111
1.0
121
0.0
131
0.0
112
0.0
122
1.0
132
0.0
297
     0
302
LEADER{
290
     1
291
     1
 10
4.491209595470863
 20
4.240796256142647
 30
0.0
 11
1.0
 21
0.0
 31
0.0
 90
        0
 40
1.804539656045309
304
LEADER_LINE{
 10
3.985415061027353
 20
3.984657710066102
 30
0.0
 91
        0
305
}
303
}
301
}
340
225B
 90
   279680
170
     1
 91
-1056964608
341
14
171
    -2
290
     1
291
     1
 41
0.36
 42
0.12
172
     2
343
225A
173
     1
 95
        1
174
     1
175
     0
 92
-1056964608
292
     0
 93
-1056964608
 10
1.0
 20
1.0
 30
1.0
 43
0.0
176
     0
293
     0
294
     0
178
   256
179
     1
 45
1.0
1001
ACAD_MLEADERVER
1070
     2
  0
TEXT
  5
2643
330
1F
100
AcDbEntity
  8
NETAFIM-D-TEXT-025M
  6
Continuous
100
AcDbText
 10
2.799136290689865
 20
2.351740420104355
 30
0.0
 40
0.09375
  1
AF
  7
DETAIL TEXT
100
AcDbText
  0
ARC
  5
2644
330
1F
100
AcDbEntity
  8
NETAFIM-L-DETL-035M
100
AcDbCircle
 10
2.88988174291385
 20
2.399588355633095
 30
0.0
 40
0.1353749999999956
100
AcDbArc
 50
115.7874585180343
 51
115.2427796455034
  0
LWPOLYLINE
  5
264F
330
1F
100
AcDbEntity
  8
NETAFIM-L-DETL-025M
100
AcDbPolyline
 90
        8
 70
     1
 43
0.0
 10
5.58152217592589
 20
5.433957799822593
 10
5.58152217592589
 20
5.63193450436799
 10
5.696077093637558
 20
5.63193450436799
 10
5.696077093637558
 20
5.592849296687827
 10
5.732536615581189
 20
5.592849296687827
 10
5.732536615581189
 20
5.475668693239626
 10
5.698702779374428
 20
5.475668693239626
 10
5.698702779374428
 20
5.433957799822593
  0
POLYLINE
  5
2650
330
1F
100
AcDbEntity
  8
NETAFIM-L-DETL-035M
100
AcDb2dPolyline
 66
     1
 10
0.0
 20
0.0
 30
0.0
 70
     4
  0
VERTEX
  5
2651
330
2650
100
AcDbEntity
  8
NETAFIM-L-DETL-035M
100
AcDbVertex
100
AcDb2dVertex
 10
5.899865897344877
 20
5.520757553799615
 30
0.0
 70
    16
  0
VERTEX
  5
2652
330
2650
100
AcDbEntity
  8
NETAFIM-L-DETL-035M
100
AcDbVertex
100
AcDb2dVertex
 10
5.899865897344877
 20
5.520757553799615
 30
0.0
 70
     8
  0
VERTEX
  5
2653
330
2650
100
AcDbEntity
  8
NETAFIM-L-DETL-035M
100
AcDbVertex
100
AcDb2dVertex
 10
5.899865897344877
 20
5.52480861179335
 30
0.0
 70
     8
  0
VERTEX
  5
2654
330
2650
100
AcDbEntity
  8
NETAFIM-L-DETL-035M
100
AcDbVertex
100
AcDb2dVertex
 10
5.899865897344877
 20
5.535461393925068
 30
0.0
 70
     8
  0
VERTEX
  5
2655
330
2650
100
AcDbEntity
  8
NETAFIM-L-DETL-035M
100
AcDbVertex
100
AcDb2dVertex
 10
5.899865897344877
 20
5.550465312420353
 30
0.0
 70
     8
  0
VERTEX
  5
2656
330
2650
100
AcDbEntity
  8
NETAFIM-L-DETL-035M
100
AcDbVertex
100
AcDb2dVertex
 10
5.899865897344877
 20
5.567644799097418
 30
0.0
 70
     8
  0
VERTEX
  5
2657
330
2650
100
AcDbEntity
  8
NETAFIM-L-DETL-035M
100
AcDbVertex
100
AcDb2dVertex
 10
5.899865897344877
 20
5.584899305366946
 30
0.0
 70
     8
  0
VERTEX
  5
2658
330
2650
100
AcDbEntity
  8
NETAFIM-L-DETL-035M
100
AcDbVertex
100
AcDb2dVertex
 10
5.899865897344877
 20
5.599903223862231
 30
0.0
 70
     8
  0
VERTEX
  5
2659
330
2650
100
AcDbEntity
  8
NETAFIM-L-DETL-035M
100
AcDbVertex
100
AcDb2dVertex
 10
5.899865897344877
 20
5.610556005993945
 30
0.0
 70
     8
  0
VERTEX
  5
265A
330
2650
100
AcDbEntity
  8
NETAFIM-L-DETL-035M
100
AcDbVertex
100
AcDb2dVertex
 10
5.899865897344877
 20
5.614532044395225
 30
0.0
 70
     8
  0
VERTEX
  5
265B
330
2650
100
AcDbEntity
  8
NETAFIM-L-DETL-035M
100
AcDbVertex
100
AcDb2dVertex
 10
5.899865897344877
 20
5.520757553799615
 30
0.0
 70
    16
  0
VERTEX
  5
265C
330
2650
100
AcDbEntity
  8
NETAFIM-L-DETL-035M
100
AcDbVertex
100
AcDb2dVertex
 10
5.899865897344877
 20
5.614532044395225
 30
0.0
 70
    16
  0
VERTEX
  5
265D
330
2650
100
AcDbEntity
  8
NETAFIM-L-DETL-035M
100
AcDbVertex
100
AcDb2dVertex
 10
5.899865897344877
 20
5.614532044395225
 30
0.0
 70
    16
  0
SEQEND
  5
265E
330
2650
100
AcDbEntity
  8
NETAFIM-L-DETL-035M
  0
POLYLINE
  5
265F
330
1F
100
AcDbEntity
  8
NETAFIM-L-DETL-035M
100
AcDb2dPolyline
 66
     1
 10
0.0
 20
0.0
 30
0.0
 70
     4
  0
VERTEX
  5
2660
330
265F
100
AcDbEntity
  8
NETAFIM-L-DETL-035M
100
AcDbVertex
100
AcDb2dVertex
 10
5.899865897344877
 20
5.614532044395225
 30
0.0
 70
    16
  0
VERTEX
  5
2661
330
265F
100
AcDbEntity
  8
NETAFIM-L-DETL-035M
100
AcDbVertex
100
AcDb2dVertex
 10
5.899865897344877
 20
5.614532044395225
 30
0.0
 70
     8
  0
VERTEX
  5
2662
330
265F
100
AcDbEntity
  8
NETAFIM-L-DETL-035M
100
AcDbVertex
100
AcDb2dVertex
 10
5.901816406749119
 20
5.634112158031621
 30
0.0
 70
     8
  0
VERTEX
  5
2663
330
265F
100
AcDbEntity
  8
NETAFIM-L-DETL-035M
100
AcDbVertex
100
AcDb2dVertex
 10
5.907592915369892
 20
5.652416938595894
 30
0.0
 70
     8
  0
VERTEX
  5
2664
330
265F
100
AcDbEntity
  8
NETAFIM-L-DETL-035M
100
AcDbVertex
100
AcDb2dVertex
 10
5.916595266466856
 20
5.668996268533131
 30
0.0
 70
     8
  0
VERTEX
  5
2665
330
265F
100
AcDbEntity
  8
NETAFIM-L-DETL-035M
100
AcDbVertex
100
AcDb2dVertex
 10
5.928598401263151
 20
5.683475049881041
 30
0.0
 70
     8
  0
VERTEX
  5
2666
330
265F
100
AcDbEntity
  8
NETAFIM-L-DETL-035M
100
AcDbVertex
100
AcDb2dVertex
 10
5.943077182611062
 20
5.695478184677337
 30
0.0
 70
     8
  0
VERTEX
  5
2667
330
265F
100
AcDbEntity
  8
NETAFIM-L-DETL-035M
100
AcDbVertex
100
AcDb2dVertex
 10
5.95965651254847
 20
5.704480535774472
 30
0.0
 70
     8
  0
VERTEX
  5
2668
330
265F
100
AcDbEntity
  8
NETAFIM-L-DETL-035M
100
AcDbVertex
100
AcDb2dVertex
 10
5.977961293112915
 20
5.710257044395248
 30
0.0
 70
     8
  0
VERTEX
  5
2669
330
265F
100
AcDbEntity
  8
NETAFIM-L-DETL-035M
100
AcDbVertex
100
AcDb2dVertex
 10
5.997541406748972
 20
5.712207553799657
 30
0.0
 70
     8
  0
VERTEX
  5
266A
330
265F
100
AcDbEntity
  8
NETAFIM-L-DETL-035M
100
AcDbVertex
100
AcDb2dVertex
 10
5.899865897344877
 20
5.668171053015926
 30
0.0
 70
    16
  0
VERTEX
  5
266B
330
265F
100
AcDbEntity
  8
NETAFIM-L-DETL-035M
100
AcDbVertex
100
AcDb2dVertex
 10
5.943902398128606
 20
5.712207553799657
 30
0.0
 70
    16
  0
VERTEX
  5
266C
330
265F
100
AcDbEntity
  8
NETAFIM-L-DETL-035M
100
AcDbVertex
100
AcDb2dVertex
 10
5.997541406748972
 20
5.712207553799657
 30
0.0
 70
    16
  0
SEQEND
  5
266D
330
265F
100
AcDbEntity
  8
NETAFIM-L-DETL-035M
  0
POLYLINE
  5
266E
330
1F
100
AcDbEntity
  8
NETAFIM-L-DETL-035M
100
AcDb2dPolyline
 66
     1
 10
0.0
 20
0.0
 30
0.0
 70
     4
  0
VERTEX
  5
266F
330
266E
100
AcDbEntity
  8
NETAFIM-L-DETL-035M
100
AcDbVertex
100
AcDb2dVertex
 10
5.997541406748972
 20
5.712207553799657
 30
0.0
 70
    16
  0
VERTEX
  5
2670
330
266E
100
AcDbEntity
  8
NETAFIM-L-DETL-035M
100
AcDbVertex
100
AcDb2dVertex
 10
5.997541406748972
 20
5.712207553799657
 30
0.0
 70
     8
  0
VERTEX
  5
2671
330
266E
100
AcDbEntity
  8
NETAFIM-L-DETL-035M
100
AcDbVertex
100
AcDb2dVertex
 10
6.015621128535869
 20
5.712207553799657
 30
0.0
 70
     8
  0
VERTEX
  5
2672
330
266E
100
AcDbEntity
  8
NETAFIM-L-DETL-035M
100
AcDbVertex
100
AcDb2dVertex
 10
6.063483628535799
 20
5.712207553799657
 30
0.0
 70
     8
  0
VERTEX
  5
2673
330
266E
100
AcDbEntity
  8
NETAFIM-L-DETL-035M
100
AcDbVertex
100
AcDb2dVertex
 10
6.131001261764744
 20
5.712207553799657
 30
0.0
 70
     8
  0
VERTEX
  5
2674
330
266E
100
AcDbEntity
  8
NETAFIM-L-DETL-035M
100
AcDbVertex
100
AcDb2dVertex
 10
6.208496500793124
 20
5.712207553799657
 30
0.0
 70
     8
  0
VERTEX
  5
2675
330
266E
100
AcDbEntity
  8
NETAFIM-L-DETL-035M
100
AcDbVertex
100
AcDb2dVertex
 10
6.285991739821156
 20
5.712207553799657
 30
0.0
 70
     8
  0
VERTEX
  5
2676
330
266E
100
AcDbEntity
  8
NETAFIM-L-DETL-035M
100
AcDbVertex
100
AcDb2dVertex
 10
6.353584392642396
 20
5.712207553799657
 30
0.0
 70
     8
  0
VERTEX
  5
2677
330
266E
100
AcDbEntity
  8
NETAFIM-L-DETL-035M
100
AcDbVertex
100
AcDb2dVertex
 10
6.401371873050031
 20
5.712207553799657
 30
0.0
 70
     8
  0
VERTEX
  5
2678
330
266E
100
AcDbEntity
  8
NETAFIM-L-DETL-035M
100
AcDbVertex
100
AcDb2dVertex
 10
6.419526614429223
 20
5.712207553799657
 30
0.0
 70
     8
  0
VERTEX
  5
2679
330
266E
100
AcDbEntity
  8
NETAFIM-L-DETL-035M
100
AcDbVertex
100
AcDb2dVertex
 10
5.997541406748972
 20
5.712207553799657
 30
0.0
 70
    16
  0
VERTEX
  5
267A
330
266E
100
AcDbEntity
  8
NETAFIM-L-DETL-035M
100
AcDbVertex
100
AcDb2dVertex
 10
6.419526614429223
 20
5.712207553799657
 30
0.0
 70
    16
  0
VERTEX
  5
267B
330
266E
100
AcDbEntity
  8
NETAFIM-L-DETL-035M
100
AcDbVertex
100
AcDb2dVertex
 10
6.419526614429223
 20
5.712207553799657
 30
0.0
 70
    16
  0
SEQEND
  5
267C
330
266E
100
AcDbEntity
  8
NETAFIM-L-DETL-035M
  0
POLYLINE
  5
267D
330
1F
100
AcDbEntity
  8
NETAFIM-L-DETL-035M
100
AcDb2dPolyline
 66
     1
 10
0.0
 20
0.0
 30
0.0
 70
     4
  0
VERTEX
  5
267E
330
267D
100
AcDbEntity
  8
NETAFIM-L-DETL-035M
100
AcDbVertex
100
AcDb2dVertex
 10
6.419526614429223
 20
5.712207553799657
 30
0.0
 70
    16
  0
VERTEX
  5
267F
330
267D
100
AcDbEntity
  8
NETAFIM-L-DETL-035M
100
AcDbVertex
100
AcDb2dVertex
 10
6.419526614429223
 20
5.712207553799657
 30
0.0
 70
     8
  0
VERTEX
  5
2680
330
267D
100
AcDbEntity
  8
NETAFIM-L-DETL-035M
100
AcDbVertex
100
AcDb2dVertex
 10
6.439106728065617
 20
5.710257044395248
 30
0.0
 70
     8
  0
VERTEX
  5
2681
330
267D
100
AcDbEntity
  8
NETAFIM-L-DETL-035M
100
AcDbVertex
100
AcDb2dVertex
 10
6.45733648903743
 20
5.704480535774472
 30
0.0
 70
     8
  0
VERTEX
  5
2682
330
267D
100
AcDbEntity
  8
NETAFIM-L-DETL-035M
100
AcDbVertex
100
AcDb2dVertex
 10
6.473990838567466
 20
5.695478184677337
 30
0.0
 70
     8
  0
VERTEX
  5
2683
330
267D
100
AcDbEntity
  8
NETAFIM-L-DETL-035M
100
AcDbVertex
100
AcDb2dVertex
 10
6.488469619915377
 20
5.683475049881041
 30
0.0
 70
     8
  0
VERTEX
  5
2684
330
267D
100
AcDbEntity
  8
NETAFIM-L-DETL-035M
100
AcDbVertex
100
AcDb2dVertex
 10
6.500397735119044
 20
5.668996268533131
 30
0.0
 70
     8
  0
VERTEX
  5
2685
330
267D
100
AcDbEntity
  8
NETAFIM-L-DETL-035M
100
AcDbVertex
100
AcDb2dVertex
 10
6.50947510580864
 20
5.652416938595894
 30
0.0
 70
     8
  0
VERTEX
  5
2686
330
267D
100
AcDbEntity
  8
NETAFIM-L-DETL-035M
100
AcDbVertex
100
AcDb2dVertex
 10
6.515176594836784
 20
5.634112158031621
 30
0.0
 70
     8
  0
VERTEX
  5
2687
330
267D
100
AcDbEntity
  8
NETAFIM-L-DETL-035M
100
AcDbVertex
100
AcDb2dVertex
 10
6.517202123833655
 20
5.614532044395225
 30
0.0
 70
     8
  0
VERTEX
  5
2688
330
267D
100
AcDbEntity
  8
NETAFIM-L-DETL-035M
100
AcDbVertex
100
AcDb2dVertex
 10
6.473090603457634
 20
5.712207553799657
 30
0.0
 70
    16
  0
VERTEX
  5
2689
330
267D
100
AcDbEntity
  8
NETAFIM-L-DETL-035M
100
AcDbVertex
100
AcDb2dVertex
 10
6.517202123833655
 20
5.668171053015926
 30
0.0
 70
    16
  0
VERTEX
  5
268A
330
267D
100
AcDbEntity
  8
NETAFIM-L-DETL-035M
100
AcDbVertex
100
AcDb2dVertex
 10
6.517202123833655
 20
5.614532044395225
 30
0.0
 70
    16
  0
SEQEND
  5
268B
330
267D
100
AcDbEntity
  8
NETAFIM-L-DETL-035M
  0
POLYLINE
  5
268C
330
1F
100
AcDbEntity
  8
NETAFIM-L-DETL-035M
100
AcDb2dPolyline
 66
     1
 10
0.0
 20
0.0
 30
0.0
 70
     4
  0
VERTEX
  5
268D
330
268C
100
AcDbEntity
  8
NETAFIM-L-DETL-035M
100
AcDbVertex
100
AcDb2dVertex
 10
6.517202123833655
 20
5.614532044395225
 30
0.0
 70
    16
  0
VERTEX
  5
268E
330
268C
100
AcDbEntity
  8
NETAFIM-L-DETL-035M
100
AcDbVertex
100
AcDb2dVertex
 10
6.517202123833655
 20
5.614532044395225
 30
0.0
 70
     8
  0
VERTEX
  5
268F
330
268C
100
AcDbEntity
  8
NETAFIM-L-DETL-035M
100
AcDbVertex
100
AcDb2dVertex
 10
6.517202123833655
 20
5.606504948000209
 30
0.0
 70
     8
  0
VERTEX
  5
2690
330
268C
100
AcDbEntity
  8
NETAFIM-L-DETL-035M
100
AcDbVertex
100
AcDb2dVertex
 10
6.517202123833655
 20
5.585274403329403
 30
0.0
 70
     8
  0
VERTEX
  5
2691
330
268C
100
AcDbEntity
  8
NETAFIM-L-DETL-035M
100
AcDbVertex
100
AcDb2dVertex
 10
6.517202123833655
 20
5.555191546746378
 30
0.0
 70
     8
  0
VERTEX
  5
2692
330
268C
100
AcDbEntity
  8
NETAFIM-L-DETL-035M
100
AcDbVertex
100
AcDb2dVertex
 10
6.517202123833655
 20
5.520757553799615
 30
0.0
 70
     8
  0
VERTEX
  5
2693
330
268C
100
AcDbEntity
  8
NETAFIM-L-DETL-035M
100
AcDbVertex
100
AcDb2dVertex
 10
6.517202123833655
 20
5.486323560852849
 30
0.0
 70
     8
  0
VERTEX
  5
2694
330
268C
100
AcDbEntity
  8
NETAFIM-L-DETL-035M
100
AcDbVertex
100
AcDb2dVertex
 10
6.517202123833655
 20
5.456315723862282
 30
0.0
 70
     8
  0
VERTEX
  5
2695
330
268C
100
AcDbEntity
  8
NETAFIM-L-DETL-035M
100
AcDbVertex
100
AcDb2dVertex
 10
6.517202123833655
 20
5.435085179191476
 30
0.0
 70
     8
  0
VERTEX
  5
2696
330
268C
100
AcDbEntity
  8
NETAFIM-L-DETL-035M
100
AcDbVertex
100
AcDb2dVertex
 10
6.517202123833655
 20
5.426983063204003
 30
0.0
 70
     8
  0
VERTEX
  5
2697
330
268C
100
AcDbEntity
  8
NETAFIM-L-DETL-035M
100
AcDbVertex
100
AcDb2dVertex
 10
6.517202123833655
 20
5.614532044395225
 30
0.0
 70
    16
  0
VERTEX
  5
2698
330
268C
100
AcDbEntity
  8
NETAFIM-L-DETL-035M
100
AcDbVertex
100
AcDb2dVertex
 10
6.517202123833655
 20
5.426983063204003
 30
0.0
 70
    16
  0
VERTEX
  5
2699
330
268C
100
AcDbEntity
  8
NETAFIM-L-DETL-035M
100
AcDbVertex
100
AcDb2dVertex
 10
6.517202123833655
 20
5.426983063204003
 30
0.0
 70
    16
  0
SEQEND
  5
269A
330
268C
100
AcDbEntity
  8
NETAFIM-L-DETL-035M
  0
POLYLINE
  5
269B
330
1F
100
AcDbEntity
  8
NETAFIM-L-DETL-035M
100
AcDb2dPolyline
 66
     1
 10
0.0
 20
0.0
 30
0.0
 70
     4
  0
VERTEX
  5
269C
330
269B
100
AcDbEntity
  8
NETAFIM-L-DETL-035M
100
AcDbVertex
100
AcDb2dVertex
 10
6.517202123833655
 20
5.426983063204003
 30
0.0
 70
    16
  0
VERTEX
  5
269D
330
269B
100
AcDbEntity
  8
NETAFIM-L-DETL-035M
100
AcDbVertex
100
AcDb2dVertex
 10
6.517202123833655
 20
5.426983063204003
 30
0.0
 70
     8
  0
VERTEX
  5
269E
330
269B
100
AcDbEntity
  8
NETAFIM-L-DETL-035M
100
AcDbVertex
100
AcDb2dVertex
 10
6.515176594836784
 20
5.407402949567607
 30
0.0
 70
     8
  0
VERTEX
  5
269F
330
269B
100
AcDbEntity
  8
NETAFIM-L-DETL-035M
100
AcDbVertex
100
AcDb2dVertex
 10
6.50947510580864
 20
5.389098169003332
 30
0.0
 70
     8
  0
VERTEX
  5
26A0
330
269B
100
AcDbEntity
  8
NETAFIM-L-DETL-035M
100
AcDbVertex
100
AcDb2dVertex
 10
6.500397735119044
 20
5.372518839066097
 30
0.0
 70
     8
  0
VERTEX
  5
26A1
330
269B
100
AcDbEntity
  8
NETAFIM-L-DETL-035M
100
AcDbVertex
100
AcDb2dVertex
 10
6.488469619915377
 20
5.358040057718017
 30
0.0
 70
     8
  0
VERTEX
  5
26A2
330
269B
100
AcDbEntity
  8
NETAFIM-L-DETL-035M
100
AcDbVertex
100
AcDb2dVertex
 10
6.473990838567466
 20
5.346111942514349
 30
0.0
 70
     8
  0
VERTEX
  5
26A3
330
269B
100
AcDbEntity
  8
NETAFIM-L-DETL-035M
100
AcDbVertex
100
AcDb2dVertex
 10
6.45733648903743
 20
5.337034571824755
 30
0.0
 70
     8
  0
VERTEX
  5
26A4
330
269B
100
AcDbEntity
  8
NETAFIM-L-DETL-035M
100
AcDbVertex
100
AcDb2dVertex
 10
6.439106728065617
 20
5.331333082796438
 30
0.0
 70
     8
  0
VERTEX
  5
26A5
330
269B
100
AcDbEntity
  8
NETAFIM-L-DETL-035M
100
AcDbVertex
100
AcDb2dVertex
 10
6.419526614429223
 20
5.329307553799569
 30
0.0
 70
     8
  0
VERTEX
  5
26A6
330
269B
100
AcDbEntity
  8
NETAFIM-L-DETL-035M
100
AcDbVertex
100
AcDb2dVertex
 10
6.517202123833655
 20
5.37341907417576
 30
0.0
 70
    16
  0
VERTEX
  5
26A7
330
269B
100
AcDbEntity
  8
NETAFIM-L-DETL-035M
100
AcDbVertex
100
AcDb2dVertex
 10
6.473090603457634
 20
5.329307553799569
 30
0.0
 70
    16
  0
VERTEX
  5
26A8
330
269B
100
AcDbEntity
  8
NETAFIM-L-DETL-035M
100
AcDbVertex
100
AcDb2dVertex
 10
6.419526614429223
 20
5.329307553799569
 30
0.0
 70
    16
  0
SEQEND
  5
26A9
330
269B
100
AcDbEntity
  8
NETAFIM-L-DETL-035M
  0
POLYLINE
  5
26AA
330
1F
100
AcDbEntity
  8
NETAFIM-L-DETL-035M
100
AcDb2dPolyline
 66
     1
 10
0.0
 20
0.0
 30
0.0
 70
     4
  0
VERTEX
  5
26AB
330
26AA
100
AcDbEntity
  8
NETAFIM-L-DETL-035M
100
AcDbVertex
100
AcDb2dVertex
 10
6.419526614429223
 20
5.329307553799569
 30
0.0
 70
    16
  0
VERTEX
  5
26AC
330
26AA
100
AcDbEntity
  8
NETAFIM-L-DETL-035M
100
AcDbVertex
100
AcDb2dVertex
 10
6.419526614429223
 20
5.329307553799569
 30
0.0
 70
     8
  0
VERTEX
  5
26AD
330
26AA
100
AcDbEntity
  8
NETAFIM-L-DETL-035M
100
AcDbVertex
100
AcDb2dVertex
 10
6.401371873050031
 20
5.329307553799569
 30
0.0
 70
     8
  0
VERTEX
  5
26AE
330
26AA
100
AcDbEntity
  8
NETAFIM-L-DETL-035M
100
AcDbVertex
100
AcDb2dVertex
 10
6.353584392642396
 20
5.329307553799569
 30
0.0
 70
     8
  0
VERTEX
  5
26AF
330
26AA
100
AcDbEntity
  8
NETAFIM-L-DETL-035M
100
AcDbVertex
100
AcDb2dVertex
 10
6.285991739821156
 20
5.329307553799569
 30
0.0
 70
     8
  0
VERTEX
  5
26B0
330
26AA
100
AcDbEntity
  8
NETAFIM-L-DETL-035M
100
AcDbVertex
100
AcDb2dVertex
 10
6.208496500793124
 20
5.329307553799569
 30
0.0
 70
     8
  0
VERTEX
  5
26B1
330
26AA
100
AcDbEntity
  8
NETAFIM-L-DETL-035M
100
AcDbVertex
100
AcDb2dVertex
 10
6.131001261764744
 20
5.329307553799569
 30
0.0
 70
     8
  0
VERTEX
  5
26B2
330
26AA
100
AcDbEntity
  8
NETAFIM-L-DETL-035M
100
AcDbVertex
100
AcDb2dVertex
 10
6.063483628535799
 20
5.329307553799569
 30
0.0
 70
     8
  0
VERTEX
  5
26B3
330
26AA
100
AcDbEntity
  8
NETAFIM-L-DETL-035M
100
AcDbVertex
100
AcDb2dVertex
 10
6.015621128535869
 20
5.329307553799569
 30
0.0
 70
     8
  0
VERTEX
  5
26B4
330
26AA
100
AcDbEntity
  8
NETAFIM-L-DETL-035M
100
AcDbVertex
100
AcDb2dVertex
 10
5.997541406748972
 20
5.329307553799569
 30
0.0
 70
     8
  0
VERTEX
  5
26B5
330
26AA
100
AcDbEntity
  8
NETAFIM-L-DETL-035M
100
AcDbVertex
100
AcDb2dVertex
 10
6.419526614429223
 20
5.329307553799569
 30
0.0
 70
    16
  0
VERTEX
  5
26B6
330
26AA
100
AcDbEntity
  8
NETAFIM-L-DETL-035M
100
AcDbVertex
100
AcDb2dVertex
 10
5.997541406748972
 20
5.329307553799569
 30
0.0
 70
    16
  0
VERTEX
  5
26B7
330
26AA
100
AcDbEntity
  8
NETAFIM-L-DETL-035M
100
AcDbVertex
100
AcDb2dVertex
 10
5.997541406748972
 20
5.329307553799569
 30
0.0
 70
    16
  0
SEQEND
  5
26B8
330
26AA
100
AcDbEntity
  8
NETAFIM-L-DETL-035M
  0
POLYLINE
  5
26B9
330
1F
100
AcDbEntity
  8
NETAFIM-L-DETL-035M
100
AcDb2dPolyline
 66
     1
 10
0.0
 20
0.0
 30
0.0
 70
     4
  0
VERTEX
  5
26BA
330
26B9
100
AcDbEntity
  8
NETAFIM-L-DETL-035M
100
AcDbVertex
100
AcDb2dVertex
 10
5.997541406748972
 20
5.329307553799569
 30
0.0
 70
    16
  0
VERTEX
  5
26BB
330
26B9
100
AcDbEntity
  8
NETAFIM-L-DETL-035M
100
AcDbVertex
100
AcDb2dVertex
 10
5.997541406748972
 20
5.329307553799569
 30
0.0
 70
     8
  0
VERTEX
  5
26BC
330
26B9
100
AcDbEntity
  8
NETAFIM-L-DETL-035M
100
AcDbVertex
100
AcDb2dVertex
 10
5.977961293112915
 20
5.331333082796438
 30
0.0
 70
     8
  0
VERTEX
  5
26BD
330
26B9
100
AcDbEntity
  8
NETAFIM-L-DETL-035M
100
AcDbVertex
100
AcDb2dVertex
 10
5.95965651254847
 20
5.337034571824755
 30
0.0
 70
     8
  0
VERTEX
  5
26BE
330
26B9
100
AcDbEntity
  8
NETAFIM-L-DETL-035M
100
AcDbVertex
100
AcDb2dVertex
 10
5.943077182611062
 20
5.346111942514349
 30
0.0
 70
     8
  0
VERTEX
  5
26BF
330
26B9
100
AcDbEntity
  8
NETAFIM-L-DETL-035M
100
AcDbVertex
100
AcDb2dVertex
 10
5.928598401263151
 20
5.358040057718017
 30
0.0
 70
     8
  0
VERTEX
  5
26C0
330
26B9
100
AcDbEntity
  8
NETAFIM-L-DETL-035M
100
AcDbVertex
100
AcDb2dVertex
 10
5.916595266466856
 20
5.372518839066097
 30
0.0
 70
     8
  0
VERTEX
  5
26C1
330
26B9
100
AcDbEntity
  8
NETAFIM-L-DETL-035M
100
AcDbVertex
100
AcDb2dVertex
 10
5.907592915369892
 20
5.389098169003332
 30
0.0
 70
     8
  0
VERTEX
  5
26C2
330
26B9
100
AcDbEntity
  8
NETAFIM-L-DETL-035M
100
AcDbVertex
100
AcDb2dVertex
 10
5.901816406749119
 20
5.407402949567607
 30
0.0
 70
     8
  0
VERTEX
  5
26C3
330
26B9
100
AcDbEntity
  8
NETAFIM-L-DETL-035M
100
AcDbVertex
100
AcDb2dVertex
 10
5.899865897344877
 20
5.426983063204003
 30
0.0
 70
     8
  0
VERTEX
  5
26C4
330
26B9
100
AcDbEntity
  8
NETAFIM-L-DETL-035M
100
AcDbVertex
100
AcDb2dVertex
 10
5.943902398128606
 20
5.329307553799569
 30
0.0
 70
    16
  0
VERTEX
  5
26C5
330
26B9
100
AcDbEntity
  8
NETAFIM-L-DETL-035M
100
AcDbVertex
100
AcDb2dVertex
 10
5.899865897344877
 20
5.37341907417576
 30
0.0
 70
    16
  0
VERTEX
  5
26C6
330
26B9
100
AcDbEntity
  8
NETAFIM-L-DETL-035M
100
AcDbVertex
100
AcDb2dVertex
 10
5.899865897344877
 20
5.426983063204003
 30
0.0
 70
    16
  0
SEQEND
  5
26C7
330
26B9
100
AcDbEntity
  8
NETAFIM-L-DETL-035M
  0
POLYLINE
  5
26C8
330
1F
100
AcDbEntity
  8
NETAFIM-L-DETL-035M
100
AcDb2dPolyline
 66
     1
 10
0.0
 20
0.0
 30
0.0
 70
     4
  0
VERTEX
  5
26C9
330
26C8
100
AcDbEntity
  8
NETAFIM-L-DETL-035M
100
AcDbVertex
100
AcDb2dVertex
 10
5.899865897344877
 20
5.426983063204003
 30
0.0
 70
    16
  0
VERTEX
  5
26CA
330
26C8
100
AcDbEntity
  8
NETAFIM-L-DETL-035M
100
AcDbVertex
100
AcDb2dVertex
 10
5.899865897344877
 20
5.426983063204003
 30
0.0
 70
     8
  0
VERTEX
  5
26CB
330
26C8
100
AcDbEntity
  8
NETAFIM-L-DETL-035M
100
AcDbVertex
100
AcDb2dVertex
 10
5.899865897344877
 20
5.43103412119774
 30
0.0
 70
     8
  0
VERTEX
  5
26CC
330
26C8
100
AcDbEntity
  8
NETAFIM-L-DETL-035M
100
AcDbVertex
100
AcDb2dVertex
 10
5.899865897344877
 20
5.441686903329456
 30
0.0
 70
     8
  0
VERTEX
  5
26CD
330
26C8
100
AcDbEntity
  8
NETAFIM-L-DETL-035M
100
AcDbVertex
100
AcDb2dVertex
 10
5.899865897344877
 20
5.456690821824739
 30
0.0
 70
     8
  0
VERTEX
  5
26CE
330
26C8
100
AcDbEntity
  8
NETAFIM-L-DETL-035M
100
AcDbVertex
100
AcDb2dVertex
 10
5.899865897344877
 20
5.473870308501808
 30
0.0
 70
     8
  0
VERTEX
  5
26CF
330
26C8
100
AcDbEntity
  8
NETAFIM-L-DETL-035M
100
AcDbVertex
100
AcDb2dVertex
 10
5.899865897344877
 20
5.491124814771334
 30
0.0
 70
     8
  0
VERTEX
  5
26D0
330
26C8
100
AcDbEntity
  8
NETAFIM-L-DETL-035M
100
AcDbVertex
100
AcDb2dVertex
 10
5.899865897344877
 20
5.506128733266617
 30
0.0
 70
     8
  0
VERTEX
  5
26D1
330
26C8
100
AcDbEntity
  8
NETAFIM-L-DETL-035M
100
AcDbVertex
100
AcDb2dVertex
 10
5.899865897344877
 20
5.516781515398335
 30
0.0
 70
     8
  0
VERTEX
  5
26D2
330
26C8
100
AcDbEntity
  8
NETAFIM-L-DETL-035M
100
AcDbVertex
100
AcDb2dVertex
 10
5.899865897344877
 20
5.520757553799615
 30
0.0
 70
     8
  0
VERTEX
  5
26D3
330
26C8
100
AcDbEntity
  8
NETAFIM-L-DETL-035M
100
AcDbVertex
100
AcDb2dVertex
 10
5.899865897344877
 20
5.426983063204003
 30
0.0
 70
    16
  0
VERTEX
  5
26D4
330
26C8
100
AcDbEntity
  8
NETAFIM-L-DETL-035M
100
AcDbVertex
100
AcDb2dVertex
 10
5.899865897344877
 20
5.520757553799615
 30
0.0
 70
    16
  0
VERTEX
  5
26D5
330
26C8
100
AcDbEntity
  8
NETAFIM-L-DETL-035M
100
AcDbVertex
100
AcDb2dVertex
 10
5.899865897344877
 20
5.520757553799615
 30
0.0
 70
    16
  0
SEQEND
  5
26D6
330
26C8
100
AcDbEntity
  8
NETAFIM-L-DETL-035M
  0
POLYLINE
  5
26D7
330
1F
100
AcDbEntity
  8
NETAFIM-L-DETL-035M
100
AcDb2dPolyline
 66
     1
 10
0.0
 20
0.0
 30
0.0
 70
     4
  0
VERTEX
  5
26D8
330
26D7
100
AcDbEntity
  8
NETAFIM-L-DETL-035M
100
AcDbVertex
100
AcDb2dVertex
 10
5.860780689664373
 20
5.520757553799615
 30
0.0
 70
    16
  0
VERTEX
  5
26D9
330
26D7
100
AcDbEntity
  8
NETAFIM-L-DETL-035M
100
AcDbVertex
100
AcDb2dVertex
 10
5.860780689664373
 20
5.520757553799615
 30
0.0
 70
     8
  0
VERTEX
  5
26DA
330
26D7
100
AcDbEntity
  8
NETAFIM-L-DETL-035M
100
AcDbVertex
100
AcDb2dVertex
 10
5.860780689664373
 20
5.526684101605304
 30
0.0
 70
     8
  0
VERTEX
  5
26DB
330
26D7
100
AcDbEntity
  8
NETAFIM-L-DETL-035M
100
AcDbVertex
100
AcDb2dVertex
 10
5.860780689664373
 20
5.542138137655335
 30
0.0
 70
     8
  0
VERTEX
  5
26DC
330
26D7
100
AcDbEntity
  8
NETAFIM-L-DETL-035M
100
AcDbVertex
100
AcDb2dVertex
 10
5.860780689664373
 20
5.5640438586586
 30
0.0
 70
     8
  0
VERTEX
  5
26DD
330
26D7
100
AcDbEntity
  8
NETAFIM-L-DETL-035M
100
AcDbVertex
100
AcDb2dVertex
 10
5.860780689664373
 20
5.589175422138225
 30
0.0
 70
     8
  0
VERTEX
  5
26DE
330
26D7
100
AcDbEntity
  8
NETAFIM-L-DETL-035M
100
AcDbVertex
100
AcDb2dVertex
 10
5.860780689664373
 20
5.614231966025394
 30
0.0
 70
     8
  0
VERTEX
  5
26DF
330
26D7
100
AcDbEntity
  8
NETAFIM-L-DETL-035M
100
AcDbVertex
100
AcDb2dVertex
 10
5.860780689664373
 20
5.63613768702849
 30
0.0
 70
     8
  0
VERTEX
  5
26E0
330
26D7
100
AcDbEntity
  8
NETAFIM-L-DETL-035M
100
AcDbVertex
100
AcDb2dVertex
 10
5.860780689664373
 20
5.651666742671148
 30
0.0
 70
     8
  0
VERTEX
  5
26E1
330
26D7
100
AcDbEntity
  8
NETAFIM-L-DETL-035M
100
AcDbVertex
100
AcDb2dVertex
 10
5.860780689664373
 20
5.65751827088421
 30
0.0
 70
     8
  0
VERTEX
  5
26E2
330
26D7
100
AcDbEntity
  8
NETAFIM-L-DETL-035M
100
AcDbVertex
100
AcDb2dVertex
 10
5.860780689664373
 20
5.520757553799615
 30
0.0
 70
    16
  0
VERTEX
  5
26E3
330
26D7
100
AcDbEntity
  8
NETAFIM-L-DETL-035M
100
AcDbVertex
100
AcDb2dVertex
 10
5.860780689664373
 20
5.65751827088421
 30
0.0
 70
    16
  0
VERTEX
  5
26E4
330
26D7
100
AcDbEntity
  8
NETAFIM-L-DETL-035M
100
AcDbVertex
100
AcDb2dVertex
 10
5.860780689664373
 20
5.65751827088421
 30
0.0
 70
    16
  0
SEQEND
  5
26E5
330
26D7
100
AcDbEntity
  8
NETAFIM-L-DETL-035M
  0
POLYLINE
  5
26E6
330
1F
100
AcDbEntity
  8
NETAFIM-L-DETL-035M
100
AcDb2dPolyline
 66
     1
 10
0.0
 20
0.0
 30
0.0
 70
     4
  0
VERTEX
  5
26E7
330
26E6
100
AcDbEntity
  8
NETAFIM-L-DETL-035M
100
AcDbVertex
100
AcDb2dVertex
 10
5.860780689664373
 20
5.65751827088421
 30
0.0
 70
    16
  0
VERTEX
  5
26E8
330
26E6
100
AcDbEntity
  8
NETAFIM-L-DETL-035M
100
AcDbVertex
100
AcDb2dVertex
 10
5.860780689664373
 20
5.65751827088421
 30
0.0
 70
     8
  0
VERTEX
  5
26E9
330
26E6
100
AcDbEntity
  8
NETAFIM-L-DETL-035M
100
AcDbVertex
100
AcDb2dVertex
 10
5.862731199068953
 20
5.677098384520604
 30
0.0
 70
     8
  0
VERTEX
  5
26EA
330
26E6
100
AcDbEntity
  8
NETAFIM-L-DETL-035M
100
AcDbVertex
100
AcDb2dVertex
 10
5.86850770768973
 20
5.695403165084879
 30
0.0
 70
     8
  0
VERTEX
  5
26EB
330
26E6
100
AcDbEntity
  8
NETAFIM-L-DETL-035M
100
AcDbVertex
100
AcDb2dVertex
 10
5.877510058786697
 20
5.711982495022116
 30
0.0
 70
     8
  0
VERTEX
  5
26EC
330
26E6
100
AcDbEntity
  8
NETAFIM-L-DETL-035M
100
AcDbVertex
100
AcDb2dVertex
 10
5.889513193582992
 20
5.726461276370194
 30
0.0
 70
     8
  0
VERTEX
  5
26ED
330
26E6
100
AcDbEntity
  8
NETAFIM-L-DETL-035M
100
AcDbVertex
100
AcDb2dVertex
 10
5.903991974930903
 20
5.73846441116632
 30
0.0
 70
     8
  0
VERTEX
  5
26EE
330
26E6
100
AcDbEntity
  8
NETAFIM-L-DETL-035M
100
AcDbVertex
100
AcDb2dVertex
 10
5.92057130486831
 20
5.747466762263627
 30
0.0
 70
     8
  0
VERTEX
  5
26EF
330
26E6
100
AcDbEntity
  8
NETAFIM-L-DETL-035M
100
AcDbVertex
100
AcDb2dVertex
 10
5.938876085432411
 20
5.753243270884231
 30
0.0
 70
     8
  0
VERTEX
  5
26F0
330
26E6
100
AcDbEntity
  8
NETAFIM-L-DETL-035M
100
AcDbVertex
100
AcDb2dVertex
 10
5.958456199068805
 20
5.755193780288642
 30
0.0
 70
     8
  0
VERTEX
  5
26F1
330
26E6
100
AcDbEntity
  8
NETAFIM-L-DETL-035M
100
AcDbVertex
100
AcDb2dVertex
 10
5.860780689664373
 20
5.711082259912451
 30
0.0
 70
    16
  0
VERTEX
  5
26F2
330
26E6
100
AcDbEntity
  8
NETAFIM-L-DETL-035M
100
AcDbVertex
100
AcDb2dVertex
 10
5.904892210040735
 20
5.755193780288642
 30
0.0
 70
    16
  0
VERTEX
  5
26F3
330
26E6
100
AcDbEntity
  8
NETAFIM-L-DETL-035M
100
AcDbVertex
100
AcDb2dVertex
 10
5.958456199068805
 20
5.755193780288642
 30
0.0
 70
    16
  0
SEQEND
  5
26F4
330
26E6
100
AcDbEntity
  8
NETAFIM-L-DETL-035M
  0
POLYLINE
  5
26F5
330
1F
100
AcDbEntity
  8
NETAFIM-L-DETL-035M
100
AcDb2dPolyline
 66
     1
 10
0.0
 20
0.0
 30
0.0
 70
     4
  0
VERTEX
  5
26F6
330
26F5
100
AcDbEntity
  8
NETAFIM-L-DETL-035M
100
AcDbVertex
100
AcDb2dVertex
 10
5.958456199068805
 20
5.755193780288642
 30
0.0
 70
    16
  0
VERTEX
  5
26F7
330
26F5
100
AcDbEntity
  8
NETAFIM-L-DETL-035M
100
AcDbVertex
100
AcDb2dVertex
 10
5.958456199068805
 20
5.755193780288642
 30
0.0
 70
     8
  0
VERTEX
  5
26F8
330
26F5
100
AcDbEntity
  8
NETAFIM-L-DETL-035M
100
AcDbVertex
100
AcDb2dVertex
 10
5.979911802517158
 20
5.755193780288642
 30
0.0
 70
     8
  0
VERTEX
  5
26F9
330
26F5
100
AcDbEntity
  8
NETAFIM-L-DETL-035M
100
AcDbVertex
100
AcDb2dVertex
 10
6.036551594836844
 20
5.755193780288642
 30
0.0
 70
     8
  0
VERTEX
  5
26FA
330
26F5
100
AcDbEntity
  8
NETAFIM-L-DETL-035M
100
AcDbVertex
100
AcDb2dVertex
 10
6.116672519601749
 20
5.755193780288642
 30
0.0
 70
     8
  0
VERTEX
  5
26FB
330
26F5
100
AcDbEntity
  8
NETAFIM-L-DETL-035M
100
AcDbVertex
100
AcDb2dVertex
 10
6.208496500793124
 20
5.755193780288642
 30
0.0
 70
     8
  0
VERTEX
  5
26FC
330
26F5
100
AcDbEntity
  8
NETAFIM-L-DETL-035M
100
AcDbVertex
100
AcDb2dVertex
 10
6.300320481984151
 20
5.755193780288642
 30
0.0
 70
     8
  0
VERTEX
  5
26FD
330
26F5
100
AcDbEntity
  8
NETAFIM-L-DETL-035M
100
AcDbVertex
100
AcDb2dVertex
 10
6.380441406749056
 20
5.755193780288642
 30
0.0
 70
     8
  0
VERTEX
  5
26FE
330
26F5
100
AcDbEntity
  8
NETAFIM-L-DETL-035M
100
AcDbVertex
100
AcDb2dVertex
 10
6.437081199068749
 20
5.755193780288642
 30
0.0
 70
     8
  0
VERTEX
  5
26FF
330
26F5
100
AcDbEntity
  8
NETAFIM-L-DETL-035M
100
AcDbVertex
100
AcDb2dVertex
 10
6.458536802517095
 20
5.755193780288642
 30
0.0
 70
     8
  0
VERTEX
  5
2700
330
26F5
100
AcDbEntity
  8
NETAFIM-L-DETL-035M
100
AcDbVertex
100
AcDb2dVertex
 10
5.958456199068805
 20
5.755193780288642
 30
0.0
 70
    16
  0
VERTEX
  5
2701
330
26F5
100
AcDbEntity
  8
NETAFIM-L-DETL-035M
100
AcDbVertex
100
AcDb2dVertex
 10
6.458536802517095
 20
5.755193780288642
 30
0.0
 70
    16
  0
VERTEX
  5
2702
330
26F5
100
AcDbEntity
  8
NETAFIM-L-DETL-035M
100
AcDbVertex
100
AcDb2dVertex
 10
6.458536802517095
 20
5.755193780288642
 30
0.0
 70
    16
  0
SEQEND
  5
2703
330
26F5
100
AcDbEntity
  8
NETAFIM-L-DETL-035M
  0
POLYLINE
  5
2704
330
1F
100
AcDbEntity
  8
NETAFIM-L-DETL-035M
100
AcDb2dPolyline
 66
     1
 10
0.0
 20
0.0
 30
0.0
 70
     4
  0
VERTEX
  5
2705
330
2704
100
AcDbEntity
  8
NETAFIM-L-DETL-035M
100
AcDbVertex
100
AcDb2dVertex
 10
6.458536802517095
 20
5.755193780288642
 30
0.0
 70
    16
  0
VERTEX
  5
2706
330
2704
100
AcDbEntity
  8
NETAFIM-L-DETL-035M
100
AcDbVertex
100
AcDb2dVertex
 10
6.458536802517095
 20
5.755193780288642
 30
0.0
 70
     8
  0
VERTEX
  5
2707
330
2704
100
AcDbEntity
  8
NETAFIM-L-DETL-035M
100
AcDbVertex
100
AcDb2dVertex
 10
6.478191935746117
 20
5.753243270884231
 30
0.0
 70
     8
  0
VERTEX
  5
2708
330
2704
100
AcDbEntity
  8
NETAFIM-L-DETL-035M
100
AcDbVertex
100
AcDb2dVertex
 10
6.496421696717938
 20
5.747466762263627
 30
0.0
 70
     8
  0
VERTEX
  5
2709
330
2704
100
AcDbEntity
  8
NETAFIM-L-DETL-035M
100
AcDbVertex
100
AcDb2dVertex
 10
6.513001026655
 20
5.73846441116632
 30
0.0
 70
     8
  0
VERTEX
  5
270A
330
2704
100
AcDbEntity
  8
NETAFIM-L-DETL-035M
100
AcDbVertex
100
AcDb2dVertex
 10
6.527479808002908
 20
5.726461276370194
 30
0.0
 70
     8
  0
VERTEX
  5
270B
330
2704
100
AcDbEntity
  8
NETAFIM-L-DETL-035M
100
AcDbVertex
100
AcDb2dVertex
 10
6.539482942799203
 20
5.711982495022116
 30
0.0
 70
     8
  0
VERTEX
  5
270C
330
2704
100
AcDbEntity
  8
NETAFIM-L-DETL-035M
100
AcDbVertex
100
AcDb2dVertex
 10
6.548560313488799
 20
5.695403165084879
 30
0.0
 70
     8
  0
VERTEX
  5
270D
330
2704
100
AcDbEntity
  8
NETAFIM-L-DETL-035M
100
AcDbVertex
100
AcDb2dVertex
 10
6.554261802517288
 20
5.677098384520604
 30
0.0
 70
     8
  0
VERTEX
  5
270E
330
2704
100
AcDbEntity
  8
NETAFIM-L-DETL-035M
100
AcDbVertex
100
AcDb2dVertex
 10
6.556287331514155
 20
5.65751827088421
 30
0.0
 70
     8
  0
VERTEX
  5
270F
330
2704
100
AcDbEntity
  8
NETAFIM-L-DETL-035M
100
AcDbVertex
100
AcDb2dVertex
 10
6.512175811137794
 20
5.755193780288642
 30
0.0
 70
    16
  0
VERTEX
  5
2710
330
2704
100
AcDbEntity
  8
NETAFIM-L-DETL-035M
100
AcDbVertex
100
AcDb2dVertex
 10
6.556287331514155
 20
5.711082259912451
 30
0.0
 70
    16
  0
VERTEX
  5
2711
330
2704
100
AcDbEntity
  8
NETAFIM-L-DETL-035M
100
AcDbVertex
100
AcDb2dVertex
 10
6.556287331514155
 20
5.65751827088421
 30
0.0
 70
    16
  0
SEQEND
  5
2712
330
2704
100
AcDbEntity
  8
NETAFIM-L-DETL-035M
  0
POLYLINE
  5
2713
330
1F
100
AcDbEntity
  8
NETAFIM-L-DETL-035M
100
AcDb2dPolyline
 66
     1
 10
0.0
 20
0.0
 30
0.0
 70
     4
  0
VERTEX
  5
2714
330
2713
100
AcDbEntity
  8
NETAFIM-L-DETL-035M
100
AcDbVertex
100
AcDb2dVertex
 10
6.556287331514155
 20
5.65751827088421
 30
0.0
 70
    16
  0
VERTEX
  5
2715
330
2713
100
AcDbEntity
  8
NETAFIM-L-DETL-035M
100
AcDbVertex
100
AcDb2dVertex
 10
6.556287331514155
 20
5.65751827088421
 30
0.0
 70
     8
  0
VERTEX
  5
2716
330
2713
100
AcDbEntity
  8
NETAFIM-L-DETL-035M
100
AcDbVertex
100
AcDb2dVertex
 10
6.556287331514155
 20
5.645815214457915
 30
0.0
 70
     8
  0
VERTEX
  5
2717
330
2713
100
AcDbEntity
  8
NETAFIM-L-DETL-035M
100
AcDbVertex
100
AcDb2dVertex
 10
6.556287331514155
 20
5.614757103172598
 30
0.0
 70
     8
  0
VERTEX
  5
2718
330
2713
100
AcDbEntity
  8
NETAFIM-L-DETL-035M
100
AcDbVertex
100
AcDb2dVertex
 10
6.556287331514155
 20
5.570945661166408
 30
0.0
 70
     8
  0
VERTEX
  5
2719
330
2713
100
AcDbEntity
  8
NETAFIM-L-DETL-035M
100
AcDbVertex
100
AcDb2dVertex
 10
6.556287331514155
 20
5.520757553799615
 30
0.0
 70
     8
  0
VERTEX
  5
271A
330
2713
100
AcDbEntity
  8
NETAFIM-L-DETL-035M
100
AcDbVertex
100
AcDb2dVertex
 10
6.556287331514155
 20
5.470569446432818
 30
0.0
 70
     8
  0
VERTEX
  5
271B
330
2713
100
AcDbEntity
  8
NETAFIM-L-DETL-035M
100
AcDbVertex
100
AcDb2dVertex
 10
6.556287331514155
 20
5.426758004426631
 30
0.0
 70
     8
  0
VERTEX
  5
271C
330
2713
100
AcDbEntity
  8
NETAFIM-L-DETL-035M
100
AcDbVertex
100
AcDb2dVertex
 10
6.556287331514155
 20
5.39577491273377
 30
0.0
 70
     8
  0
VERTEX
  5
271D
330
2713
100
AcDbEntity
  8
NETAFIM-L-DETL-035M
100
AcDbVertex
100
AcDb2dVertex
 10
6.556287331514155
 20
5.383996836715018
 30
0.0
 70
     8
  0
VERTEX
  5
271E
330
2713
100
AcDbEntity
  8
NETAFIM-L-DETL-035M
100
AcDbVertex
100
AcDb2dVertex
 10
6.556287331514155
 20
5.65751827088421
 30
0.0
 70
    16
  0
VERTEX
  5
271F
330
2713
100
AcDbEntity
  8
NETAFIM-L-DETL-035M
100
AcDbVertex
100
AcDb2dVertex
 10
6.556287331514155
 20
5.383996836715018
 30
0.0
 70
    16
  0
VERTEX
  5
2720
330
2713
100
AcDbEntity
  8
NETAFIM-L-DETL-035M
100
AcDbVertex
100
AcDb2dVertex
 10
6.556287331514155
 20
5.383996836715018
 30
0.0
 70
    16
  0
SEQEND
  5
2721
330
2713
100
AcDbEntity
  8
NETAFIM-L-DETL-035M
  0
POLYLINE
  5
2722
330
1F
100
AcDbEntity
  8
NETAFIM-L-DETL-035M
100
AcDb2dPolyline
 66
     1
 10
0.0
 20
0.0
 30
0.0
 70
     4
  0
VERTEX
  5
2723
330
2722
100
AcDbEntity
  8
NETAFIM-L-DETL-035M
100
AcDbVertex
100
AcDb2dVertex
 10
6.556287331514155
 20
5.383996836715018
 30
0.0
 70
    16
  0
VERTEX
  5
2724
330
2722
100
AcDbEntity
  8
NETAFIM-L-DETL-035M
100
AcDbVertex
100
AcDb2dVertex
 10
6.556287331514155
 20
5.383996836715018
 30
0.0
 70
     8
  0
VERTEX
  5
2725
330
2722
100
AcDbEntity
  8
NETAFIM-L-DETL-035M
100
AcDbVertex
100
AcDb2dVertex
 10
6.554261802517288
 20
5.364416723078623
 30
0.0
 70
     8
  0
VERTEX
  5
2726
330
2722
100
AcDbEntity
  8
NETAFIM-L-DETL-035M
100
AcDbVertex
100
AcDb2dVertex
 10
6.548560313488799
 20
5.346186962106807
 30
0.0
 70
     8
  0
VERTEX
  5
2727
330
2722
100
AcDbEntity
  8
NETAFIM-L-DETL-035M
100
AcDbVertex
100
AcDb2dVertex
 10
6.539482942799203
 20
5.329532612577114
 30
0.0
 70
     8
  0
VERTEX
  5
2728
330
2722
100
AcDbEntity
  8
NETAFIM-L-DETL-035M
100
AcDbVertex
100
AcDb2dVertex
 10
6.527479808002908
 20
5.315053831229032
 30
0.0
 70
     8
  0
VERTEX
  5
2729
330
2722
100
AcDbEntity
  8
NETAFIM-L-DETL-035M
100
AcDbVertex
100
AcDb2dVertex
 10
6.513001026655
 20
5.303125716025366
 30
0.0
 70
     8
  0
VERTEX
  5
272A
330
2722
100
AcDbEntity
  8
NETAFIM-L-DETL-035M
100
AcDbVertex
100
AcDb2dVertex
 10
6.496421696717938
 20
5.2940483453356
 30
0.0
 70
     8
  0
VERTEX
  5
272B
330
2722
100
AcDbEntity
  8
NETAFIM-L-DETL-035M
100
AcDbVertex
100
AcDb2dVertex
 10
6.478191935746117
 20
5.288346856307455
 30
0.0
 70
     8
  0
VERTEX
  5
272C
330
2722
100
AcDbEntity
  8
NETAFIM-L-DETL-035M
100
AcDbVertex
100
AcDb2dVertex
 10
6.458536802517095
 20
5.286321327310586
 30
0.0
 70
     8
  0
VERTEX
  5
272D
330
2722
100
AcDbEntity
  8
NETAFIM-L-DETL-035M
100
AcDbVertex
100
AcDb2dVertex
 10
6.556287331514155
 20
5.330432847686775
 30
0.0
 70
    16
  0
VERTEX
  5
272E
330
2722
100
AcDbEntity
  8
NETAFIM-L-DETL-035M
100
AcDbVertex
100
AcDb2dVertex
 10
6.512175811137794
 20
5.286321327310586
 30
0.0
 70
    16
  0
VERTEX
  5
272F
330
2722
100
AcDbEntity
  8
NETAFIM-L-DETL-035M
100
AcDbVertex
100
AcDb2dVertex
 10
6.458536802517095
 20
5.286321327310586
 30
0.0
 70
    16
  0
SEQEND
  5
2730
330
2722
100
AcDbEntity
  8
NETAFIM-L-DETL-035M
  0
POLYLINE
  5
2731
330
1F
100
AcDbEntity
  8
NETAFIM-L-DETL-035M
100
AcDb2dPolyline
 66
     1
 10
0.0
 20
0.0
 30
0.0
 70
     4
  0
VERTEX
  5
2732
330
2731
100
AcDbEntity
  8
NETAFIM-L-DETL-035M
100
AcDbVertex
100
AcDb2dVertex
 10
6.458536802517095
 20
5.286321327310586
 30
0.0
 70
    16
  0
VERTEX
  5
2733
330
2731
100
AcDbEntity
  8
NETAFIM-L-DETL-035M
100
AcDbVertex
100
AcDb2dVertex
 10
6.458536802517095
 20
5.286321327310586
 30
0.0
 70
     8
  0
VERTEX
  5
2734
330
2731
100
AcDbEntity
  8
NETAFIM-L-DETL-035M
100
AcDbVertex
100
AcDb2dVertex
 10
6.437081199068749
 20
5.286321327310586
 30
0.0
 70
     8
  0
VERTEX
  5
2735
330
2731
100
AcDbEntity
  8
NETAFIM-L-DETL-035M
100
AcDbVertex
100
AcDb2dVertex
 10
6.380441406749056
 20
5.286321327310586
 30
0.0
 70
     8
  0
VERTEX
  5
2736
330
2731
100
AcDbEntity
  8
NETAFIM-L-DETL-035M
100
AcDbVertex
100
AcDb2dVertex
 10
6.300320481984151
 20
5.286321327310586
 30
0.0
 70
     8
  0
VERTEX
  5
2737
330
2731
100
AcDbEntity
  8
NETAFIM-L-DETL-035M
100
AcDbVertex
100
AcDb2dVertex
 10
6.208496500793124
 20
5.286321327310586
 30
0.0
 70
     8
  0
VERTEX
  5
2738
330
2731
100
AcDbEntity
  8
NETAFIM-L-DETL-035M
100
AcDbVertex
100
AcDb2dVertex
 10
6.116672519601749
 20
5.286321327310586
 30
0.0
 70
     8
  0
VERTEX
  5
2739
330
2731
100
AcDbEntity
  8
NETAFIM-L-DETL-035M
100
AcDbVertex
100
AcDb2dVertex
 10
6.036551594836844
 20
5.286321327310586
 30
0.0
 70
     8
  0
VERTEX
  5
273A
330
2731
100
AcDbEntity
  8
NETAFIM-L-DETL-035M
100
AcDbVertex
100
AcDb2dVertex
 10
5.979911802517158
 20
5.286321327310586
 30
0.0
 70
     8
  0
VERTEX
  5
273B
330
2731
100
AcDbEntity
  8
NETAFIM-L-DETL-035M
100
AcDbVertex
100
AcDb2dVertex
 10
5.958456199068805
 20
5.286321327310586
 30
0.0
 70
     8
  0
VERTEX
  5
273C
330
2731
100
AcDbEntity
  8
NETAFIM-L-DETL-035M
100
AcDbVertex
100
AcDb2dVertex
 10
6.458536802517095
 20
5.286321327310586
 30
0.0
 70
    16
  0
VERTEX
  5
273D
330
2731
100
AcDbEntity
  8
NETAFIM-L-DETL-035M
100
AcDbVertex
100
AcDb2dVertex
 10
5.958456199068805
 20
5.286321327310586
 30
0.0
 70
    16
  0
VERTEX
  5
273E
330
2731
100
AcDbEntity
  8
NETAFIM-L-DETL-035M
100
AcDbVertex
100
AcDb2dVertex
 10
5.958456199068805
 20
5.286321327310586
 30
0.0
 70
    16
  0
SEQEND
  5
273F
330
2731
100
AcDbEntity
  8
NETAFIM-L-DETL-035M
  0
POLYLINE
  5
2740
330
1F
100
AcDbEntity
  8
NETAFIM-L-DETL-035M
100
AcDb2dPolyline
 66
     1
 10
0.0
 20
0.0
 30
0.0
 70
     4
  0
VERTEX
  5
2741
330
2740
100
AcDbEntity
  8
NETAFIM-L-DETL-035M
100
AcDbVertex
100
AcDb2dVertex
 10
5.958456199068805
 20
5.286321327310586
 30
0.0
 70
    16
  0
VERTEX
  5
2742
330
2740
100
AcDbEntity
  8
NETAFIM-L-DETL-035M
100
AcDbVertex
100
AcDb2dVertex
 10
5.958456199068805
 20
5.286321327310586
 30
0.0
 70
     8
  0
VERTEX
  5
2743
330
2740
100
AcDbEntity
  8
NETAFIM-L-DETL-035M
100
AcDbVertex
100
AcDb2dVertex
 10
5.938876085432411
 20
5.288346856307455
 30
0.0
 70
     8
  0
VERTEX
  5
2744
330
2740
100
AcDbEntity
  8
NETAFIM-L-DETL-035M
100
AcDbVertex
100
AcDb2dVertex
 10
5.92057130486831
 20
5.2940483453356
 30
0.0
 70
     8
  0
VERTEX
  5
2745
330
2740
100
AcDbEntity
  8
NETAFIM-L-DETL-035M
100
AcDbVertex
100
AcDb2dVertex
 10
5.903991974930903
 20
5.303125716025366
 30
0.0
 70
     8
  0
VERTEX
  5
2746
330
2740
100
AcDbEntity
  8
NETAFIM-L-DETL-035M
100
AcDbVertex
100
AcDb2dVertex
 10
5.889513193582992
 20
5.315053831229032
 30
0.0
 70
     8
  0
VERTEX
  5
2747
330
2740
100
AcDbEntity
  8
NETAFIM-L-DETL-035M
100
AcDbVertex
100
AcDb2dVertex
 10
5.877510058786697
 20
5.329532612577114
 30
0.0
 70
     8
  0
VERTEX
  5
2748
330
2740
100
AcDbEntity
  8
NETAFIM-L-DETL-035M
100
AcDbVertex
100
AcDb2dVertex
 10
5.86850770768973
 20
5.346186962106807
 30
0.0
 70
     8
  0
VERTEX
  5
2749
330
2740
100
AcDbEntity
  8
NETAFIM-L-DETL-035M
100
AcDbVertex
100
AcDb2dVertex
 10
5.862731199068953
 20
5.364416723078623
 30
0.0
 70
     8
  0
VERTEX
  5
274A
330
2740
100
AcDbEntity
  8
NETAFIM-L-DETL-035M
100
AcDbVertex
100
AcDb2dVertex
 10
5.860780689664373
 20
5.383996836715018
 30
0.0
 70
     8
  0
VERTEX
  5
274B
330
2740
100
AcDbEntity
  8
NETAFIM-L-DETL-035M
100
AcDbVertex
100
AcDb2dVertex
 10
5.904892210040735
 20
5.286321327310586
 30
0.0
 70
    16
  0
VERTEX
  5
274C
330
2740
100
AcDbEntity
  8
NETAFIM-L-DETL-035M
100
AcDbVertex
100
AcDb2dVertex
 10
5.860780689664373
 20
5.330432847686775
 30
0.0
 70
    16
  0
VERTEX
  5
274D
330
2740
100
AcDbEntity
  8
NETAFIM-L-DETL-035M
100
AcDbVertex
100
AcDb2dVertex
 10
5.860780689664373
 20
5.383996836715018
 30
0.0
 70
    16
  0
SEQEND
  5
274E
330
2740
100
AcDbEntity
  8
NETAFIM-L-DETL-035M
  0
POLYLINE
  5
274F
330
1F
100
AcDbEntity
  8
NETAFIM-L-DETL-035M
100
AcDb2dPolyline
 66
     1
 10
0.0
 20
0.0
 30
0.0
 70
     4
  0
VERTEX
  5
2750
330
274F
100
AcDbEntity
  8
NETAFIM-L-DETL-035M
100
AcDbVertex
100
AcDb2dVertex
 10
5.860780689664373
 20
5.383996836715018
 30
0.0
 70
    16
  0
VERTEX
  5
2751
330
274F
100
AcDbEntity
  8
NETAFIM-L-DETL-035M
100
AcDbVertex
100
AcDb2dVertex
 10
5.860780689664373
 20
5.383996836715018
 30
0.0
 70
     8
  0
VERTEX
  5
2752
330
274F
100
AcDbEntity
  8
NETAFIM-L-DETL-035M
100
AcDbVertex
100
AcDb2dVertex
 10
5.860780689664373
 20
5.389923384520539
 30
0.0
 70
     8
  0
VERTEX
  5
2753
330
274F
100
AcDbEntity
  8
NETAFIM-L-DETL-035M
100
AcDbVertex
100
AcDb2dVertex
 10
5.860780689664373
 20
5.40537742057074
 30
0.0
 70
     8
  0
VERTEX
  5
2754
330
274F
100
AcDbEntity
  8
NETAFIM-L-DETL-035M
100
AcDbVertex
100
AcDb2dVertex
 10
5.860780689664373
 20
5.427283141573834
 30
0.0
 70
     8
  0
VERTEX
  5
2755
330
274F
100
AcDbEntity
  8
NETAFIM-L-DETL-035M
100
AcDbVertex
100
AcDb2dVertex
 10
5.860780689664373
 20
5.45241470505346
 30
0.0
 70
     8
  0
VERTEX
  5
2756
330
274F
100
AcDbEntity
  8
NETAFIM-L-DETL-035M
100
AcDbVertex
100
AcDb2dVertex
 10
5.860780689664373
 20
5.477471248940629
 30
0.0
 70
     8
  0
VERTEX
  5
2757
330
274F
100
AcDbEntity
  8
NETAFIM-L-DETL-035M
100
AcDbVertex
100
AcDb2dVertex
 10
5.860780689664373
 20
5.499376969943723
 30
0.0
 70
     8
  0
VERTEX
  5
2758
330
274F
100
AcDbEntity
  8
NETAFIM-L-DETL-035M
100
AcDbVertex
100
AcDb2dVertex
 10
5.860780689664373
 20
5.51490602558638
 30
0.0
 70
     8
  0
VERTEX
  5
2759
330
274F
100
AcDbEntity
  8
NETAFIM-L-DETL-035M
100
AcDbVertex
100
AcDb2dVertex
 10
5.860780689664373
 20
5.520757553799615
 30
0.0
 70
     8
  0
VERTEX
  5
275A
330
274F
100
AcDbEntity
  8
NETAFIM-L-DETL-035M
100
AcDbVertex
100
AcDb2dVertex
 10
5.860780689664373
 20
5.383996836715018
 30
0.0
 70
    16
  0
VERTEX
  5
275B
330
274F
100
AcDbEntity
  8
NETAFIM-L-DETL-035M
100
AcDbVertex
100
AcDb2dVertex
 10
5.860780689664373
 20
5.520757553799615
 30
0.0
 70
    16
  0
VERTEX
  5
275C
330
274F
100
AcDbEntity
  8
NETAFIM-L-DETL-035M
100
AcDbVertex
100
AcDb2dVertex
 10
5.860780689664373
 20
5.520757553799615
 30
0.0
 70
    16
  0
SEQEND
  5
275D
330
274F
100
AcDbEntity
  8
NETAFIM-L-DETL-035M
  0
LWPOLYLINE
  5
275E
330
1F
100
AcDbEntity
  8
NETAFIM-L-DETL-035M
100
AcDbPolyline
 90
        4
 70
     0
 43
0.0
 10
5.664470072625547
 20
5.63193450436799
 10
5.664470072625547
 20
6.069855007193877
 10
5.591592568822861
 20
6.069855007193877
 10
5.591592568822861
 20
5.63193450436799
  0
LWPOLYLINE
  5
275F
330
1F
100
AcDbEntity
  8
NETAFIM-L-DETL-035M
100
AcDbPolyline
 90
        4
 70
     0
 43
0.0
 10
5.664470072625547
 20
5.433957799822593
 10
5.664470072625547
 20
5.311213484262223
 10
5.591592568822861
 20
5.311213484262223
 10
5.591592568822861
 20
5.433957799822422
  0
LWPOLYLINE
  5
2760
330
1F
100
AcDbEntity
  8
NETAFIM-L-DETL-035M
100
AcDbPolyline
 90
        2
 70
     0
 43
0.0
 10
5.732536615581189
 20
5.564641115462146
 10
5.860780689664714
 20
5.564641115462146
  0
LWPOLYLINE
  5
2761
330
1F
100
AcDbEntity
  8
NETAFIM-L-DETL-035M
100
AcDbPolyline
 90
        2
 70
     0
 43
0.0
 10
5.732536615580848
 20
5.496688369790762
 10
5.860780689664373
 20
5.496688369790762
  0
LWPOLYLINE
  5
2762
330
1F
100
AcDbEntity
  8
NETAFIM-L-DETL-025M
100
AcDbPolyline
 90
        8
 70
     1
 43
0.0
 10
2.791359951743025
 20
2.777160097872283
 10
2.989336656288422
 20
2.777160097872283
 10
2.989336656288422
 20
2.662605180160612
 10
2.950251448608259
 20
2.662605180160612
 10
2.950251448608259
 20
2.62614565821698
 10
2.833070845160058
 20
2.62614565821698
 10
2.833070845160058
 20
2.659979494423741
 10
2.791359951743025
 20
2.659979494423741
  0
LWPOLYLINE
  5
2763
330
1F
100
AcDbEntity
  8
NETAFIM-L-DETL-035M
100
AcDbPolyline
 90
        4
 70
     0
 43
0.0
 10
2.989336656288422
 20
2.748049048498199
 10
3.149211360300846
 20
2.748049048498199
 10
3.149211360300846
 20
2.685020414831841
 10
2.989336656288422
 20
2.685020414831841
  0
LWPOLYLINE
  5
2764
330
1F
100
AcDbEntity
  8
NETAFIM-L-DETL-035M
100
AcDbPolyline
 90
        4
 70
     0
 43
0.0
 10
2.791359951743025
 20
2.750018693300278
 10
1.955267750704724
 20
2.750018693300278
 10
1.955267750704724
 20
2.683379044163386
 10
2.791359951743025
 20
2.683379044163386
  0
LWPOLYLINE
  5
2765
330
1F
100
AcDbEntity
  8
NETAFIM-L-DETL-035M
100
AcDbPolyline
 90
        2
 70
     1
 43
0.0
 10
3.198453522303559
 20
2.725726407407913
 42
1.0
 10
3.335015561913913
 20
2.725726407407913
 42
1.0
  0
LWPOLYLINE
  5
2766
330
1F
100
AcDbEntity
  8
NETAFIM-L-DETL-035M
100
AcDbPolyline
 90
        2
 70
     1
 43
0.0
 10
3.259758654920275
 20
2.724741585006874
 42
1.0
 10
3.271084212943389
 20
2.724741585006874
 42
1.0
  0
LWPOLYLINE
  5
2767
330
1F
100
AcDbEntity
  8
NETAFIM-L-DETL-035M
100
AcDbPolyline
 90
        2
 70
     1
 43
0.0
 10
2.52770084645202
 20
3.973168115387421
 42
1.0
 10
2.539026404475134
 20
3.973168115387421
 42
1.0
  0
LWPOLYLINE
  5
2768
330
1F
100
AcDbEntity
  8
NETAFIM-L-DETL-035M
100
AcDbPolyline
 90
        2
 70
     1
 43
0.0
 10
2.466395713835304
 20
3.974152937788462
 42
1.0
 10
2.602957753445657
 20
3.974152937788462
 42
1.0
  0
LWPOLYLINE
  5
2769
330
1F
100
AcDbEntity
  8
NETAFIM-L-DETL-035M
100
AcDbPolyline
 90
        2
 70
     1
 43
0.0
 10
3.256475884478867
 20
5.242275916189628
 42
1.0
 10
3.26780144250198
 20
5.242275916189628
 42
1.0
  0
LWPOLYLINE
  5
276A
330
1F
100
AcDbEntity
  8
NETAFIM-L-DETL-035M
100
AcDbPolyline
 90
        2
 70
     1
 43
0.0
 10
3.19517075186215
 20
5.243260738590667
 42
1.0
 10
3.331732791472504
 20
5.243260738590667
 42
1.0
  0
LWPOLYLINE
  5
276B
330
1F
100
AcDbEntity
  8
NETAFIM-L-DETL-035M
100
AcDbPolyline
 90
        2
 70
     1
 43
0.0
 10
4.686778965867333
 20
5.238664900719093
 42
1.0
 10
4.698104523890446
 20
5.238664900719093
 42
1.0
  0
LWPOLYLINE
  5
276C
330
1F
100
AcDbEntity
  8
NETAFIM-L-DETL-035M
100
AcDbPolyline
 90
        2
 70
     1
 43
0.0
 10
4.625473833250616
 20
5.239649723120134
 42
1.0
 10
4.76203587286097
 20
5.239649723120134
 42
1.0
  0
LWPOLYLINE
  5
276D
330
1F
100
AcDbEntity
  8
NETAFIM-L-DETL-035M
100
AcDbPolyline
 90
        2
 70
     1
 43
0.0
 10
3.974089503004236
 20
3.984657710066102
 42
1.0
 10
3.985415061027353
 20
3.984657710066102
 42
1.0
  0
LWPOLYLINE
  5
276E
330
1F
100
AcDbEntity
  8
NETAFIM-L-DETL-035M
100
AcDbPolyline
 90
        2
 70
     1
 43
0.0
 10
3.912784370387523
 20
3.985642532467142
 42
1.0
 10
4.04934640999788
 20
3.985642532467142
 42
1.0
  0
LWPOLYLINE
  5
276F
330
1F
100
AcDbEntity
  8
NETAFIM-L-DETL-013M
100
AcDbPolyline
 90
        6
 70
     0
 43
0.0
 10
4.308357603216329
 20
4.109401880864155
 10
4.273888513579663
 20
4.035868474919986
 10
4.223333848779581
 20
4.015187204498326
 10
4.28997408874342
 20
3.960037150040285
 10
4.230227666707051
 20
3.960037150040285
 10
4.191162698452409
 20
3.863524554738756
  0
LWPOLYLINE
  5
2770
330
1F
100
AcDbEntity
  8
NETAFIM-L-DETL-013M
100
AcDbPolyline
 90
        6
 70
     0
 43
0.0
 10
4.945215068879299
 20
5.35553049230883
 10
4.91074597924263
 20
5.281997086364661
 10
4.860191314442548
 20
5.261315815943003
 10
4.926831554406383
 20
5.20616576148496
 10
4.867085132370018
 20
5.20616576148496
 10
4.828020164115379
 20
5.109653166183431
  0
LWPOLYLINE
  5
2771
330
1F
100
AcDbEntity
  8
NETAFIM-L-DETL-013M
100
AcDbPolyline
 90
        6
 70
     0
 43
0.0
 10
4.300915870291152
 20
2.857419627221084
 10
4.266446780654483
 20
2.783886221276915
 10
4.215892115854401
 20
2.763204950855255
 10
4.28253235581824
 20
2.708054896397214
 10
4.222785933781871
 20
2.708054896397214
 10
4.183720965527232
 20
2.611542301095683
  0
LWPOLYLINE
  5
2772
330
1F
100
AcDbEntity
  8
NETAFIM-L-DETL-035M
100
AcDbPolyline
 90
        2
 70
     0
 43
0.0
 10
3.327465795277355
 20
2.755599353572722
 10
4.225082294050181
 20
2.755599353572722
  0
LWPOLYLINE
  5
2773
330
1F
100
AcDbEntity
  8
NETAFIM-L-DETL-035M
100
AcDbPolyline
 90
        2
 70
     0
 43
0.0
 10
3.335344444337419
 20
2.696838283644316
 10
4.218245835986891
 20
2.696838283644316
  0
LWPOLYLINE
  5
2774
330
1F
100
AcDbEntity
  8
NETAFIM-L-DETL-035M
100
AcDbPolyline
 90
        2
 70
     0
 43
0.0
 10
2.590483831146819
 20
4.013217559696247
 10
3.918600075505594
 20
4.013217559696247
  0
LWPOLYLINE
  5
2775
330
1F
100
AcDbEntity
  8
NETAFIM-L-DETL-035M
100
AcDbPolyline
 90
        2
 70
     0
 43
0.0
 10
4.043530704879806
 20
4.013217559696247
 10
4.225713857350072
 20
4.013217559696247
  0
LWPOLYLINE
  5
2776
330
1F
100
AcDbEntity
  8
NETAFIM-L-DETL-035M
100
AcDbPolyline
 90
        2
 70
     0
 43
0.0
 10
2.602301804736569
 20
3.950517200163513
 10
3.92251192149795
 20
3.950517200163513
  0
LWPOLYLINE
  5
2777
330
1F
100
AcDbEntity
  8
NETAFIM-L-DETL-035M
100
AcDbPolyline
 90
        2
 70
     0
 43
0.0
 10
4.039618858887454
 20
3.950517200163513
 10
4.226374319498169
 20
3.950517200163513
  0
LWPOLYLINE
  5
2778
330
1F
100
AcDbEntity
  8
NETAFIM-L-DETL-035M
100
AcDbPolyline
 90
        2
 70
     0
 43
0.0
 10
3.319587146217635
 20
5.204524390816505
 10
4.635201384361039
 20
5.204524390816505
  0
LWPOLYLINE
  5
2779
330
1F
100
AcDbEntity
  8
NETAFIM-L-DETL-035M
100
AcDbPolyline
 90
        2
 70
     0
 43
0.0
 10
3.327465795277355
 20
5.267224750349239
 10
4.631289538368683
 20
5.267224750349239
  0
LWPOLYLINE
  5
277A
330
1F
100
AcDbEntity
  8
NETAFIM-L-DETL-035M
100
AcDbPolyline
 90
        2
 70
     0
 43
0.0
 10
4.752308321750547
 20
5.204524390816505
 10
4.866420762161755
 20
5.204524390816505
  0
LWPOLYLINE
  5
277B
330
1F
100
AcDbEntity
  8
NETAFIM-L-DETL-035M
100
AcDbPolyline
 90
        2
 70
     0
 43
0.0
 10
4.756220167742903
 20
5.267224750349239
 10
4.87463550438543
 20
5.267224750349239
  0
CIRCLE
  5
277C
330
1F
100
AcDbEntity
  8
NETAFIM-L-DETL-025M-TUBING
100
AcDbCircle
 10
5.622450610973469
 20
5.403458515825972
 30
0.0
 40
0.0180552374286007
  0
LWPOLYLINE
  5
277D
330
1F
100
AcDbEntity
  8
NETAFIM-L-DETL-025M
100
AcDbPolyline
 90
       10
 70
     0
 43
0.0
 10
5.742928286178795
 20
6.096116937888151
 10
5.092283184661233
 20
6.114172015240484
 42
0.0104487342984562
 10
3.797558522509255
 20
6.123035416849841
 42
0.0360743888743663
 10
2.577681026424812
 20
6.017659419938954
 42
0.1705589539602037
 10
2.101022758310094
 20
5.759635950867457
 42
0.1053515428959172
 10
1.917515890626646
 20
5.444164508402046
 42
0.0218371595296312
 10
1.804260310392759
 20
5.040059049843417
 42
0.0490484132828373
 10
1.749438044018674
 20
4.625777093140774
 42
0.0426925761130449
 10
1.834461798455084
 20
2.985391247147868
 42
0.0265471904522594
 10
1.968070555426727
 20
2.291419728550856
 42
3.060566069599785
  0
LWPOLYLINE
  5
277E
330
1F
100
AcDbEntity
  8
NETAFIM-L-DETL-025M-TUBING
100
AcDbPolyline
 90
       11
 70
     0
 43
0.0
 10
5.618839563487746
 20
6.027835918082972
 10
4.982310374868752
 20
6.042936528232189
 42
0.0056663818698252
 10
4.00174684397443
 20
6.055082671178286
 42
0.0214180627874695
 10
2.980805236648564
 20
6.012407033800133
 42
0.0504671261034722
 10
2.429628079510287
 20
5.909000681691328
 42
0.0962340124332364
 10
2.259252293593156
 20
5.820694939731565
 42
0.113208660874718
 10
2.020266605447687
 20
5.522293752217617
 42
0.0825127014786144
 10
1.872541935577132
 20
5.018392957020719
 42
0.0206145446236709
 10
1.829865919837111
 20
4.481336474322102
 42
0.0174428226352186
 10
1.828224534616239
 20
3.966930906847561
 42
0.0460735944018194
 10
1.983499576502204
 20
2.718832650600637
 42
2.139586465758477
  0
LWPOLYLINE
  5
277F
330
1F
100
AcDbEntity
  8
NETAFIM-L-DETL-025M-TUBING
100
AcDbPolyline
 90
        9
 70
     0
 43
0.0
 10
5.622450610973469
 20
5.385403438473638
 10
3.307440895583908
 20
5.370302828324422
 42
0.1464537281997329
 10
3.185321835158049
 20
5.332879577084922
 42
0.1168461438588131
 10
3.162998996155103
 20
5.308915565326351
 10
2.411572842081682
 20
4.024378880241306
 42
0.3411479989612315
 10
2.426345309068878
 20
3.909811207587441
 10
2.737223669884777
 20
3.382931223032841
 10
3.008708785401729
 20
2.927943273754124
 10
3.124918859033058
 20
2.721787117803756
  0
LWPOLYLINE
  5
2780
330
1F
100
AcDbEntity
  8
NETAFIM-L-DETL-025M-TUBING
100
AcDbPolyline
 90
        4
 70
     0
 43
0.0
 10
2.655245768171859
 20
2.711827307132985
 10
2.568580628514574
 20
2.93111442843066
 42
-0.0969634156856407
 10
2.495496985042308
 20
3.325899207961231
 42
-0.0915810621606789
 10
2.552297942816991
 20
3.616657775277964
 42
-0.085445183959278
  0
LWPOLYLINE
  5
2781
330
1F
100
AcDbEntity
  8
NETAFIM-L-DETL-025M-TUBING
100
AcDbPolyline
 90
        4
 70
     0
 43
0.0
 10
2.692906268923543
 20
2.726711229808953
 10
2.606241129266258
 20
2.945998351106458
 42
-0.0969634156856822
 10
2.535989841817045
 20
3.325483249639097
 42
-0.0811503968085893
 10
2.578818768180163
 20
3.571709995635341
 42
-6.315643738937908
  0
LWPOLYLINE
  5
2782
330
1F
100
AcDbEntity
  8
NETAFIM-L-DETL-025M-TUBING
100
AcDbPolyline
 90
        4
 70
     0
 43
0.0
 10
2.578818768180163
 20
3.571709995635341
 10
2.702397738712548
 20
3.362267029213771
 10
2.973677822867323
 20
2.907622696559871
 10
3.08964250546434
 20
2.701901863217154
  0
LWPOLYLINE
  5
2783
330
1F
100
AcDbEntity
  8
NETAFIM-L-DETL-025M-TUBING
100
AcDbPolyline
 90
        5
 70
     0
 43
0.0
 10
5.622238089736548
 20
5.421512502458487
 10
3.307176755830173
 20
5.41079696001397
 42
0.1464537281998361
 10
3.162852519630696
 20
5.366568957174497
 42
0.1162332302626654
 10
3.127936536522113
 20
5.329176730581114
 10
3.108171999777844
 20
5.295389947443444
 42
0.3296222831989544
  0
LWPOLYLINE
  5
2784
330
1F
100
AcDbEntity
  8
NETAFIM-L-DETL-025M-TUBING
100
AcDbPolyline
 90
        6
 70
     0
 43
0.0
 10
2.332099196039116
 20
2.732114685695169
 10
2.25134304317671
 20
3.131296032248598
 42
-0.0466690908491358
 10
2.133635644024998
 20
4.234018731779197
 42
-0.0398913273858619
 10
2.17588186158898
 20
4.866731472901644
 42
-0.1561768619817832
 10
2.480147235818428
 20
5.486666676549955
 42
-0.0766597949210935
 10
2.622156685681424
 20
5.594996053437553
 42
-0.0868605913194462
  0
LWPOLYLINE
  5
2786
330
1F
100
AcDbEntity
  8
NETAFIM-L-DETL-025M-TUBING
100
AcDbPolyline
 90
        6
 70
     0
 43
0.0
 10
2.29240827505292
 20
2.724085036739628
 10
2.211652122190514
 20
3.123266383293056
 42
-0.0466690908491279
 10
2.093144109250371
 20
4.233489503394622
 42
-0.0398913273858632
 10
2.135820124990388
 20
4.872639241667215
 42
-0.1561768619818257
 10
2.450966087380635
 20
5.514743447143096
 42
-0.0733616258224782
 10
2.595599601494363
 20
5.626582894560959
 42
-0.0868605913193446
  0
LWPOLYLINE
  5
2787
330
1F
100
AcDbEntity
  8
NETAFIM-L-DETL-025M-TUBING
100
AcDbPolyline
 90
        5
 70
     0
 43
0.0
 10
5.617879156466095
 20
5.987352315359835
 10
4.981349967847094
 20
6.00245292550905
 42
0.0056663818698232
 10
4.001704177460233
 20
6.014587700494729
 42
0.021418062787473
 10
2.984227251072766
 20
5.972056887723955
 42
0.0455781413394519
 10
2.492578178638985
 20
5.884774762140165
 42
0.0455781413394519
  0
LWPOLYLINE
  5
2788
330
1F
100
AcDbEntity
  8
NETAFIM-L-DETL-025M-TUBING
100
AcDbPolyline
 90
        7
 70
     0
 43
0.0
 10
2.44106417208173
 20
5.87015405689841
 42
0.0962340124330034
 10
2.284400933302155
 20
5.788955525876009
 42
0.1132086608748504
 10
2.056733299705697
 20
5.504686234477016
 42
0.0825127014785948
 10
1.912743190974993
 20
5.01352432933606
 42
0.0206145446236489
 10
1.870331566815799
 20
4.479795083496167
 42
0.017442822635213
 10
1.868699194164111
 20
3.968214030207644
 42
0.0460735944018426
 10
2.02305482404224
 20
2.727505992698212
 42
0.0460735944018426
  0
LWPOLYLINE
  5
278B
330
1F
100
AcDbEntity
  8
NETAFIM-L-DETL-025M-TUBING
100
AcDbPolyline
 90
        2
 70
     0
 43
0.0
 10
3.087525181741728
 20
5.260094935346728
 10
2.502602771479622
 20
4.260190567050607
 42
0.3296222831989544
  0
LWPOLYLINE
  5
278C
330
1F
100
AcDbEntity
  8
NETAFIM-L-DETL-025M-TUBING
100
AcDbPolyline
 90
        4
 70
     0
 43
0.0
 10
2.480262245095524
 20
4.222000219869972
 10
2.376619173379658
 20
4.044826019780851
 42
0.3296222831989544
 10
2.393847274958538
 20
3.885201668828411
 10
2.552297942816991
 20
3.616657775278135
  0
CIRCLE
  5
278D
330
1F
100
AcDbEntity
  8
NETAFIM-L-DETL-025M-TUBING
100
AcDbCircle
 10
2.003277200272222
 20
2.72316932164951
 30
0.0
 40
0.0202474965804111
  0
CIRCLE
  5
278E
330
1F
100
AcDbEntity
  8
NETAFIM-L-DETL-025M-TUBING
100
AcDbCircle
 10
2.312253735546018
 20
2.728099861217484
 30
0.0
 40
0.0202474965803294
  0
CIRCLE
  5
278F
330
1F
100
AcDbEntity
  8
NETAFIM-L-DETL-025M-TUBING
100
AcDbCircle
 10
2.674076018547872
 20
2.719269268470968
 30
0.0
 40
0.0202474965803924
  0
CIRCLE
  5
2790
330
1F
100
AcDbEntity
  8
NETAFIM-L-DETL-025M-TUBING
100
AcDbCircle
 10
3.10728068224887
 20
2.711844490510455
 30
0.0
 40
0.0202474965803128
  0
CIRCLE
  5
2791
330
1F
100
AcDbEntity
  8
NETAFIM-L-DETL-025M-TUBING
100
AcDbCircle
 10
5.618359359976921
 20
6.007594116721403
 30
0.0
 40
0.020247496580393
  0
LWPOLYLINE
  5
2792
330
1F
100
AcDbEntity
  8
NETAFIM-L-DETL-025M
100
AcDbPolyline
 90
        2
 70
     0
 43
0.0
 10
1.897786067717881
 20
2.60721944514989
 10
2.859742132669765
 20
2.60721944514989
  0
LWPOLYLINE
  5
2793
330
1F
100
AcDbEntity
  8
NETAFIM-L-DETL-025M
100
AcDbPolyline
 90
        2
 70
     0
 43
0.0
 10
2.91850320259817
 20
2.60721944514989
 10
4.124894471582663
 20
2.60721944514989
  0
LWPOLYLINE
  5
2794
330
1F
100
AcDbEntity
  8
NETAFIM-L-DETL-025M
100
AcDbPolyline
 90
        2
 70
     0
 43
0.0
 10
1.897786067717881
 20
2.587219445149891
 10
2.859742132669765
 20
2.587219445149891
  0
LWPOLYLINE
  5
2795
330
1F
100
AcDbEntity
  8
NETAFIM-L-DETL-025M
100
AcDbPolyline
 90
        2
 70
     0
 43
0.0
 10
2.91850320259817
 20
2.587219445149891
 10
4.124894471582663
 20
2.587219445149891
  0
LWPOLYLINE
  5
2796
330
1F
100
AcDbEntity
  8
NETAFIM-L-DETL-025M-TUBING
100
AcDbPolyline
 90
        3
 70
     0
 43
0.0
 10
2.638653928360626
 20
5.647385732035645
 10
2.705380796601581
 20
5.66574954863525
 42
-0.0133314294686047
 10
2.858037873864923
 20
5.703414680923247
  0
LWPOLYLINE
  5
2797
330
1F
100
AcDbEntity
  8
NETAFIM-L-DETL-025M-TUBING
100
AcDbPolyline
 90
        4
 70
     0
 43
0.0
 10
2.858037873864923
 20
5.703414680923247
 10
2.91908915234735
 20
5.709081734280818
 42
-0.0247095360268259
 10
4.105154112883411
 20
5.760292499134703
 42
-0.0044261245878729
 10
5.625733381414875
 20
5.737313309777171
 42
-2.064584581033285
  0
LWPOLYLINE
  5
2798
330
1F
100
AcDbEntity
  8
NETAFIM-L-DETL-025M-TUBING
100
AcDbPolyline
 90
        4
 70
     0
 43
0.0
 10
2.861386585032121
 20
5.667338948947982
 10
2.922437863514549
 20
5.673006002305555
 42
-0.024709536026825
 10
4.104927353383295
 20
5.724062388947736
 42
-0.0044261245878725
 10
5.624865259223021
 20
5.701092891945704
 42
-0.0044261245878725
  0
LWPOLYLINE
  5
2799
330
1F
100
AcDbEntity
  8
NETAFIM-L-DETL-025M-TUBING
100
AcDbPolyline
 90
        3
 70
     0
 43
0.0
 10
2.663888396974554
 20
5.616752640183316
 10
2.714994411878876
 20
5.630817461590055
 42
-0.0133314294686241
 10
2.865776039492445
 20
5.668019863551798
  0
CIRCLE
  5
279A
330
1F
100
AcDbEntity
  8
NETAFIM-L-DETL-025M-TUBING
100
AcDbCircle
 10
5.625299320318951
 20
5.719203100861353
 30
0.0
 40
0.0181154099044575
  0
LINE
  5
279D
330
1F
100
AcDbEntity
  8
NETAFIM-L-DETL-025M-TUBING
100
AcDbLine
 10
2.44106417208173
 20
5.87015405689841
 30
0.0
 11
2.454738707798215
 21
5.874069878375936
 31
0.0
  0
LINE
  5
279E
330
1F
100
AcDbEntity
  8
NETAFIM-L-DETL-025M-TUBING
100
AcDbLine
 10
2.595599601494363
 20
5.626582894560959
 30
0.0
 11
2.602666014568453
 21
5.630250300192888
 31
0.0
  0
LINE
  5
279F
330
1F
100
AcDbEntity
  8
NETAFIM-L-DETL-025M-TUBING
100
AcDbLine
 10
2.622156685681424
 20
5.594996053437553
 30
0.0
 11
2.628420136737557
 21
5.598500761028964
 31
0.0
  0
LWPOLYLINE
  5
27A3
330
1F
100
AcDbEntity
  8
NETAFIM-L-DETL-035M
100
AcDbPolyline
 90
        2
 70
     0
 43
0.0
 10
2.859742132669765
 20
2.531565605639805
 10
2.859742132669765
 20
2.62614565821698
  0
LWPOLYLINE
  5
27A4
330
1F
100
AcDbEntity
  8
NETAFIM-L-DETL-035M
100
AcDbPolyline
 90
        2
 70
     0
 43
0.0
 10
2.91850320259817
 20
2.531903141921468
 10
2.91850320259817
 20
2.62614565821698
  0
MULTILEADER
  5
27C2
330
1F
100
AcDbEntity
  8
NETAFIM-L-DETL-TEXT-LEADER-025M
 92
     1760
310
E00600000B0000000C00000016000000000000C00C00000013000000993A0000B00000000B00000046B176AC28BBED3F4F83A9FE5416FA3F000000000000000000000000000000000000000000000000000000000000F03F000000000000F03F000000000000000000000000000000004E4F544520544F2044455349474E45
310
523A00000011000000010000000AD7A3703D0AB73F000000000000F03F0000000000000000000000000000F03F0000000000000000000000000100000000000000726F6D616E732E736878000000000000A00000000B0000004913CA15F174ED3FE97E9601B769F73F00000000000000000000000000000000000000000000
310
0000000000000000F03F000000000000F03F00000000000000000000000000000000312E000002000000010000000AD7A3703D0AB73F000000000000F03F0000000000000000000000000000F03F0000000000000000000000000000000000000000726F6D616E732E736878000000000000F40000000B00000084D34F04DC
310
BEF13FE97E9601B769F73F000000000000000000000000000000000000000000000000000000000000F03F000000000000F03F00000000000000000000000000000000494E2054484953204558414D504C452C20494445414C2053504143494E47204953204D41494E5441494E454420464F522054484520535052494E4B4C
310
45522053595354454D20572F204F555420444953544F5254494F4E0057000000010000000AD7A3703D0AB73F000000000000F03F0000000000000000000000000000F03F0000000000000000000000000000000000000000726F6D616E732E736878000000000000E40000000B0000008222A6CFF7E1F13F8118309B5003F5
310
3F000000000000000000000000000000000000000000000000000000000000F03F000000000000F03F000000000000000000000000000000005748494C4520544845204845414453204152452053455420415741592046524F4D2054484520504156494E47204544474520544F2041564F4944204F56455253505241592E00
310
410045000000010000000AD7A3703D0AB73F000000000000F03F0000000000000000000000000000F03F0000000000000000000000000000000000000000726F6D616E732E736878000000007800A00000000B0000004400CD7744DEED3F454F20DDA096F23F00000000000000000000000000000000000000000000000000
310
0000000000F03F000000000000F03F00000000000000000000000000000000322E000002000000010000000AD7A3703D0AB73F000000000000F03F0000000000000000000000000000F03F0000000000000000000000000000000000000000726F6D616E732E7368780055000000C0AC0000000B00000084D34F04DCBEF13F
310
454F20DDA096F23F000000000000000000000000000000000000000000000000000000000000F03F000000000000F03F00000000000000000000000000000000424C414E4B20546563686C696E6500430E000000010000000AD7A3703D0AB73F000000000000F03F0000000000000000000000000000F03F00000000000000
310
00000000000000000000000000726F6D616E732E7368780073007800009C0000000B0000006ABCB8750D3D0140454F20DDA096F23F000000000000000000000000000000000000000000000000000000000000F03F000000000000F03F00000000000000000000000000000000AE00000001000000010000000AD7A3703D0A
310
B73F000000000000F03F0000000000000000000000000000F03F0000000000000000000000000000000000000000417269616C001C12005B7955E40000000B000000DD0292F927FB0140454F20DDA096F23F000000000000000000000000000000000000000000000000000000000000F03F000000000000F03F0000000000
310
000000000000000000000020445249504C494E45204953205553454420544F204A4F494E20544845204C41544552414C53204143524F535320544845204849474820504F494E5420544F20454E48414E43450047000000010000000AD7A3703D0AB73F000000000000F03F0000000000000000000000000000F03F00000000
310
00000000000000000000000000000000726F6D616E732E736878000000000000CC0000000B000000024A51B585F3F13FC2951AC005D4EF3F000000000000000000000000000000000000000000000000000000000000F03F000000000000F03F000000000000000000000000000000005448452046554E4354494F4E204F46
310
20544845204149522F56414355554D2052454C4945462056414C56452E000063002C000000010000000AD7A3703D0AB73F000000000000F03F0000000000000000000000000000F03F0000000000000000000000000000000000000000726F6D616E732E736878000000007000
100
AcDbMLeader
300
CONTEXT_DATA{
 40
1.0
 10
0.8562394003052522
 20
1.660452151083051
 30
0.0
 41
0.09
140
0.12
145
0.09
174
     1
175
     1
176
     0
177
     0
290
     1
304
{\Fromans|c0;\LNOTE TO DESIGNER:\P\pxi-2,l2;\l1.^IIN THIS EXAMPLE, IDEAL SPACING IS MAINTAINED FOR THE SPRINKLER SYSTEM W/ OUT DISTORTION WHILE THE HEADS ARE SET AWAY FROM THE PAVING EDGE TO AVOID OVERSPRAY.\P2.^IBLANK Techline}®{\Fromans|c0; DRIPLINE IS USED TO JOIN THE LATERALS ACROSS THE HIGH POINT TO ENHANCE THE FUNCTION OF THE AIR/VACUUM RELIEF VALVE.}
 11
0.0
 21
0.0
 31
1.0
340
225A
 12
0.9462394003052523
 22
1.720452151083051
 32
0.0
 13
1.0
 23
0.0
 33
0.0
 42
0.0
 43
7.290377808420846
 44
1.096688724052253
 45
1.0
170
     1
 90
-1073741824
171
     1
172
     5
 91
-1073741824
141
0.0
 92
        0
291
     0
292
     0
173
     0
293
     0
142
0.0
143
0.0
294
     0
295
     0
296
     0
110
-1.928337439923978
120
1.522576078021371
130
0.0
111
1.0
121
0.0
131
0.0
112
0.0
122
1.0
132
0.0
297
     0
302
LEADER{
290
     1
291
     1
 10
0.1231401652906741
 20
1.660452151083051
 30
0.0
 11
1.0
 21
0.0
 31
0.0
 90
        0
 40
0.7330992350145783
304
LEADER_LINE{
 10
-1.881054560376685
 20
1.170644182028388
 30
0.0
 91
        0
305
}
303
}
301
}
340
225B
 90
   279681
170
     0
 91
-1056964608
341
14
171
    -2
290
     1
291
     1
 41
0.36
 42
0.12
172
     2
343
225A
173
     1
 95
        1
174
     1
175
     0
 92
-1056964608
292
     0
 93
-1056964608
 10
1.0
 20
1.0
 30
1.0
 43
0.0
176
     0
293
     0
294
     0
178
     0
179
     1
 45
1.0
1001
ACAD_MLEADERVER
1070
     2
  0
MULTILEADER
  5
27CA
330
1F
100
AcDbEntity
  8
NETAFIM-L-DETL-TEXT-LEADER-025M
 92
      576
310
40020000140000000C00000016000000000000C00C00000013000000993A0000AC0000000B0000002FB863F473791940631F8D82F4FF0240000000000000000000000000000000000000000000000000000000000000F03F000000000000F03F0000000000000000000000000000000045444745204F462054555246006500
310
430C000000010000000AD7A3703D0AB73F000000000000F03F0000000000000000000000000000F03F0000000000000000000000000000000000000000726F6D616E732E7368780073007800000C00000010000000070000000C00000016000000000000C00C00000012000000FF7F00000C00000013000000010000000C00
310
00001400000001000000540000000700000003000000971DF33506020D4067319D0F57320440000000000000000010519D70702C0C40D0F3C31BA0B204400000000000000000CDE95BCE15200D40F3EC75958B7E044000000000000000000C00000013000000891300003C0000000600000002000000B28327020E110D402D
310
8F89527158044000000000000000009003F6D26FBF0F40E05EC2E0AE49034000000000000000000C00000013000000112700003C00000006000000020000009003F6D26FBF0F40E05EC2E0AE490340000000000000000052504CE4D82E1940E05EC2E0AE49034000000000000000000C00000016000000000000C00C000000
310
12000000FF7F00000C00000017000000000000000C000000130000009A3A00000C00000016000000000000C00C00000012000000FF7F00000C00000017000000FFFFFFFF
100
AcDbMLeader
300
CONTEXT_DATA{
 40
1.0
 10
6.295749251516172
 20
2.410978084499092
 30
0.0
 41
0.09
140
0.12
145
0.09
174
     1
175
     1
176
     0
177
     0
290
     1
304
{\Fromans|c0;EDGE OF TURF}
 11
0.0
 21
0.0
 31
1.0
340
225A
 12
6.385749251516172
 22
2.464978084499092
 32
0.0
 13
1.0
 23
0.0
 33
0.0
 42
0.0
 43
0.0
 44
0.0
 45
1.0
170
     1
 90
-1073741824
171
     1
172
     5
 91
-1073741824
141
0.0
 92
        0
291
     0
292
     0
173
     0
293
     0
142
0.0
143
0.0
294
     0
295
     0
296
     0
110
3.331653603872055
120
2.028413015081568
130
0.0
111
1.0
121
0.0
131
0.0
112
0.0
122
1.0
132
0.0
297
     0
302
LEADER{
290
     1
291
     1
 10
3.968475006230114
 20
2.410978084499092
 30
0.0
 11
1.0
 21
0.0
 31
0.0
 90
        0
 40
2.327274245286056
304
LEADER_LINE{
 10
3.521698837090418
 20
2.587219445149891
 30
0.0
 91
        0
305
}
303
}
301
}
340
225B
 90
   279680
170
     1
 91
-1056964608
341
14
171
    -2
290
     1
291
     1
 41
0.36
 42
0.12
172
     2
343
225A
173
     1
 95
        1
174
     1
175
     0
 92
-1056964608
292
     0
 93
-1056964608
 10
1.0
 20
1.0
 30
1.0
 43
0.0
176
     0
293
     0
294
     0
178
     0
179
     1
 45
1.0
1001
ACAD_MLEADERVER
1070
     2
  0
LWPOLYLINE
  5
2866
330
1F
100
AcDbEntity
  8
NETAFIM-L-DETL-025M-TUBING
100
AcDbPolyline
 90
        5
 70
     0
 43
0.0
 10
2.634400915455377
 20
5.078294019060036
 10
2.465561281434411
 20
4.788987589538031
 42
0.073748092949538
 10
2.376447337445135
 20
4.566550104578624
 42
0.1363922319784538
 10
2.382180240704919
 20
4.41290965939349
 42
0.0832859831779298
 10
2.480262245095524
 20
4.222000219869972
 42
0.1113073269125043
  0
LWPOLYLINE
  5
2867
330
1F
100
AcDbEntity
  8
NETAFIM-L-DETL-025M-TUBING
100
AcDbPolyline
 90
        5
 70
     0
 43
0.0
 10
2.670676963379509
 20
5.060112731768582
 10
2.500535921048125
 20
4.768576341291161
 42
0.0737480929495628
 10
2.415840443655689
 20
4.557167799201973
 42
0.1363922319783022
 10
2.420764599317969
 20
4.425201597463018
 42
0.0761461392413875
 10
2.502602771479622
 20
4.260190567050607
 42
0.4340274526855016
  0
ARC
  5
2868
330
1F
100
AcDbEntity
  8
NETAFIM-L-DETL-025M-TUBING
100
AcDbCircle
 10
3.547139344600264
 20
6.370054030348354
 30
0.0
 40
1.160859690447684
100
AcDbArc
 50
204.7105521370038
 51
218.5010185260698
  0
ARC
  5
2869
330
1F
100
AcDbEntity
  8
NETAFIM-L-DETL-025M-TUBING
100
AcDbCircle
 10
3.547139344600264
 20
6.370054030348354
 30
0.0
 40
1.199724731050135
100
AcDbArc
 50
204.4195385718579
 51
218.0715144489815
  0
ARC
  5
286A
330
1F
100
AcDbEntity
  8
NETAFIM-L-DETL-025M-TUBING
100
AcDbCircle
 10
3.547139344600264
 20
6.370054030348354
 30
0.0
 40
1.199724731050135
100
AcDbArc
 50
220.0240110525873
 51
233.4503510168906
  0
ARC
  5
286B
330
1F
100
AcDbEntity
  8
NETAFIM-L-DETL-025M-TUBING
100
AcDbCircle
 10
3.547139344600264
 20
6.370054030348354
 30
0.0
 40
1.160859690447684
100
AcDbArc
 50
220.4599851802256
 51
247.7814899125525
  0
ARC
  5
286C
330
1F
100
AcDbEntity
  8
NETAFIM-L-DETL-025M-TUBING
100
AcDbCircle
 10
3.547139344600264
 20
6.370054030348354
 30
0.0
 40
1.199724731050135
100
AcDbArc
 50
235.3093712478167
 51
247.5171434247434
  0
LWPOLYLINE
  5
286D
330
1F
100
AcDbEntity
  8
NETAFIM-L-DETL-025M-TUBING
100
AcDbPolyline
 90
        2
 70
     0
 43
0.0
 10
2.832680309280743
 20
5.406265818580076
 10
2.771820782254883
 20
5.310552870957934
  0
LWPOLYLINE
  5
286E
330
1F
100
AcDbEntity
  8
NETAFIM-L-DETL-025M-TUBING
100
AcDbPolyline
 90
        2
 70
     0
 43
0.0
 10
2.864321956575633
 20
5.383595797626538
 10
2.803965405235002
 20
5.288673873000387
  0
TEXT
  5
286F
330
1F
100
AcDbEntity
  8
NETAFIM-D-TEXT-025M
  6
Continuous
100
AcDbText
 10
2.621765394625978
 20
5.14101384213448
 30
0.0
 40
0.09375
  1
AR
  7
DETAIL TEXT
100
AcDbText
  0
ARC
  5
2870
330
1F
100
AcDbEntity
  8
NETAFIM-L-DETL-035M
100
AcDbCircle
 10
2.712510846849962
 20
5.18886177766322
 30
0.0
 40
0.1353749999999956
100
AcDbArc
 50
115.7874585180343
 51
115.2427796455034
  0
MULTILEADER
  5
2877
330
1F
100
AcDbEntity
  8
NETAFIM-L-DETL-TEXT-LEADER-025M
 92
      756
310
F4020000150000000C00000016000000000000C00C00000013000000993A0000B00000000B000000CE15A4609E8619403671BDFDF1A31240000000000000000000000000000000000000000000000000000000000000F03F000000000000F03F000000000000000000000000000000004149522F56414355554D2052454C49
310
454600000011000000010000000AD7A3703D0AB73F000000000000F03F0000000000000000000000000000F03F0000000000000000000000000000000000000000726F6D616E732E736878000000000000B00000000B000000CE15A4609E861940DC434E719101124000000000000000000000000000000000000000000000
310
0000000000000000F03F000000000000F03F0000000000000000000000000000000056414C5645204154204849474820504F494E540013000000010000000AD7A3703D0AB73F000000000000F03F0000000000000000000000000000F03F0000000000000000000000000000000000000000726F6D616E732E736878000000
310
0000000C00000010000000070000000C00000016000000000000C00C00000012000000FF7F00000C00000013000000010000000C000000140000000100000054000000070000000300000086362AEBFA7907406002198C294014400000000000000000BABCC58B53940640175EBE837870144000000000000000004479C0D2
310
E68C074092F1A0C40368144000000000000000000C00000013000000891300003C0000000600000002000000E557F5DE70830740F9F95CA8165414400000000000000000701DF0A5FFF61140A34C746BCDDA124000000000000000000C00000013000000112700003C0000000600000002000000701DF0A5FFF61140A34C74
310
6BCDDA1240000000000000000052504CE4D82E1940A34C746BCDDA124000000000000000000C00000016000000000000C00C00000012000000FF7F00000C00000017000000000000000C000000130000009A3A00000C00000016000000000000C00C00000012000000FF7F00000C00000017000000FFFFFFFF
100
AcDbMLeader
300
CONTEXT_DATA{
 40
1.0
 10
6.295749251516172
 20
4.713674239133214
 30
0.0
 41
0.09
140
0.12
145
0.09
174
     1
175
     1
176
     0
177
     0
290
     1
304
\A1;{\Fromans|c0;AIR/VACUUM RELIEF VALVE AT HIGH POINT}
 11
0.0
 21
0.0
 31
1.0
340
225A
 12
6.385749251516172
 22
4.758674239133214
 32
0.0
 13
1.0
 23
0.0
 33
0.0
 42
0.0
 43
1.820115771397553
 44
0.0
 45
1.0
170
     1
 90
-1073741824
171
     1
172
     5
 91
-1073741824
141
0.0
 92
        0
291
     0
292
     0
173
     0
293
     0
142
0.0
143
0.0
294
     0
295
     0
296
     0
110
3.331653603872057
120
4.462581363594999
130
0.0
111
1.0
121
0.0
131
0.0
112
0.0
122
1.0
132
0.0
297
     0
302
LEADER{
290
     1
291
     1
 10
4.491209595470863
 20
4.713674239133214
 30
0.0
 11
1.0
 21
0.0
 31
0.0
 90
        0
 40
1.804539656045309
304
LEADER_LINE{
 10
2.822424976322136
 20
5.10983472680484
 30
0.0
 91
        0
305
}
303
}
301
}
340
225B
 90
   279680
170
     1
 91
-1056964608
341
14
171
    -2
290
     1
291
     1
 41
0.36
 42
0.12
172
     2
343
225A
173
     1
 95
        1
174
     1
175
     0
 92
-1056964608
292
     0
 93
-1056964608
 10
1.0
 20
1.0
 30
1.0
 43
0.0
176
     0
293
     0
294
     0
178
   256
179
     1
 45
1.0
1001
ACAD_MLEADERVER
1070
     2
  0
INSERT
  5
2900
330
1F
100
AcDbEntity
  8
0
100
AcDbBlockReference
  2
LIMITATIONS
 10
0.0
 20
0.0
 30
0.0
  0
ENDSEC
  0
SECTION
  2
OBJECTS
  0
DICTIONARY
  5
C
330
0
100
AcDbDictionary
281
     1
  3
ACAD_CIP_PREVIOUS_PRODUCT_INFO
350
28A5
  3
ACAD_COLOR
350
73
  3
ACAD_GROUP
350
D
  3
ACAD_LAYOUT
350
1A
  3
ACAD_MATERIAL
350
72
  3
ACAD_MLEADERSTYLE
350
D7
  3
ACAD_MLINESTYLE
350
17
  3
ACAD_PLOTSETTINGS
350
19
  3
ACAD_PLOTSTYLENAME
350
E
  3
ACAD_SCALELIST
350
B6
  3
ACAD_TABLESTYLE
350
86
  3
ACAD_VISUALSTYLE
350
99
  3
ACDB_RECOMPOSE_DATA
350
29BB
  3
AcDbVariableDictionary
350
66
  3
ADE_QUERY_LIBRARY
350
18F
  3
AEC_PROPERTY_SET_DEFS
350
28FF
  3
ASE_INDEX_DICTIONARY
350
1FA
  3
Autodesk_MAP
350
179
1001
ADE
1000
ADE02C004
1000
[Query]
1000
CaseSensitiveMatch=0
1000
SaveCurrQueryInSession=1
1000
MkSelSetWithQryObj=0
1000
ShowBlockAsInsPt=0
1000
CreateAssociativeHatchObjects=0
1000
ReferenceBoundaryForAreaLocation=1
1000
ShowImageAsBoundary=1
1000
DefaultJoinOperator=2
1000
ColorForAdd=red
1000
ColorForRemove=red
1000
BlockLocnForQuery=1
1000
TextLocnForQuery=1
1000
IncludeAllObjectsInGroups=0
1000
AlwaysUseLibraryDefinitions=0
1000
PreviewDefinitionsFrom=2
1000
[Save Back]
1000
RedefineBlockDefinitions=1
1000
RedefineLayerDefinitions=1
1000
RedefineTextStyleDefinitions=1
1000
RemoveUnusedGroups=1
1000
EraseSavedBackObjects=1
1000
RemoveLockAfterSave=1
1000
CreateHistoryFileOfChanges=0
1000
CreateBackupFileOfSourceDwg=1
1000
DontAddObjectsToSaveSet=0
1000
MarkObjectsForEditingWithoutPrompting=0
1000
FdoDontAddObjsToSvSet=0
1000
FdoEditWithoutPrompt=1
1000
FdoRemUnusedGrps=1
1000
FdoEraseSvdBkObjs=1
1000
FdoRemoveLockOnSave=1
1000
FdoTesselationMaxPointsDistance=0
1000
FdoTesselationMaxCurvesDistance=0
1000
[Coordinate Transformation]
1000
RestoreLastActiveDwgsOnStartup=1
1000
ActivateDwgsOnAttach=1
1000
AdjustSizesAndScalesForChangesInUnits=1
1000
AdjustRotationsForMapDistortions=1
1000
AdjustSizesAndScalesForMapDistortions=1
1000
AdjustElevations=1
1000
AdjustZeroRotationObjects=1
1000
ReconnectDbOnWSOpen=1
1000
NoOfSQLConditionsInHistory=10
  0
DICTIONARY
  5
2943
330
8
100
AcDbDictionary
280
     1
281
     1
  0
DICTIONARY
  5
20C
330
2
100
AcDbDictionary
280
     1
281
     1
  3
ACAD_LAYERSTATES
360
20D
  0
DICTIONARY
  5
E6
330
10
100
AcDbDictionary
280
     1
281
     1
  0
DICTIONARY
  5
224C
330
224B
100
AcDbDictionary
280
     1
281
     1
  0
DICTIONARY
  5
224E
330
224D
100
AcDbDictionary
280
     1
281
     1
  0
DICTIONARY
  5
2250
330
224F
100
AcDbDictionary
280
     1
281
     1
  0
DICTIONARY
  5
2255
330
2254
100
AcDbDictionary
280
     1
281
     1
  0
DICTIONARY
  5
15D
330
1F
100
AcDbDictionary
280
     1
281
     1
  3
ACAD_GEOGRAPHICDATA
360
18D
  3
ACAD_SORTENTS
360
188
  0
DICTIONARY
  5
28FB
330
28F8
100
AcDbDictionary
280
     1
281
     1
  3
ACAD_SORTENTS
360
28FC
  0
XRECORD
  5
28A5
102
{ACAD_REACTORS
330
C
102
}
330
C
100
AcDbXrecord
280
     1
300
MAP
300
2012
300
MAP_F_S
  0
DICTIONARY
  5
73
102
{ACAD_REACTORS
330
C
102
}
330
C
100
AcDbDictionary
281
     1
  0
DICTIONARY
  5
D
102
{ACAD_REACTORS
330
C
102
}
330
C
100
AcDbDictionary
281
     1
  0
DICTIONARY
  5
1A
102
{ACAD_REACTORS
330
C
102
}
330
C
100
AcDbDictionary
281
     1
  3
Layout1
350
59
  3
Layout2
350
5E
  3
Model
350
22
  0
DICTIONARY
  5
72
102
{ACAD_REACTORS
330
C
102
}
330
C
100
AcDbDictionary
281
     1
  3
ByBlock
350
97
  3
ByLayer
350
96
  3
Global
350
98
  0
DICTIONARY
  5
D7
102
{ACAD_REACTORS
330
C
102
}
330
C
100
AcDbDictionary
281
     1
  3
Netafim Detail
350
225B
  3
Standard
350
D8
  0
DICTIONARY
  5
17
102
{ACAD_REACTORS
330
C
102
}
330
C
100
AcDbDictionary
281
     1
  3
Standard
350
18
  0
DICTIONARY
  5
19
102
{ACAD_REACTORS
330
C
102
}
330
C
100
AcDbDictionary
281
     1
  0
ACDBDICTIONARYWDFLT
  5
E
102
{ACAD_REACTORS
330
C
102
}
330
C
100
AcDbDictionary
281
     1
  3
Normal
350
F
100
AcDbDictionaryWithDefault
340
F
  0
DICTIONARY
  5
B6
102
{ACAD_REACTORS
330
C
102
}
330
C
100
AcDbDictionary
281
     1
  3
A0
350
B7
  3
A1
350
124
  3
A2
350
125
  3
A3
350
126
  3
A4
350
127
  3
A5
350
128
  3
A6
350
129
  3
A7
350
12A
  3
A8
350
12B
  3
A9
350
12C
  3
B0
350
12D
  3
B1
350
12E
  3
B2
350
12F
  3
B3
350
130
  3
B4
350
131
  3
B5
350
132
  3
B6
350
133
  3
B7
350
134
  3
B8
350
135
  3
B9
350
136
  3
C0
350
137
  3
C1
350
138
  3
C2
350
139
  3
C3
350
13A
  3
C4
350
13B
  3
C5
350
13C
  3
C6
350
13D
  3
C7
350
13E
  3
C8
350
13F
  3
C9
350
140
  3
D0
350
141
  3
D1
350
142
  3
D2
350
143
  0
DICTIONARY
  5
86
102
{ACAD_REACTORS
330
C
102
}
330
C
100
AcDbDictionary
281
     1
  3
Legend
350
181
  3
Standard
350
87
  0
DICTIONARY
  5
99
102
{ACAD_REACTORS
330
C
102
}
330
C
100
AcDbDictionary
281
     1
  3
2dWireframe
350
9F
  3
3D Hidden
350
A1
  3
3dWireframe
350
A0
  3
Basic
350
9E
  3
Brighten
350
A5
  3
ColorChange
350
A9
  3
Conceptual
350
A2
  3
Dim
350
A4
  3
EdgeColorOff
350
175
  3
Facepattern
350
A8
  3
Flat
350
9A
  3
FlatWithEdges
350
9B
  3
Gouraud
350
9C
  3
GouraudWithEdges
350
9D
  3
Hidden
350
1AE
  3
JitterOff
350
173
  3
Linepattern
350
A7
  3
OverhangOff
350
174
  3
Realistic
350
A3
  3
Shaded
350
1B1
  3
Shaded with edges
350
1B4
  3
Shades of Gray
350
1B7
  3
Sketchy
350
1BA
  3
Thicken
350
A6
  3
Wireframe
350
1BD
  3
X-Ray
350
1C0
  0
XRECORD
  5
29BB
102
{ACAD_REACTORS
330
C
102
}
330
C
100
AcDbXrecord
280
     1
 90
        1
330
87
330
181
330
28F9
  0
DICTIONARY
  5
66
102
{ACAD_REACTORS
330
C
102
}
330
C
100
AcDbDictionary
281
     1
  3
CANNOSCALE
350
F0
  3
CMLEADERSTYLE
350
EF
  3
CTABLESTYLE
350
89
  3
DIMASSOC
350
67
  3
EXPORTMODELSPACE
350
291F
  3
HIDETEXT
350
6B
  3
LAYEREVAL
350
14D
  3
LAYERNOTIFY
350
14E
  3
LIGHTINGUNITS
350
BA3
  3
MSLTSCALE
350
2972
  3
STEPSIZE
350
2973
  3
XCLIPFRAME
350
2980
  0
DICTIONARY
  5
18F
102
{ACAD_REACTORS
330
C
102
}
330
C
100
AcDbDictionary
281
     1
  3
_CurrQry
350
29B1
  0
DICTIONARY
  5
28FF
102
{ACAD_REACTORS
330
C
102
}
330
C
100
AcDbDictionary
281
     1
  0
DICTIONARY
  5
1FA
102
{ACAD_REACTORS
330
C
102
}
330
C
100
AcDbDictionary
281
     1
  3
ASEBlockHierarchyIndexRecord
350
1FB
1001
DCO15
1040
1758261536.623
  0
DICTIONARY
  5
179
102
{ACAD_REACTORS
330
C
102
}
330
C
100
AcDbDictionary
281
     1
  3
AcMapDMStylizedEntities
350
189
  3
FSD_Dictionary
350
18A
  3
MAP_DISPLAY_CUSTOMOBJ_REG_TABLE
350
17D
  3
MAP_DISPLAY_MANAGEMENT_DICTIONARY
350
17A
  3
MAP_DISPLAY_STYLELIBRARY_DICTIONARY
350
17B
  3
MAP_RESOURCE_VERSION_MANAGEMENT_DICTIONARY
350
17E
1001
MapGWS
1000
D:\ProgramData\Autodesk\AutoCAD Map 3D 2010\R18.0\MapCache\A106-Techline_USED_AS_PERIMETER_TRIMGWS1344881031.xml
  0
DICTIONARY
  5
20D
102
{ACAD_REACTORS
330
20C
102
}
330
20C
100
AcDbDictionary
281
     1
  0
GEODATA
  5
18D
102
{ACAD_REACTORS
330
15D
102
}
330
15D
100
AcDbGeoData
 90
        1
 70
     0
330
1F
 40
37.795
 41
-122.394
 42
0.0
 91
        6
 10
0.0
 20
0.0
 30
0.0
 11
0.0
 21
0.0
 31
0.0
210
0.0
220
0.0
230
1.0
 52
0.0
 43
1.0
 44
1.0
 45
1.0
301

302
<georss:point>37.7950 -122.3940</georss:point>
 46
1.0
303

304

305

306

307

 93
        0
 96
        0
  3
CIVIL3D_DATA_BEGIN
292
     0
 14
-122.394
 24
37.795
 15
-122.394
 25
37.795
 93
        0
 94
        0
293
     0
 16
0.0
 26
0.0
 17
0.0
 27
0.0
 54
0.0
140
0.0
 95
        3
141
1.0
294
     0
142
0.0
143
0.0
  4
CIVIL3D_DATA_END
  0
SORTENTSTABLE
  5
188
102
{ACAD_REACTORS
330
15D
102
}
330
15D
100
AcDbSortentsTable
330
1F
331
2615
  5
2615
331
2624
  5
2624
331
260F
  5
260F
331
2609
  5
2609
331
25FA
  5
25FA
331
25F4
  5
25F4
331
2603
  5
2603
331
25DF
  5
25DF
331
25EE
  5
25EE
331
25D9
  5
25D9
331
25E8
  5
25E8
331
25E2
  5
25E2
331
25D3
  5
25D3
331
2637
  5
2637
331
263E
  5
263E
331
2631
  5
2631
331
2638
  5
2638
331
261C
  5
261C
331
262B
  5
262B
331
2616
  5
2616
331
2625
  5
2625
331
2610
  5
2610
331
25FB
  5
25FB
331
260A
  5
260A
331
25F5
  5
25F5
331
2604
  5
2604
331
25EF
  5
25EF
331
25DA
  5
25DA
331
25E9
  5
25E9
331
25E3
  5
25E3
331
25D4
  5
25D4
331
263F
  5
263F
331
2639
  5
2639
331
2632
  5
2632
331
261D
  5
261D
331
262C
  5
262C
331
2617
  5
2617
331
2626
  5
2626
331
2620
  5
2620
331
2611
  5
2611
331
25FC
  5
25FC
331
260B
  5
260B
331
25F6
  5
25F6
331
2605
  5
2605
331
25F0
  5
25F0
331
25DB
  5
25DB
331
25EA
  5
25EA
331
25E4
  5
25E4
331
2640
  5
2640
331
25D5
  5
25D5
331
2633
  5
2633
331
263A
  5
263A
331
261E
  5
261E
331
262D
  5
262D
331
2627
  5
2627
331
2618
  5
2618
331
2612
  5
2612
331
2621
  5
2621
331
25FD
  5
25FD
331
260C
  5
260C
331
25F7
  5
25F7
331
2606
  5
2606
331
25F1
  5
25F1
331
2600
  5
2600
331
25EB
  5
25EB
331
25DC
  5
25DC
331
25D6
  5
25D6
331
25E5
  5
25E5
331
2634
  5
2634
331
263B
  5
263B
331
262E
  5
262E
331
261F
  5
261F
331
2619
  5
2619
331
2628
  5
2628
331
2613
  5
2613
331
2622
  5
2622
331
25FE
  5
25FE
331
260D
  5
260D
331
25F8
  5
25F8
331
2607
  5
2607
331
25F2
  5
25F2
331
2601
  5
2601
331
25DD
  5
25DD
331
25EC
  5
25EC
331
25D7
  5
25D7
331
25E6
  5
25E6
331
25E0
  5
25E0
331
2635
  5
2635
331
263C
  5
263C
331
262F
  5
262F
331
261A
  5
261A
331
2629
  5
2629
331
2614
  5
2614
331
2623
  5
2623
331
25FF
  5
25FF
331
260E
  5
260E
331
25F9
  5
25F9
331
2608
  5
2608
331
2602
  5
2602
331
25F3
  5
25F3
331
25DE
  5
25DE
331
25ED
  5
25ED
331
25D8
  5
25D8
331
25E7
  5
25E7
331
263D
  5
263D
331
2636
  5
2636
331
25E1
  5
25E1
331
2630
  5
2630
331
261B
  5
261B
331
262A
  5
262A
  0
SORTENTSTABLE
  5
28FC
102
{ACAD_REACTORS
330
28FB
102
}
330
28FB
100
AcDbSortentsTable
330
28F8
  0
LAYOUT
  5
59
102
{ACAD_REACTORS
330
1A
102
}
330
1A
100
AcDbPlotSettings
  1

  2
None
  4

  6

 40
0.0
 41
0.0
 42
0.0
 43
0.0
 44
0.0
 45
0.0
 46
0.0
 47
0.0
 48
0.0
 49
0.0
140
0.0
141
0.0
142
1.0
143
1.0
 70
   688
 72
     0
 73
     0
 74
     5
  7
NETAFIM.ctb
 75
    16
147
1.0
 76
     0
 77
     2
 78
   300
148
0.0
149
0.0
100
AcDbLayout
  1
Layout1
 70
     1
 71
     1
 10
0.0
 20
0.0
 11
12.0
 21
9.0
 12
0.0
 22
0.0
 32
0.0
 14
0.0
 24
0.0
 34
0.0
 15
0.0
 25
0.0
 35
0.0
146
0.0
 13
0.0
 23
0.0
 33
0.0
 16
1.0
 26
0.0
 36
0.0
 17
0.0
 27
1.0
 37
0.0
 76
     0
330
58
  0
LAYOUT
  5
5E
102
{ACAD_REACTORS
330
1A
102
}
330
1A
100
AcDbPlotSettings
  1

  2
None
  4

  6

 40
0.0
 41
0.0
 42
0.0
 43
0.0
 44
0.0
 45
0.0
 46
0.0
 47
0.0
 48
0.0
 49
0.0
140
0.0
141
0.0
142
1.0
143
1.0
 70
   688
 72
     0
 73
     0
 74
     5
  7
NETAFIM.ctb
 75
    16
147
1.0
 76
     0
 77
     2
 78
   300
148
0.0
149
0.0
100
AcDbLayout
  1
Layout2
 70
     1
 71
     2
 10
0.0
 20
0.0
 11
12.0
 21
9.0
 12
0.0
 22
0.0
 32
0.0
 14
0.0
 24
0.0
 34
0.0
 15
0.0
 25
0.0
 35
0.0
146
0.0
 13
0.0
 23
0.0
 33
0.0
 16
1.0
 26
0.0
 36
0.0
 17
0.0
 27
1.0
 37
0.0
 76
     0
330
5D
  0
LAYOUT
  5
22
102
{ACAD_XDICTIONARY
360
999
102
}
102
{ACAD_REACTORS
330
1A
102
}
330
1A
100
AcDbPlotSettings
  1

  2
Adobe PDF
  4
Letter
  6

 40
3.174999952316284
 41
3.174999952316284
 42
3.175003051757812
 43
3.17498779296875
 44
215.8999938964844
 45
279.3999938964844
 46
14.27860520870411
 47
14.06015838941741
 48
0.0
 49
0.0
140
0.0
141
0.0
142
1.0
143
1.0
 70
 11940
 72
     0
 73
     1
 74
     1
  7
NETAFIM.ctb
 75
     0
147
1.114737927278722
 76
     0
 77
     2
 78
   300
148
0.0039745695764672
149
0.0017126121860294
100
AcDbLayout
  1
Model
 70
     1
 71
     0
 10
0.0
 20
0.0
 11
12.0
 21
9.0
 12
0.0
 22
0.0
 32
0.0
 14
0.0
 24
0.0
 34
0.0
 15
0.0
 25
0.0
 35
0.0
146
0.0
 13
0.0
 23
0.0
 33
0.0
 16
1.0
 26
0.0
 36
0.0
 17
0.0
 27
1.0
 37
0.0
 76
     0
330
1F
331
94
1001
ACAD_PSEXT
1000
Adobe PDF
1000
Adobe PDF Converter
1000
Documents\*.pdf
1000

1070
     0
  0
MATERIAL
  5
97
102
{ACAD_XDICTIONARY
360
29BF
102
}
102
{ACAD_REACTORS
330
72
102
}
330
72
100
AcDbMaterial
  1
ByBlock
  0
MATERIAL
  5
96
102
{ACAD_XDICTIONARY
360
29BD
102
}
102
{ACAD_REACTORS
330
72
102
}
330
72
100
AcDbMaterial
  1
ByLayer
  0
MATERIAL
  5
98
102
{ACAD_XDICTIONARY
360
110
102
}
102
{ACAD_REACTORS
330
72
102
}
330
72
100
AcDbMaterial
  1
Global
 43
0.0208000000566244
 43
0.0
 43
0.0
 43
0.0
 43
0.0
 43
0.0208000000566244
 43
0.0
 43
0.0
 43
0.0
 43
0.0
 43
1.0
 43
0.0
 43
0.0
 43
0.0
 43
0.0
 43
1.0
 49
0.0208000000566244
 49
0.0
 49
0.0
 49
0.0
 49
0.0
 49
0.0208000000566244
 49
0.0
 49
0.0
 49
0.0
 49
0.0
 49
1.0
 49
0.0
 49
0.0
 49
0.0
 49
0.0
 49
1.0
142
0.0208000000566244
142
0.0
142
0.0
142
0.0
142
0.0
142
0.0208000000566244
142
0.0
142
0.0
142
0.0
142
0.0
142
1.0
142
0.0
142
0.0
142
0.0
142
0.0
142
1.0
144
0.0208000000566244
144
0.0
144
0.0
144
0.0
144
0.0
144
0.0208000000566244
144
0.0
144
0.0
144
0.0
144
0.0
144
1.0
144
0.0
144
0.0
144
0.0
144
0.0
144
1.0
1001
ACAD
1070
    -1
1070
     3
1070
     0
1000

1071
        0
1070
     0
  0
MLEADERSTYLE
  5
225B
102
{ACAD_REACTORS
330
D7
330
263A
330
263B
330
263C
330
263D
330
263E
330
263F
330
2640
330
27C2
330
27CA
330
2877
102
}
330
D7
100
AcDbMLeaderStyle
170
     2
171
     1
172
     0
 90
        2
 40
0.0
 41
0.0
173
     1
 91
-1056964608
340
14
 92
       -2
290
     1
 42
0.09
291
     1
 43
0.36
  3
Standard
 44
0.12
300

342
225A
174
     1
178
     1
175
     1
176
     0
 93
-1056964608
 45
0.09
292
     0
297
     0
 46
0.18
 94
-1056964608
 47
1.0
 49
1.0
140
1.0
293
     1
141
0.0
294
     1
177
     0
142
1.0
295
     0
296
     0
143
0.125
1001
ACAD_MLEADERVER
1070
     2
  0
MLEADERSTYLE
  5
D8
102
{ACAD_REACTORS
330
D7
102
}
330
D7
100
AcDbMLeaderStyle
170
     2
171
     1
172
     0
 90
        2
 40
0.0
 41
0.0
173
     1
 91
-1056964608
340
14
 92
       -2
290
     1
 42
0.09
291
     1
 43
0.36
  3
Standard
 44
0.18
300

342
11
174
     1
178
     1
175
     1
176
     0
 93
-1056964608
 45
0.18
292
     0
297
     0
 46
0.18
 94
-1056964608
 47
1.0
 49
1.0
140
1.0
293
     1
141
0.0
294
     1
177
     0
142
1.0
295
     0
296
     0
143
0.125
1001
ACAD_MLEADERVER
1070
     2
  0
MLINESTYLE
  5
18
102
{ACAD_REACTORS
330
17
102
}
330
17
100
AcDbMlineStyle
  2
STANDARD
 70
     0
  3

 62
   256
 51
90.0
 52
90.0
 71
     2
 49
0.5
 62
   256
  6
BYLAYER
 49
-0.5
 62
   256
  6
BYLAYER
  0
ACDBPLACEHOLDER
  5
F
102
{ACAD_REACTORS
330
E
102
}
330
E
  0
SCALE
  5
B7
102
{ACAD_REACTORS
330
B6
102
}
330
B6
100
AcDbScale
 70
     0
300
1:1
140
1.0
141
1.0
290
     1
  0
SCALE
  5
124
102
{ACAD_REACTORS
330
B6
102
}
330
B6
100
AcDbScale
 70
     0
300
1:2
140
1.0
141
2.0
290
     0
  0
SCALE
  5
125
102
{ACAD_REACTORS
330
B6
102
}
330
B6
100
AcDbScale
 70
     0
300
1:4
140
1.0
141
4.0
290
     0
  0
SCALE
  5
126
102
{ACAD_REACTORS
330
B6
102
}
330
B6
100
AcDbScale
 70
     0
300
1:5
140
1.0
141
5.0
290
     0
  0
SCALE
  5
127
102
{ACAD_REACTORS
330
B6
102
}
330
B6
100
AcDbScale
 70
     0
300
1:8
140
1.0
141
8.0
290
     0
  0
SCALE
  5
128
102
{ACAD_REACTORS
330
B6
102
}
330
B6
100
AcDbScale
 70
     0
300
1:10
140
1.0
141
10.0
290
     0
  0
SCALE
  5
129
102
{ACAD_REACTORS
330
B6
102
}
330
B6
100
AcDbScale
 70
     0
300
1:16
140
1.0
141
16.0
290
     0
  0
SCALE
  5
12A
102
{ACAD_REACTORS
330
B6
102
}
330
B6
100
AcDbScale
 70
     0
300
1:20
140
1.0
141
20.0
290
     0
  0
SCALE
  5
12B
102
{ACAD_REACTORS
330
B6
102
}
330
B6
100
AcDbScale
 70
     0
300
1:30
140
1.0
141
30.0
290
     0
  0
SCALE
  5
12C
102
{ACAD_REACTORS
330
B6
102
}
330
B6
100
AcDbScale
 70
     0
300
1:40
140
1.0
141
40.0
290
     0
  0
SCALE
  5
12D
102
{ACAD_REACTORS
330
B6
102
}
330
B6
100
AcDbScale
 70
     0
300
1:50
140
1.0
141
50.0
290
     0
  0
SCALE
  5
12E
102
{ACAD_REACTORS
330
B6
102
}
330
B6
100
AcDbScale
 70
     0
300
1:100
140
1.0
141
100.0
290
     0
  0
SCALE
  5
12F
102
{ACAD_REACTORS
330
B6
102
}
330
B6
100
AcDbScale
 70
     0
300
2:1
140
2.0
141
1.0
290
     0
  0
SCALE
  5
130
102
{ACAD_REACTORS
330
B6
102
}
330
B6
100
AcDbScale
 70
     0
300
4:1
140
4.0
141
1.0
290
     0
  0
SCALE
  5
131
102
{ACAD_REACTORS
330
B6
102
}
330
B6
100
AcDbScale
 70
     0
300
8:1
140
8.0
141
1.0
290
     0
  0
SCALE
  5
132
102
{ACAD_REACTORS
330
B6
102
}
330
B6
100
AcDbScale
 70
     0
300
10:1
140
10.0
141
1.0
290
     0
  0
SCALE
  5
133
102
{ACAD_REACTORS
330
B6
102
}
330
B6
100
AcDbScale
 70
     0
300
100:1
140
100.0
141
1.0
290
     0
  0
SCALE
  5
134
102
{ACAD_REACTORS
330
B6
102
}
330
B6
100
AcDbScale
 70
     0
300
1/128" = 1'-0"
140
0.0078125
141
12.0
290
     0
  0
SCALE
  5
135
102
{ACAD_REACTORS
330
B6
102
}
330
B6
100
AcDbScale
 70
     0
300
1/64" = 1'-0"
140
0.015625
141
12.0
290
     0
  0
SCALE
  5
136
102
{ACAD_REACTORS
330
B6
102
}
330
B6
100
AcDbScale
 70
     0
300
1/32" = 1'-0"
140
0.03125
141
12.0
290
     0
  0
SCALE
  5
137
102
{ACAD_REACTORS
330
B6
102
}
330
B6
100
AcDbScale
 70
     0
300
1/16" = 1'-0"
140
0.0625
141
12.0
290
     0
  0
SCALE
  5
138
102
{ACAD_REACTORS
330
B6
102
}
330
B6
100
AcDbScale
 70
     0
300
3/32" = 1'-0"
140
0.09375
141
12.0
290
     0
  0
SCALE
  5
139
102
{ACAD_REACTORS
330
B6
102
}
330
B6
100
AcDbScale
 70
     0
300
1/8" = 1'-0"
140
0.125
141
12.0
290
     0
  0
SCALE
  5
13A
102
{ACAD_REACTORS
330
B6
102
}
330
B6
100
AcDbScale
 70
     0
300
3/16" = 1'-0"
140
0.1875
141
12.0
290
     0
  0
SCALE
  5
13B
102
{ACAD_REACTORS
330
B6
102
}
330
B6
100
AcDbScale
 70
     0
300
1/4" = 1'-0"
140
0.25
141
12.0
290
     0
  0
SCALE
  5
13C
102
{ACAD_REACTORS
330
B6
102
}
330
B6
100
AcDbScale
 70
     0
300
3/8" = 1'-0"
140
0.375
141
12.0
290
     0
  0
SCALE
  5
13D
102
{ACAD_REACTORS
330
B6
102
}
330
B6
100
AcDbScale
 70
     0
300
1/2" = 1'-0"
140
0.5
141
12.0
290
     0
  0
SCALE
  5
13E
102
{ACAD_REACTORS
330
B6
102
}
330
B6
100
AcDbScale
 70
     0
300
3/4" = 1'-0"
140
0.75
141
12.0
290
     0
  0
SCALE
  5
13F
102
{ACAD_REACTORS
330
B6
102
}
330
B6
100
AcDbScale
 70
     0
300
1" = 1'-0"
140
1.0
141
12.0
290
     0
  0
SCALE
  5
140
102
{ACAD_REACTORS
330
B6
102
}
330
B6
100
AcDbScale
 70
     0
300
1-1/2" = 1'-0"
140
1.5
141
12.0
290
     0
  0
SCALE
  5
141
102
{ACAD_REACTORS
330
B6
102
}
330
B6
100
AcDbScale
 70
     0
300
3" = 1'-0"
140
3.0
141
12.0
290
     0
  0
SCALE
  5
142
102
{ACAD_REACTORS
330
B6
102
}
330
B6
100
AcDbScale
 70
     0
300
6" = 1'-0"
140
6.0
141
12.0
290
     0
  0
SCALE
  5
143
102
{ACAD_REACTORS
330
B6
102
}
330
B6
100
AcDbScale
 70
     0
300
1'-0" = 1'-0"
140
12.0
141
12.0
290
     0
  0
TABLESTYLE
  5
181
102
{ACAD_XDICTIONARY
360
2940
102
}
102
{ACAD_REACTORS
330
86
102
}
330
86
100
AcDbTableStyle
  3

 70
     0
 71
     3
 40
0.06
 41
0.06
280
     0
281
     0
  7
Legend
140
0.4
170
     4
 62
     0
 63
     7
283
     0
274
    -2
284
     0
 64
     0
275
    -2
285
     0
 65
     0
276
    -2
286
     0
 66
     0
277
    -2
287
     0
 67
     0
278
    -2
288
     0
 68
     0
279
    -2
289
     0
 69
     0
  7
Legend
140
0.5
170
     5
 62
     0
 63
     7
283
     0
274
    -2
284
     0
 64
     0
275
    -2
285
     0
 65
     0
276
    -2
286
     0
 66
     0
277
    -2
287
     0
 67
     0
278
    -2
288
     0
 68
     0
279
    -2
289
     0
 69
     0
  7
Legend
140
0.4
170
     4
 62
     0
 63
     7
283
     0
274
    -2
284
     0
 64
     0
275
    -2
285
     0
 65
     0
276
    -2
286
     0
 66
     0
277
    -2
287
     0
 67
     0
278
    -2
288
     0
 68
     0
279
    -2
289
     0
 69
     0
  0
TABLESTYLE
  5
87
102
{ACAD_XDICTIONARY
360
104
102
}
102
{ACAD_REACTORS
330
86
102
}
330
86
100
AcDbTableStyle
  3
Standard
 70
     0
 71
     0
 40
0.06
 41
0.06
280
     0
281
     0
  7
Standard
140
0.18
170
     2
 62
     0
 63
     7
283
     0
274
    -2
284
     1
 64
     0
275
    -2
285
     1
 65
     0
276
    -2
286
     1
 66
     0
277
    -2
287
     1
 67
     0
278
    -2
288
     1
 68
     0
279
    -2
289
     1
 69
     0
  7
Standard
140
0.25
170
     5
 62
     0
 63
     7
283
     0
274
    -2
284
     1
 64
     0
275
    -2
285
     1
 65
     0
276
    -2
286
     1
 66
     0
277
    -2
287
     1
 67
     0
278
    -2
288
     1
 68
     0
279
    -2
289
     1
 69
     0
  7
Standard
140
0.18
170
     5
 62
     0
 63
     7
283
     0
274
    -2
284
     1
 64
     0
275
    -2
285
     1
 65
     0
276
    -2
286
     1
 66
     0
277
    -2
287
     1
 67
     0
278
    -2
288
     1
 68
     0
279
    -2
289
     1
 69
     0
  0
VISUALSTYLE
  5
9F
102
{ACAD_XDICTIONARY
360
29CC
102
}
102
{ACAD_REACTORS
330
99
102
}
330
99
100
AcDbVisualStyle
  2
2dWireframe
 70
     4
 71
     0
 72
     2
 73
     1
 90
        0
 40
-0.6
 41
-30.0
 62
     5
 63
     7
421
 16777215
 74
     1
 91
        4
 64
     7
 65
   257
 75
     1
175
     1
 42
1.0
 92
        0
 66
   257
 43
1.0
 76
     1
 77
     6
 78
     2
 67
     7
 79
     5
170
     0
171
     0
290
     0
174
     0
 93
        1
 44
0.0
173
     0
291
     0
 45
0.0
1001
ACAD
1000
AcDbSavedByObjectVersion
1070
     0
  0
VISUALSTYLE
  5
A1
102
{ACAD_XDICTIONARY
360
29D0
102
}
102
{ACAD_REACTORS
330
99
102
}
330
99
100
AcDbVisualStyle
  2
3D Hidden
 70
     6
 71
     1
 72
     2
 73
     2
 90
        0
 40
-0.6
 41
-30.0
 62
     5
 63
     7
421
 16777215
 74
     2
 91
        2
 64
     7
 65
   257
 75
     2
175
     1
 42
40.0
 92
        0
 66
   257
 43
1.0
 76
     1
 77
     6
 78
     2
 67
     7
 79
     3
170
     0
171
     0
290
     0
174
     0
 93
        1
 44
0.0
173
     0
291
     0
 45
0.0
1001
ACAD
1000
AcDbSavedByObjectVersion
1070
     0
  0
VISUALSTYLE
  5
A0
102
{ACAD_XDICTIONARY
360
29CE
102
}
102
{ACAD_REACTORS
330
99
102
}
330
99
100
AcDbVisualStyle
  2
3dWireframe
 70
     5
 71
     0
 72
     2
 73
     1
 90
        0
 40
-0.6
 41
-30.0
 62
     5
 63
     7
421
 16777215
 74
     1
 91
        4
 64
     7
 65
   257
 75
     1
175
     1
 42
1.0
 92
        0
 66
   257
 43
1.0
 76
     1
 77
     6
 78
     2
 67
     7
 79
     5
170
     0
171
     0
290
     0
174
     0
 93
        1
 44
0.0
173
     0
291
     0
 45
0.0
1001
ACAD
1000
AcDbSavedByObjectVersion
1070
     0
  0
VISUALSTYLE
  5
9E
102
{ACAD_XDICTIONARY
360
29CA
102
}
102
{ACAD_REACTORS
330
99
102
}
330
99
100
AcDbVisualStyle
  2
Basic
 70
     7
 71
     1
 72
     0
 73
     1
 90
        0
 40
-0.6
 41
-30.0
 62
     5
 63
     7
421
 16777215
 74
     0
 91
        4
 64
     7
 65
   257
 75
     1
175
     1
 42
1.0
 92
        8
 66
     7
 43
1.0
 76
     1
 77
     6
 78
     2
 67
     7
 79
     5
170
     0
171
     0
290
     0
174
     0
 93
        1
 44
0.0
173
     0
291
     1
 45
0.0
1001
ACAD
1000
AcDbSavedByObjectVersion
1070
     0
  0
VISUALSTYLE
  5
A5
102
{ACAD_XDICTIONARY
360
29D8
102
}
102
{ACAD_REACTORS
330
99
102
}
330
99
100
AcDbVisualStyle
  2
Brighten
 70
    12
 71
     2
 72
     2
 73
     1
 90
        0
 40
-0.6
 41
-30.0
 62
     5
 63
     7
421
 16777215
 74
     1
 91
        4
 64
     7
 65
   257
 75
     1
175
     1
 42
1.0
 92
        8
 66
     7
 43
1.0
 76
     1
 77
     6
 78
     2
 67
     7
 79
     5
170
     0
171
     0
290
     0
174
     0
 93
        1
 44
50.0
173
     0
291
     1
 45
0.0
1001
ACAD
1000
AcDbSavedByObjectVersion
1070
     0
  0
VISUALSTYLE
  5
A9
102
{ACAD_XDICTIONARY
360
29E0
102
}
102
{ACAD_REACTORS
330
99
102
}
330
99
100
AcDbVisualStyle
  2
ColorChange
 70
    16
 71
     2
 72
     2
 73
     3
 90
        0
 40
-0.6
 41
-30.0
 62
     5
 63
     8
421
  8421504
 74
     1
 91
        4
 64
     7
 65
   257
 75
     1
175
     1
 42
1.0
 92
        8
 66
     8
424
  8421504
 43
1.0
 76
     1
 77
     6
 78
     2
 67
     7
 79
     5
170
     0
171
     0
290
     0
174
     0
 93
        1
 44
0.0
173
     0
291
     1
 45
0.0
1001
ACAD
1000
AcDbSavedByObjectVersion
1070
     0
  0
VISUALSTYLE
  5
A2
102
{ACAD_XDICTIONARY
360
29D2
102
}
102
{ACAD_REACTORS
330
99
102
}
330
99
100
AcDbVisualStyle
  2
Conceptual
 70
     9
 71
     3
 72
     2
 73
     1
 90
        0
 40
-0.6
 41
-30.0
 62
     5
 63
     7
421
 16777215
 74
     2
 91
        2
 64
     7
 65
   257
 75
     1
175
     1
 42
40.0
 92
        8
 66
     7
 43
1.0
 76
     1
 77
     6
 78
     2
 67
     7
 79
     3
170
     0
171
     0
290
     0
174
     0
 93
        1
 44
0.0
173
     0
291
     0
 45
0.0
1001
ACAD
1000
AcDbSavedByObjectVersion
1070
     0
  0
VISUALSTYLE
  5
A4
102
{ACAD_XDICTIONARY
360
29D6
102
}
102
{ACAD_REACTORS
330
99
102
}
330
99
100
AcDbVisualStyle
  2
Dim
 70
    11
 71
     2
 72
     2
 73
     1
 90
        0
 40
-0.6
 41
-30.0
 62
     5
 63
     7
421
 16777215
 74
     1
 91
        4
 64
     7
 65
   257
 75
     1
175
     1
 42
1.0
 92
        8
 66
     7
 43
1.0
 76
     1
 77
     6
 78
     2
 67
     7
 79
     5
170
     0
171
     0
290
     0
174
     0
 93
        1
 44
-50.0
173
     0
291
     1
 45
0.0
1001
ACAD
1000
AcDbSavedByObjectVersion
1070
     0
  0
VISUALSTYLE
  5
175
102
{ACAD_XDICTIONARY
360
29E6
102
}
102
{ACAD_REACTORS
330
99
102
}
330
99
100
AcDbVisualStyle
  2
EdgeColorOff
 70
    22
 71
     2
 72
     2
 73
     0
 90
        0
 40
-0.6
 41
-30.0
 62
     5
 63
     7
421
 16777215
 74
     1
 91
        4
 64
     7
 65
   257
 75
     1
175
     1
 42
1.0
 92
        8
 66
     7
 43
1.0
 76
     1
 77
     6
 78
     2
 67
     7
 79
     5
170
     0
171
     0
290
     0
174
     0
 93
        1
 44
0.0
173
     0
291
     1
 45
0.0
1001
ACAD
1000
AcDbSavedByObjectVersion
1070
     0
  0
VISUALSTYLE
  5
A8
102
{ACAD_XDICTIONARY
360
29DE
102
}
102
{ACAD_REACTORS
330
99
102
}
330
99
100
AcDbVisualStyle
  2
Facepattern
 70
    15
 71
     2
 72
     2
 73
     1
 90
        0
 40
-0.6
 41
-30.0
 62
     5
 63
     7
421
 16777215
 74
     1
 91
        4
 64
     7
 65
   257
 75
     1
175
     1
 42
1.0
 92
        8
 66
     7
 43
1.0
 76
     1
 77
     6
 78
     2
 67
     7
 79
     5
170
     0
171
     0
290
     0
174
     0
 93
        1
 44
0.0
173
     0
291
     1
 45
0.0
1001
ACAD
1000
AcDbSavedByObjectVersion
1070
     0
  0
VISUALSTYLE
  5
9A
102
{ACAD_XDICTIONARY
360
29C2
102
}
102
{ACAD_REACTORS
330
99
102
}
330
99
100
AcDbVisualStyle
  2
Flat
 70
     0
 71
     2
 72
     1
 73
     1
 90
        2
 40
-0.6
 41
30.0
 62
     5
 63
     7
421
 16777215
 74
     0
 91
        4
 64
     7
 65
   257
 75
     1
175
     1
 42
1.0
 92
        8
 66
     7
 43
1.0
 76
     1
 77
     6
 78
     2
 67
     7
 79
     5
170
     0
171
     0
290
     0
174
     0
 93
        1
 44
0.0
173
     0
291
     1
 45
0.0
1001
ACAD
1000
AcDbSavedByObjectVersion
1070
     0
  0
VISUALSTYLE
  5
9B
102
{ACAD_XDICTIONARY
360
29C4
102
}
102
{ACAD_REACTORS
330
99
102
}
330
99
100
AcDbVisualStyle
  2
FlatWithEdges
 70
     1
 71
     2
 72
     1
 73
     1
 90
        2
 40
-0.6
 41
30.0
 62
     5
 63
     7
421
 16777215
 74
     1
 91
        4
 64
     7
 65
   257
 75
     1
175
     1
 42
1.0
 92
        0
 66
   257
 43
1.0
 76
     1
 77
     6
 78
     2
 67
     7
 79
     5
170
     0
171
     0
290
     0
174
     0
 93
        1
 44
0.0
173
     0
291
     1
 45
0.0
1001
ACAD
1000
AcDbSavedByObjectVersion
1070
     0
  0
VISUALSTYLE
  5
9C
102
{ACAD_XDICTIONARY
360
29C6
102
}
102
{ACAD_REACTORS
330
99
102
}
330
99
100
AcDbVisualStyle
  2
Gouraud
 70
     2
 71
     2
 72
     2
 73
     1
 90
        2
 40
-0.6
 41
30.0
 62
     5
 63
     7
421
 16777215
 74
     0
 91
        4
 64
     7
 65
   257
 75
     1
175
     1
 42
1.0
 92
        0
 66
     7
 43
1.0
 76
     1
 77
     6
 78
     2
 67
     7
 79
     5
170
     0
171
     0
290
     0
174
     0
 93
        1
 44
0.0
173
     0
291
     1
 45
0.0
1001
ACAD
1000
AcDbSavedByObjectVersion
1070
     0
  0
VISUALSTYLE
  5
9D
102
{ACAD_XDICTIONARY
360
29C8
102
}
102
{ACAD_REACTORS
330
99
102
}
330
99
100
AcDbVisualStyle
  2
GouraudWithEdges
 70
     3
 71
     2
 72
     2
 73
     1
 90
        2
 40
-0.6
 41
30.0
 62
     5
 63
     7
421
 16777215
 74
     1
 91
        4
 64
     7
 65
   257
 75
     1
175
     1
 42
1.0
 92
        0
 66
   257
 43
1.0
 76
     1
 77
     6
 78
     2
 67
     7
 79
     5
170
     0
171
     0
290
     0
174
     0
 93
        1
 44
0.0
173
     0
291
     1
 45
0.0
1001
ACAD
1000
AcDbSavedByObjectVersion
1070
     0
  0
VISUALSTYLE
  5
1AE
102
{ACAD_XDICTIONARY
360
1AF
102
}
102
{ACAD_REACTORS
330
99
102
}
330
99
100
AcDbVisualStyle
  2
Hidden
 70
     6
 71
     1
 72
     2
 73
     2
 90
        0
 40
-0.6
 41
-30.0
 62
     5
 63
     7
421
 16777215
 74
     2
 91
        2
 64
     7
 65
   257
 75
     2
175
     1
 42
40.0
 92
        0
 66
   257
 43
1.0
 76
     1
 77
     6
 78
     2
 67
     7
 79
     3
170
     0
171
     0
290
     0
174
     0
 93
        1
 44
0.0
173
     0
291
     0
 45
0.0
1001
ACAD
1000
AcDbSavedByObjectVersion
1070
     0
  0
VISUALSTYLE
  5
173
102
{ACAD_XDICTIONARY
360
29E2
102
}
102
{ACAD_REACTORS
330
99
102
}
330
99
100
AcDbVisualStyle
  2
JitterOff
 70
    20
 71
     2
 72
     2
 73
     0
 90
        0
 40
-0.6
 41
-30.0
 62
     5
 63
     7
421
 16777215
 74
     1
 91
        4
 64
     7
 65
   257
 75
     1
175
     1
 42
1.0
 92
       10
 66
     7
 43
1.0
 76
     1
 77
     6
 78
     2
 67
     7
 79
     5
170
     0
171
     0
290
     0
174
     0
 93
        1
 44
0.0
173
     0
291
     1
 45
0.0
1001
ACAD
1000
AcDbSavedByObjectVersion
1070
     0
  0
VISUALSTYLE
  5
A7
102
{ACAD_XDICTIONARY
360
29DC
102
}
102
{ACAD_REACTORS
330
99
102
}
330
99
100
AcDbVisualStyle
  2
Linepattern
 70
    14
 71
     2
 72
     2
 73
     1
 90
        0
 40
-0.6
 41
-30.0
 62
     5
 63
     7
421
 16777215
 74
     1
 91
        4
 64
     7
 65
   257
 75
     7
175
     7
 42
1.0
 92
        8
 66
     7
 43
1.0
 76
     1
 77
     6
 78
     2
 67
     7
 79
     5
170
     0
171
     0
290
     0
174
     0
 93
        1
 44
0.0
173
     0
291
     1
 45
0.0
1001
ACAD
1000
AcDbSavedByObjectVersion
1070
     0
  0
VISUALSTYLE
  5
174
102
{ACAD_XDICTIONARY
360
29E4
102
}
102
{ACAD_REACTORS
330
99
102
}
330
99
100
AcDbVisualStyle
  2
OverhangOff
 70
    21
 71
     2
 72
     2
 73
     0
 90
        0
 40
-0.6
 41
-30.0
 62
     5
 63
     7
421
 16777215
 74
     1
 91
        4
 64
     7
 65
   257
 75
     1
175
     1
 42
1.0
 92
        9
 66
     7
 43
1.0
 76
     1
 77
     6
 78
     2
 67
     7
 79
     5
170
     0
171
     0
290
     0
174
     0
 93
        1
 44
0.0
173
     0
291
     1
 45
0.0
1001
ACAD
1000
AcDbSavedByObjectVersion
1070
     0
  0
VISUALSTYLE
  5
A3
102
{ACAD_XDICTIONARY
360
29D4
102
}
102
{ACAD_REACTORS
330
99
102
}
330
99
100
AcDbVisualStyle
  2
Realistic
 70
     8
 71
     2
 72
     2
 73
     1
 90
        0
 40
-0.6
 41
-30.0
 62
     5
 63
     7
421
 16777215
 74
     1
 91
        0
 64
     7
 65
   257
 75
     1
175
     1
 42
1.0
 92
        8
 66
     8
424
  7895160
 43
1.0
 76
     1
 77
     6
 78
     2
 67
     7
 79
     5
170
     0
171
     0
290
     0
174
     0
 93
       13
 44
0.0
173
     0
291
     0
 45
0.0
1001
ACAD
1000
AcDbSavedByObjectVersion
1070
     0
  0
VISUALSTYLE
  5
1B1
102
{ACAD_XDICTIONARY
360
1B2
102
}
102
{ACAD_REACTORS
330
99
102
}
330
99
100
AcDbVisualStyle
  2
Shaded
 70
    27
 71
     2
 72
     2
 73
     1
 90
        2
 40
-0.6
 41
30.0
 62
     5
 63
     7
421
 16777215
 74
     0
 91
        4
 64
     7
 65
   257
 75
     1
175
     1
 42
1.0
 92
        8
 66
   257
 43
1.0
 76
     1
 77
     6
 78
     2
 67
     8
425
  7895160
 79
     3
170
     0
171
     0
290
     0
174
     0
 93
        5
 44
0.0
173
     0
291
     0
 45
0.0
1001
ACAD
1000
AcDbSavedByObjectVersion
1070
     0
  0
VISUALSTYLE
  5
1B4
102
{ACAD_XDICTIONARY
360
1B5
102
}
102
{ACAD_REACTORS
330
99
102
}
330
99
100
AcDbVisualStyle
  2
Shaded with edges
 70
    26
 71
     2
 72
     2
 73
     1
 90
        2
 40
-0.6
 41
30.0
 62
     5
 63
     7
421
 16777215
 74
     1
 91
       10
 64
     7
 65
   257
 75
     2
175
     1
 42
1.0
 92
        8
 66
   257
 43
1.0
 76
     1
 77
     6
 78
     2
 67
     7
 79
     3
170
     0
171
     0
290
     0
174
     0
 93
        5
 44
0.0
173
     0
291
     0
 45
0.0
1001
ACAD
1000
AcDbSavedByObjectVersion
1070
     0
  0
VISUALSTYLE
  5
1B7
102
{ACAD_XDICTIONARY
360
1B8
102
}
102
{ACAD_REACTORS
330
99
102
}
330
99
100
AcDbVisualStyle
  2
Shades of Gray
 70
    23
 71
     2
 72
     2
 73
     3
 90
        0
 40
-0.6
 41
-30.0
 62
     5
 63
     7
421
 16777215
 74
     2
 91
        2
 64
     7
 65
     7
 75
     1
175
     1
 42
40.0
 92
        8
 66
     7
 43
1.0
 76
     1
 77
     6
 78
     2
 67
     7
 79
     3
170
     0
171
     0
290
     0
174
     0
 93
        1
 44
0.0
173
     0
291
     0
 45
0.0
1001
ACAD
1000
AcDbSavedByObjectVersion
1070
     0
  0
VISUALSTYLE
  5
1BA
102
{ACAD_XDICTIONARY
360
1BB
102
}
102
{ACAD_REACTORS
330
99
102
}
330
99
100
AcDbVisualStyle
  2
Sketchy
 70
    24
 71
     1
 72
     2
 73
     2
 90
        0
 40
-0.6
 41
-30.0
 62
     5
 63
     7
421
 16777215
 74
     2
 91
        2
 64
     7
 65
     7
 75
     1
175
     1
 42
40.0
 92
       11
 66
     7
 43
1.0
 76
     1
 77
     6
 78
     2
 67
     7
 79
     6
170
     0
171
     0
290
     0
174
     0
 93
        1
 44
0.0
173
     0
291
     0
 45
0.0
1001
ACAD
1000
AcDbSavedByObjectVersion
1070
     0
  0
VISUALSTYLE
  5
A6
102
{ACAD_XDICTIONARY
360
29DA
102
}
102
{ACAD_REACTORS
330
99
102
}
330
99
100
AcDbVisualStyle
  2
Thicken
 70
    13
 71
     2
 72
     2
 73
     1
 90
        0
 40
-0.6
 41
-30.0
 62
     5
 63
     7
421
 16777215
 74
     1
 91
        4
 64
     7
 65
   257
 75
     1
175
     1
 42
1.0
 92
       12
 66
     7
 43
1.0
 76
     1
 77
     6
 78
     2
 67
     7
 79
     5
170
     0
171
     0
290
     0
174
     0
 93
        1
 44
0.0
173
     0
291
     1
 45
0.0
1001
ACAD
1000
AcDbSavedByObjectVersion
1070
     0
  0
VISUALSTYLE
  5
1BD
102
{ACAD_XDICTIONARY
360
1BE
102
}
102
{ACAD_REACTORS
330
99
102
}
330
99
100
AcDbVisualStyle
  2
Wireframe
 70
     5
 71
     0
 72
     2
 73
     0
 90
        0
 40
-0.6
 41
-30.0
 62
     5
 63
     7
421
 16777215
 74
     1
 91
        4
 64
     7
 65
   257
 75
     1
175
     1
 42
1.0
 92
        0
 66
   257
 43
1.0
 76
     1
 77
     6
 78
     2
 67
     7
 79
     3
170
     0
171
     0
290
     0
174
     0
 93
        1
 44
0.0
173
     0
291
     0
 45
0.0
1001
ACAD
1000
AcDbSavedByObjectVersion
1070
     0
  0
VISUALSTYLE
  5
1C0
102
{ACAD_XDICTIONARY
360
1C1
102
}
102
{ACAD_REACTORS
330
99
102
}
330
99
100
AcDbVisualStyle
  2
X-Ray
 70
    25
 71
     2
 72
     2
 73
     1
 90
        1
 40
0.5
 41
-30.0
 62
     5
 63
     7
421
 16777215
 74
     1
 91
        0
 64
     7
 65
   257
 75
     1
175
     1
 42
1.0
 92
        8
 66
     7
 43
1.0
 76
     1
 77
     6
 78
     2
 67
     7
 79
     3
170
     0
171
     0
290
     0
174
     0
 93
       13
 44
0.0
173
     0
291
     0
 45
0.0
1001
ACAD
1000
AcDbSavedByObjectVersion
1070
     0
  0
DICTIONARYVAR
  5
F0
102
{ACAD_REACTORS
330
66
102
}
330
66
100
DictionaryVariables
280
     0
  1
1:1
  0
DICTIONARYVAR
  5
EF
102
{ACAD_REACTORS
330
66
102
}
330
66
100
DictionaryVariables
280
     0
  1
STANDARD
  0
DICTIONARYVAR
  5
89
102
{ACAD_REACTORS
330
66
102
}
330
66
100
DictionaryVariables
280
     0
  1
STANDARD
  0
DICTIONARYVAR
  5
67
102
{ACAD_REACTORS
330
66
102
}
330
66
100
DictionaryVariables
280
     0
  1
2
  0
DICTIONARYVAR
  5
291F
102
{ACAD_REACTORS
330
66
102
}
330
66
100
DictionaryVariables
280
     0
  1
1
  0
DICTIONARYVAR
  5
6B
102
{ACAD_REACTORS
330
66
102
}
330
66
100
DictionaryVariables
280
     0
  1
1
  0
DICTIONARYVAR
  5
14D
102
{ACAD_REACTORS
330
66
102
}
330
66
100
DictionaryVariables
280
     0
  1
0
  0
DICTIONARYVAR
  5
14E
102
{ACAD_REACTORS
330
66
102
}
330
66
100
DictionaryVariables
280
     0
  1
0
  0
DICTIONARYVAR
  5
BA3
102
{ACAD_REACTORS
330
66
102
}
330
66
100
DictionaryVariables
280
     0
  1
0
  0
DICTIONARYVAR
  5
2972
102
{ACAD_REACTORS
330
66
102
}
330
66
100
DictionaryVariables
280
     0
  1
1
  0
DICTIONARYVAR
  5
2973
102
{ACAD_REACTORS
330
66
102
}
330
66
100
DictionaryVariables
280
     0
  1
100.000000
  0
DICTIONARYVAR
  5
2980
102
{ACAD_REACTORS
330
66
102
}
330
66
100
DictionaryVariables
280
     0
  1
2
  0
XRECORD
  5
29B1
102
{ACAD_REACTORS
330
18F
102
}
330
18F
100
AcDbXrecord
280
     1
1000
ADE02C001
1070
     1
1070
     0
1002
{
1002
}
1002
{
1002
}
1002
{
1002
}
1000

  0
XRECORD
  5
1FB
102
{ACAD_REACTORS
330
1FA
102
}
330
1FA
100
AcDbXrecord
280
     1
330
2900
  0
DMSTYLIZEDENTITIESTABLE
  5
189
102
{ACAD_REACTORS
330
179
102
}
330
179
100
AcMapDMStylizedEntitiesTable
 70
     1
  0
DICTIONARY
  5
18A
102
{ACAD_REACTORS
330
179
102
}
330
179
100
AcDbDictionary
280
     1
281
     1
  0
DATATABLE
  5
17D
102
{ACAD_REACTORS
330
179
102
}
330
179
100
AcDbDataTable
 70
     2
 90
        4
 91
       15
  1

 92
        3
  2
OriginalClassName
  3
AcMapDMDefaultStyle
  3
AcMapDMEntityStyle
  3
AcMapDMRasterStyle
  3
AcMapDMSEAnnotationStyle
  3
AcMapDMSEHatchStyle
  3
AcMapDMSETextStyle
  3
AcMapDMThematicStyle
  3
AcMapDMBaseElement
  3
AcMapDMAttachedDwgsQueryElement
  3
AcMapDMFeatureElement
  3
AcMapDMLayerElement
  3
AcMapDMCurrentDwgQueryElement
  3
AcMapDMRasterElement
  3
AcMapDMTopoElement
  3
AcMapDMTopoQueryElement
 92
        3
  2
ProxyDisplayName
  3
Default
  3
Entity
  3
Raster
  3
Annotation
  3
Hatch
  3
Text
  3
Thematic
  3
Map Base
  3
Ade Query
  3
Feature Class
  3
Layer
  3
Ade Project Query
  3
Raster
  3
Topology
  3
Topology Query
 92
        1
  2
CustomObjectType
 93
        2
 93
        2
 93
        2
 93
        2
 93
        2
 93
        2
 93
        2
 93
        1
 93
        1
 93
        1
 93
        1
 93
        1
 93
        1
 93
        1
 93
        1
 92
        1
  2
StyleCoExistanceType
 93
        1
 93
        1
 93
        1
 93
        1
 93
        1
 93
        1
 93
        2
 93
        0
 93
        0
 93
        0
 93
        0
 93
        0
 93
        0
 93
        0
 93
        0
  0
DMMAPMANAGER
  5
17A
102
{ACAD_REACTORS
330
179
102
}
330
179
100
AcDbDictionary
281
     1
  3
DisplayMap1
350
17F
100
AcDbDictionaryWithDefault
340
17F
100
AcMapDMMapManager
 70
     1
340
17F
  0
DMSTYLELIBRARY
  5
17B
102
{ACAD_REACTORS
330
179
102
}
330
179
100
AcMapDMStyleLibrary
 70
     1
 70
     1
360
17C
  0
DICTIONARY
  5
17E
102
{ACAD_REACTORS
330
179
102
}
330
179
100
AcDbDictionary
281
     1
  0
DICTIONARY
  5
999
330
22
100
AcDbDictionary
280
     1
281
     1
  3
AcPublish_PlotSettingsOverride
360
2924
  3
ADSK_XREC_LAYOUTTHUMBNAIL
360
99A
  0
DICTIONARY
  5
29BF
330
97
100
AcDbDictionary
280
     1
281
     1
  3
ACAD_XREC_ROUNDTRIP
360
29C0
  0
DICTIONARY
  5
29BD
330
96
100
AcDbDictionary
280
     1
281
     1
  3
ACAD_XREC_ROUNDTRIP
360
29BE
  0
DICTIONARY
  5
110
330
98
100
AcDbDictionary
280
     1
281
     1
  3
ACAD_XREC_ROUNDTRIP
360
29C1
  3
BUMPTILE
360
112
  3
DIFFUSETILE
360
111
  3
OPACITYTILE
360
113
  3
REFLECTIONTILE
360
114
  0
DICTIONARY
  5
2940
330
181
100
AcDbDictionary
280
     1
281
     1
  3
ACAD_ROUNDTRIP_2008_TABLESTYLE_CELLSTYLEMAP
360
29BA
  3
ACAD_XREC_ROUNDTRIP
360
29E8
  0
DICTIONARY
  5
104
330
87
100
AcDbDictionary
280
     1
281
     1
  3
ACAD_ROUNDTRIP_2008_TABLESTYLE_CELLSTYLEMAP
360
29B9
  3
ACAD_XREC_ROUNDTRIP
360
29BC
  0
DICTIONARY
  5
29CC
330
9F
100
AcDbDictionary
280
     1
281
     1
  3
ACAD_XREC_ROUNDTRIP
360
29CD
  0
DICTIONARY
  5
29D0
330
A1
100
AcDbDictionary
280
     1
281
     1
  3
ACAD_XREC_ROUNDTRIP
360
29D1
  0
DICTIONARY
  5
29CE
330
A0
100
AcDbDictionary
280
     1
281
     1
  3
ACAD_XREC_ROUNDTRIP
360
29CF
  0
DICTIONARY
  5
29CA
330
9E
100
AcDbDictionary
280
     1
281
     1
  3
ACAD_XREC_ROUNDTRIP
360
29CB
  0
DICTIONARY
  5
29D8
330
A5
100
AcDbDictionary
280
     1
281
     1
  3
ACAD_XREC_ROUNDTRIP
360
29D9
  0
DICTIONARY
  5
29E0
330
A9
100
AcDbDictionary
280
     1
281
     1
  3
ACAD_XREC_ROUNDTRIP
360
29E1
  0
DICTIONARY
  5
29D2
330
A2
100
AcDbDictionary
280
     1
281
     1
  3
ACAD_XREC_ROUNDTRIP
360
29D3
  0
DICTIONARY
  5
29D6
330
A4
100
AcDbDictionary
280
     1
281
     1
  3
ACAD_XREC_ROUNDTRIP
360
29D7
  0
DICTIONARY
  5
29E6
330
175
100
AcDbDictionary
280
     1
281
     1
  3
ACAD_XREC_ROUNDTRIP
360
29E7
  0
DICTIONARY
  5
29DE
330
A8
100
AcDbDictionary
280
     1
281
     1
  3
ACAD_XREC_ROUNDTRIP
360
29DF
  0
DICTIONARY
  5
29C2
330
9A
100
AcDbDictionary
280
     1
281
     1
  3
ACAD_XREC_ROUNDTRIP
360
29C3
  0
DICTIONARY
  5
29C4
330
9B
100
AcDbDictionary
280
     1
281
     1
  3
ACAD_XREC_ROUNDTRIP
360
29C5
  0
DICTIONARY
  5
29C6
330
9C
100
AcDbDictionary
280
     1
281
     1
  3
ACAD_XREC_ROUNDTRIP
360
29C7
  0
DICTIONARY
  5
29C8
330
9D
100
AcDbDictionary
280
     1
281
     1
  3
ACAD_XREC_ROUNDTRIP
360
29C9
  0
DICTIONARY
  5
1AF
330
1AE
100
AcDbDictionary
280
     1
281
     1
  3
ACAD_XREC_ROUNDTRIP
360
1B0
  0
DICTIONARY
  5
29E2
330
173
100
AcDbDictionary
280
     1
281
     1
  3
ACAD_XREC_ROUNDTRIP
360
29E3
  0
DICTIONARY
  5
29DC
330
A7
100
AcDbDictionary
280
     1
281
     1
  3
ACAD_XREC_ROUNDTRIP
360
29DD
  0
DICTIONARY
  5
29E4
330
174
100
AcDbDictionary
280
     1
281
     1
  3
ACAD_XREC_ROUNDTRIP
360
29E5
  0
DICTIONARY
  5
29D4
330
A3
100
AcDbDictionary
280
     1
281
     1
  3
ACAD_XREC_ROUNDTRIP
360
29D5
  0
DICTIONARY
  5
1B2
330
1B1
100
AcDbDictionary
280
     1
281
     1
  3
ACAD_XREC_ROUNDTRIP
360
1B3
  0
DICTIONARY
  5
1B5
330
1B4
100
AcDbDictionary
280
     1
281
     1
  3
ACAD_XREC_ROUNDTRIP
360
1B6
  0
DICTIONARY
  5
1B8
330
1B7
100
AcDbDictionary
280
     1
281
     1
  3
ACAD_XREC_ROUNDTRIP
360
1B9
  0
DICTIONARY
  5
1BB
330
1BA
100
AcDbDictionary
280
     1
281
     1
  3
ACAD_XREC_ROUNDTRIP
360
1BC
  0
DICTIONARY
  5
29DA
330
A6
100
AcDbDictionary
280
     1
281
     1
  3
ACAD_XREC_ROUNDTRIP
360
29DB
  0
DICTIONARY
  5
1BE
330
1BD
100
AcDbDictionary
280
     1
281
     1
  3
ACAD_XREC_ROUNDTRIP
360
1BF
  0
DICTIONARY
  5
1C1
330
1C0
100
AcDbDictionary
280
     1
281
     1
  3
ACAD_XREC_ROUNDTRIP
360
1C2
  0
DMMAP
  5
17F
102
{ACAD_REACTORS
330
17A
330
182
102
}
330
17A
100
AcMapDMMap
 70
     1
  1
Default
 70
     1
330
0
100
AcMapDMMap
 70
     1
 90
        1
360
182
 90
        1
 40
1.797693134862314E+99
 70
     1
100
AcMapDMMap
 70
     2
 70
     0
 40
1.797693134862314E+99
290
     1
290
     1
 40
1.0
 40
3.0
  1
Legend
 90
        1
 40
1.797693134862314E+99
  1

 70
     0
 40
1.0
 70
     1
 90
        0
 90
        1
360
183
  0
DMSTYLECATEGORY
  5
17C
102
{ACAD_REACTORS
330
17B
102
}
330
17B
100
AcMapDMStyleCategory
 70
     1
  1
Display Styles
 70
     0
  0
PLOTSETTINGS
  5
2924
102
{ACAD_REACTORS
330
999
102
}
330
999
100
AcDbPlotSettings
  1

  2
Adobe PDF
  4
Letter
  6

 40
3.174999952316284
 41
3.174999952316284
 42
3.175003051757812
 43
3.17498779296875
 44
215.8999938964844
 45
279.3999938964844
 46
14.27790312490942
 47
2.687527609673624
 48
0.0
 49
0.0
140
0.0
141
0.0
142
1.0
143
1.0
 70
 11940
 72
     0
 73
     1
 74
     1
  7
NETAFIM.ctb
 75
     0
147
1.114737927278722
 76
     0
 77
     2
 78
   300
148
22.74257348782844
149
0.0034861366045241
1001
ACAD_PSEXT
1000
Adobe PDF
1000
Adobe PDF Converter
1000
Documents\*.pdf
1000

1070
     0
  0
XRECORD
  5
99A
102
{ACAD_REACTORS
330
999
102
}
330
999
100
AcDbXrecord
280
     1
310
28000000000100008F0000000100080000000000008F0000000000000000000000010000000000000000000000000000FFFFFF000000000000000000000000000000000000000000000000000000000000000000330000006600000099000000CC000000FF00000000330000333300006633000099330000CC330000FF3300
310
0000660000336600006666000099660000CC660000FF66000000990000339900006699000099990000CC990000FF99000000CC000033CC000066CC000099CC0000CCCC0000FFCC000000FF000033FF000066FF000099FF0000CCFF0000FFFF000000003300330033006600330099003300CC003300FF003300003333003333
310
33006633330099333300CC333300FF33330000663300336633006666330099663300CC663300FF66330000993300339933006699330099993300CC993300FF99330000CC330033CC330066CC330099CC3300CCCC3300FFCC330000FF330033FF330066FF330099FF3300CCFF3300FFFF330000006600330066006600660099
310
006600CC006600FF00660000336600333366006633660099336600CC336600FF33660000666600336666006666660099666600CC666600FF66660000996600339966006699660099996600CC996600FF99660000CC660033CC660066CC660099CC6600CCCC6600FFCC660000FF660033FF660066FF660099FF6600CCFF6600
310
FFFF660000009900330099006600990099009900CC009900FF00990000339900333399006633990099339900CC339900FF33990000669900336699006666990099669900CC669900FF66990000999900339999006699990099999900CC999900FF99990000CC990033CC990066CC990099CC9900CCCC9900FFCC990000FF99
310
0033FF990066FF990099FF9900CCFF9900FFFF99000000CC003300CC006600CC009900CC00CC00CC00FF00CC000033CC003333CC006633CC009933CC00CC33CC00FF33CC000066CC003366CC006666CC009966CC00CC66CC00FF66CC000099CC003399CC006699CC009999CC00CC99CC00FF99CC0000CCCC0033CCCC0066CC
310
CC0099CCCC00CCCCCC00FFCCCC0000FFCC0033FFCC0066FFCC0099FFCC00CCFFCC00FFFFCC000000FF003300FF006600FF009900FF00CC00FF00FF00FF000033FF003333FF006633FF009933FF00CC33FF00FF33FF000066FF003366FF006666FF009966FF00CC66FF00FF66FF000099FF003399FF006699FF009999FF00CC
310
99FF00FF99FF0000CCFF0033CCFF0066CCFF0099CCFF00CCCCFF00FFCCFF0000FFFF0033FFFF0066FFFF0099FFFF00CCFFFF00FFFFFF00000000000D0D0D001A1A1A00282828003535350043434300505050005D5D5D006B6B6B00787878008686860093939300A1A1A100AEAEAE00BBBBBB00C9C9C900D6D6D600E4E4E400
310
F1F1F100FFFFFF0000000000000000000000000000000000000000000000000000000000000000000000000000000000E2E2E2E2E2E2E2E2E2E2E2E2E2E2E2E2E2E2E2E2E2E2E2BEE2BEE2E2E2BEE2BEE2BEE2BEE2BEE2E2BEE2E2E2E2E2C3C3C3C3C3C3E2E2E2E2E2E2DCDCDCDCDCDCDCDCDCDCDCDCDCDCDCDCDCDCDCDCDC
310
DCDCDCDCE2E2DCDCDCDCDCDCDCDCDCDCDCDCE2E2DCDCDCDCDCDCE2E2DCDCDCDCDCDCDCDCDCDCDCDCDCDCDCDCDCDCDCDCDCDCDCDCDCE2E2DCDCDCDCDCDCDCDCDCDCDCDCE2E2E2E2E2E2E2E2E2E2E2E2E2E2E2E2E2E2E2E2E2E2E2E2E2E2E2E2E2E2E2E2E2E2E2E2E2E2E2E2E2E2E2E2E2E2E2E2E2E2E2E2E2E2E2E2E2E2BEBE
310
BEBEBEBEBEBEBEBEBEBEBEBEBEBEBEBEBEBEBEBEBEE2E2E2E2E2BEE2E2E2E2E2E2E2E2E2E2E2E2E2E2E2E2E2E2E2E2E2E2E2E2E2E2E2E2E2E2E2E2E2E2E2E2E2E2E2E2E2E2E2E2E2E2BEE2BEE2E2E2BEE2BEE2BEE2BEE2BEE2E2BEE2E2E2E2E2E2E2E2E2E2E2E2E2E2E2E2E2E2E2E2E2E2E2E2E2E2E2E2E2E2E2E2E2E2E2E2
310
E2E2E2E2E2E2E2E2E2E2E2E2E2E2E2E2E2E2E2E2E2E2E2E2E2E2E2E2E2E2E2E2E2E2E2E2E2E2E2E2E2E2E2E2E2E2E2E2E2E2E2E2E2E2E2E2E2E2E2E2E2E2E2E2E2E2E2E2E2E2E2E2E2E2E2E2E2E2E2E2E2E2E2E2E2E2E2E2E2E2E2E2E2E2E2E2E2E2E2E2E2E2E2E2E2E2E2E2E2E2E2E2E2E2E2E2E2E2E2E2E2E2E2E2E2E2E2
310
E2BEBEBEBEBEBEBEBEBEBEBEBEBEBEBEBEBEBEBEBEBEBEE2E2E2E2E2BEE2E2E2E2E2E2E2E2E2E2E2E2E2E2E2E2E2E2E2E2E2E2E2E2E2E2E2E2E2E2E2E2E2E2E2E2E2E2E2E2E2E2E2E2E2E2BEE2BEE2E2E2BEE2BEE2BEE2BEE2BEE2E2BEE2E2E2E2E2E2E2E2E2E2E2E2E2E2E2E2E2E2E2E2E2E2E2E2E2E2E2E2E2E2E2E2E2E2
310
E2E2E2E2E2E2E2E2E2E2E2E2E2E2E2E2E2E2E2E2E2E2E2E2E2E2E2E2E2E2E2E2E2E2E2E2E2E2E2E2E2E2E2E2E2E2E2E2E2E2E2E2E2E2E2E2E2E2E2E2E2E2E2E2E2E2E2E2E2E2E2E2E2E2E2E2E2E2E2E2E2E2E2E2E2E2E2E2E2E2E2E2E2E2E2E2E2E2E2E2E2E2E2E2E2E2E2E2E2E2E2E2E2E2E2E2E2E2E2E2E2E2E2E2E2E2E2
310
E2E2E2E2BEBEBEBEBEBEBEBEBEBEBEBEBEBEBEBEBEBEBEBEBEBEBEE2E2E2BEE2E2E2E2E2E2E2E2E2E2E2E2E2E2E2E2E2E2E2E2E2E2E2E2E2E2E2E2E2E2E2E2E2E2E2E2E2E2E2E2E2E2E2E2E2E2BEE2E2E2E2E2BEE2BEE2BEE2BEE2BEE2E2BEE2E2E2E2E2E2E2E2E2E2E2E2E2E2E2E2E2E2E2E2E2E2E2E2E2E2E2E2E2E2E2E2
310
E2E2E2E2E2E2E2E2E2E2E2E2E2E2E2E2E2E2E2E2E2E2E2E2E2E2E2E2E2E2E2E2E2E2E2E2E2E2E2E2E2E2E2E2E2E2E2E2E2E2E2E2E2E2E2E2E2E2E2E2E2E2E2E2E2E2E2E2E2E2E2E2E2E2E2E2E2E2E2E2E2E2E2E2E2E2E2E2E2E2E2E2E2E2E2E2E2E2E2E2E2E2E2E2E2E2E2E2E2E2E2E2E2E2E2E2E2E2E2E2E2E2E2E2E2E2E2
310
E2E2E2E2E2E2BEE2E2E2E2E2E2E2E2E2E2E2E2E2E2E2E2E2E2E2E2E2E2E2E2E2BEE2E2E2E2E2E2E2E2E2E2E2E2E2E2E2E2E2E2E2E2E2E2E2E2E2E2E2E2E2E2E2E2E2E2E2E2E2E2E2E2E2E2E2E2E2E2BEE2E2E2E2E2BEE2BEE2BEE2BEE2BEE2E2BEE2E2E2E2E2E2E2E2E2E2E2E2E2E2E2E2E2E2E2E2E2E2E2E2E2E2E2E2E2E2
310
E2E2E2E2E2E2E2E2E2E2E2E2E2E2E2E2E2E2E2E2E2E2E2E2E2E2E2E2E2E2E2E2E2E2E2E2E2E2E2E2E2E2E2E2E2E2E2E2E2E2E2E2E2E2E2E2E2E2E2E2E2E2E2E2E2E2E2E2E2E2E2E2E2E2E2E2E2E2E2E2E2E2E2E2E2E2E2E2E2E2E2E2E2E2E2E2E2E2E2E2E2E2E2E2E2E2E2E2E2E2E2E2E2E2E2E2E2E2E2E2E2E2E2E2E2E2E2
310
E2E2E2E2E2E2E2E2E2E2E2E2E2E2E2E2E2E2E2E2E2E2E2E2E2E2E2E2E2E2E2E2E2E2BEE2E2E2E2E2E2E2E2E2E2E2E2E2E2E2E2E2E2E2E2E2E2E2E2E2E2E2E2E2E2E2E2E2E2E2E2E2E2E2E2E2E2E2E2E2E2BEE2E2E2E2E2BEE2BEE2BEE2BEE2BEE2E2BEE2E2E2E2E2E2E2E2E2E2E2E2E2E2E2E2E2E2E2E2E2E2E2E2E2E2E2E2
310
E2E2E2E2E2E2E2E2E2E2E2E2E2E2E2E2E2E2E2E2E2E2E2E2E2E2E2E2E2E2E2E2E2E2E2E2E2E2E2E2E2E2E2E2E2E2E2E2E2E2E2E2E2E2E2E2E2E2E2E2E2E2E2E2E2E2E2E2E2E2E2E2E2E2E2E2E2E2E2E2E2E2E2E2E2E2E2E2E2E2E2E2E2E2E2E2E2E2E2E2E2E2E2E2E2E2E2E2E2E2E2E2E2E2E2E2E2E2E2E2E2E2E2E2E2E2E2
310
E2E2E2E2E2E2E2E2E2E2E2E2E2E2E2E2E2E2E2E2E2E2E2E2E2E2E2E2E2E2E2E2E2E2E2E2BEE2E2E2E2E2E2E2E2E2E2E2E2E2E2E2E2E2E2E2E2E2E2E2E2E2E2E2E2E2E2E2E2E2E2E2E2E2E2E2E2E2E2E2E2E2E2BEE2E2E2E2E2BEE2BEE2BEE2BEE2BEE2E2BEE2E2E2E2E2E2E2E2E2E2E2E2E2E2E2E2E2E2E2E2E2E2E2E2E2E2
310
E2E2E2E2E2E2E2E2E2E2E2E2E2E2E2E2E2E2E2E2E2E2E2E2E2E2E2E2E2E2E2E2E2E2E2E2E2E2E2E2E2E2E2E2E2E2E2E2E2E2E2E2E2E2E2E2E2E2E2E2E2E2E2E2E2E2E2E2E2E2E2E2E2E2E2E2E2E2E2E2E2E2E2E2E2E2E2E2E2E2E2E2E2E2E2E2E2E2E2E2E2E2E2E2E2E2E2E2E2E2E2E2E2E2E2E2E2E2E2E2E2E2E2E2E2E2E2
310
E2E2E2E2E2E2E2E2E2E2E2E2E2E2E2E2E2E2E2E2E2E2E2E2E2E2E2E2E2E2E2E2E2E2E2E2E2E2BEE2E2E2E2E2E2E2E2E2E2E2E2E2E2E2E2E2E2E2E2E2E2E2E2E2E2E2E2E2E2E2E2E2E2E2E2E2E2E2E2E2E2E2E2E2E2BEE2E2E2E2E2BEE2BEE2BEE2BEE2BEE2E2BEE2E2E2E2E2E2E2E2E2E2E2E2E2E2E2E2E2E2E2E2E2E2E2E2
310
E2E2E2E2E2E2E2E2E2E2E2E2E2E2E2E2E2E2E2E2E2E2E2E2E2E2E2E2E2E2E2E2E2E2E2DCE2E2E2E2E2E2E2E2E2E2E2E2E2E2E2E2E2E2E2E2E2E2E2E2E2E2E2E2E2E2E2E2E2E2E2E2E2E2E2E2E2E2E2E2E2E2E2E2E2E2E2E2E2E2E2E2E2E2E2E2E2E2E2E2E2E2E2E2E2E2E2E2E2E2E2E2E2E2E2E2E2E2E2E2E2E2E2E2E2E2E2
310
E2E2E2E2E2E2E2E2E2E2E2E2E2E2E2E2E2E2E2E2E2E2E2E2E2E2E2E2E2E2E2E2E2E2E2E2E2E2E2E2BEE2E2E2E2E2E2E2E2E2E2E2E2E2E2E2E2E2E2E2E2E2E2E2E2E2E2E2E2E2E2E2E2E2E2E2E2E2E2E2E2E2E2E2E2E2E2BEE2E2E2E2E2BEE2BEE2BEE2BEE2BEE2E2BEE2E2E2E2E2E2E2E2E2E2E2E2E2E2E2E2E2E2E2E2E2E2
310
DCDCE2DCDCE2E2DCDCDCDCDCDCDCDCDCDCDCDCDCE2DCDCDCE2E2E2DCDCDCDCDCE2DCDCDCDCDCDCE2DCDCDCDCDCDCDCDCDCDCE2E2DCDCDCDCDCDCDCDCE2E2E2DCDCDCDCDCDCDCDCE2E2E2E2E2E2E2E2E2E2E2E2E2E2E2E2E2E2E2E2E2E2E2E2E2E2E2E2E2E2E2E2E2E2E2E2E2E2E2E2E2E2E2E2E2E2E2E2E2E2E2E2E2E2E2E2
310
E2E2E2E2E2E2E2E2E2E2E2E2E2E2E2E2E2E2E2E2E2E2E2E2E2E2E2E2E2E2E2E2E2E2E2E2E2E2E2E2E2E2BEE2E2E2E2E2E2E2E2E2E2E2E2E2E2E2E2E2E2E2E2E2E2E2E2E2E2E2E2E2E2E2E2E2E2E2E2E2E2E2E2E2E2E2E2E2E2BEE2E2E2E2E2BEE2BEE2BEE2BEE2BEE2E2BEE2E2E2E2E2E2E2E2E2E2E2E2E2E2E2E2E2E2E2E2
310
E2E2DCDCDCDCDCE2E2DCDCDCDCDCDCDCDCDCDCDCDCDCE2DCDCDCDCE2DCDCDCDCDCDCE2E2DCDCDCDCDCDCDCDCDCDCDCDCDCDCDCDCE2E2DCDCDCDCDCDCDCDCDCE2DCDCDCDCDCE2DCDCE2E2E2E2E2E2E2E2E2E2E2E2E2E2E2E2E2E2E2E2E2E2E2E2E2E2E2E2E2E2E2E2E2E2E2E2E2E2E2E2E2E2E2E2E2E2E2E2E2E2E2E2E2E2E2
310
E2E2E2E2E2E2E2E2E2E2E2E2E2E2E2E2E2E2E2E2E2E2E2E2E2E2E2E2E2E2E2E2E2E2E2E2E2E2E2E2E2E2E2E2BEE2E2E2E2E2E2E2E2E2E2E2E2E2E2E2E2E2E2E2E2E2E2E2E2E2E2E2E2E2E2E2E2E2E2E2E2E2E2E2E2E2E2E2E2E2E2BEE2E2E2E2E2BEE2BEE2BEE2BEE2BEE2E2BEE2E2E2E2E2E2E2E2E2E2E2E2E2E2E2E2E2E2
310
E2E2E2E2E2E2E2E2E2E2E2E2E2E2E2E2E2E2E2E2E2E2E2E2DCDCDCE2E2E2E2E2E2E2E2E2E2E2E2E2E2E2E2DCE2E2E2E2E2E2E2E2E2E2E2E2E2E2E2E2E2E2E2E2E2E2E2E2E2E2E2E2E2E2E2E2E2E2E2E2E2E2E2E2E2E2E2E2E2E2E2E2E2E2E2E2E2E2E2E2E2E2E2E2E2E2E2E2E2E2E2E2E2E2E2E2E2E2E2E2E2E2E2E2E2E2E2
310
E2E2E2E2E2E2E2E2E2E2E2E2E2E2E2E2E2E2E2E2E2E2E2E2E2E2E2E2E2E2E2E2E2E2E2E2E2E2E2E2E2E2E2E2E2E2BEE2E2E2E2E2E2E2E2E2E2E2E2E2E2E2E2E2E2E2E2E2E2E2E2E2E2E2E2E2E2E2E2E2E2E2E2E2E2E2E2E2E2E2E2E2E2BEE2E2E2E2E2BEE2BEE2BEE2BEE2BEE2E2BEE2E2E2E2E2E2E2E2E2E2E2E2E2E2E2E2
310
E2E2DCDCDCE2DCDCDCDCDCDCDCE2DCE2DCDCDCDCDCDCDCDCDCDCDCDCDCE2DCDCDCDCDCDCDCDCDCE2DCDCE2E2DCDCDCE2DCDCDCDCDCDCDCE2E2DCDCDCE2E2DCDCDCDCDCDCE2E2DCDCDCDCDCE2DCDCE2DCDCDCDCDCDCDCDCDCDCE2DCDCDCDCDCDCDCDCDCDCDCE2E2DCDCDCDCDCE2DCDCDCDCDCDCDCE2DCE2DCDCDCDCDCDCE2E2
310
DCDCDCE2E2DCDCDCDCDCDCDCDCDCDCDCDCE2E2E2E2E2E2E2E2E2E2E2E2E2E2E2E2E2E2E2E2E2E2E2E2E2E2E2E2E2E2E2BEE2E2E2E2E2E2E2E2E2E2E2E2E2E2E2E2E2E2E2E2E2E2E2E2E2E2E2E2E2E2E2E2E2E2E2E2E2E2E2E2E2E2E2E2E2E2BEE2E2E2E2E2BEE2BEE2BEE2BEE2BEE2E2BEE2E2E2E2E2E2E2E2E2E2E2E2E2E2
310
E2E2E2E2DCDCE2E2DCDCDCDCDCDCDCDCE2E2DCDCDCDCDCDCDCDCDCDCDCDCDCE2DCDCDCDCDCDCDCE2DCDCDCDCE2E2DCDCDCE2DCDCDCDCDCDCDCE2E2DCDCDCE2E2DCDCDCDCDCDCE2E2DCDCDCDCE2E2DCDCDCDCDCDCDCDCDCDCE2DCDCE2DCDCDCDCDCDCE2DCDCDCDCE2E2DCDCDCDCE2E2DCDCDCDCDCDCDCE2DCDCDCDCDCDCDCDC
310
E2E2DCDCDCE2E2DCDCDCDCDCDCDCDCDCE2DCDCE2E2E2E2E2E2E2E2E2E2E2E2E2E2E2E2E2E2E2E2E2E2E2E2E2E2E2E2E2E2E2BEE2E2E2E2E2E2E2E2E2E2E2E2E2E2E2E2E2E2E2E2E2E2E2E2E2E2E2E2E2E2E2E2E2E2E2E2E2E2E2E2E2E2E2E2E2E2BEE2E2E2E2E2BEE2BEE2BEE2BEE2BEE2E2BEE2E2E2E2E2E2E2E2E2E2E2E2
310
E2E2E2E2E2E2DCDCE2E2DCDCDCDCE2DCDCDCDCE2DCDCE2E2E2DCDCDCE2E2E2E2E2E2DCDCDCDCDCDCDCE2DCE2DCDCE2E2DCDCDCE2DCDCDCDCDCDCDCE2DCDCDCDCE2E2DCDCDCDCDCDCE2DCDCDCDCDCDCE2DCE2DCDCDCDCDCDCDCDCE2DCDCE2E2DCDCDCDCDCDCDCDCDCDCE2DCDCDCDCDCDCE2DCDCDCDCDCDCDCE2DCDCDCDCDCDC
310
DCDCE2DCDCDCDCE2E2DCDCDCDCDCDCE2DCDCDCDCDCE2E2E2E2E2E2E2E2E2E2E2E2E2E2E2E2E2E2E2E2E2E2E2E2E2E2E2E2E2E2E2BEE2E2E2E2E2E2E2E2E2E2E2E2E2E2E2E2E2E2E2E2E2E2E2E2E2E2E2E2E2E2E2E2E2E2E2E2E2E2E2E2E2E2E2E2E2E2BEE2E2E2E2E2BEE2BEE2BEE2BEE2BEE2E2BEE2E2E2E2E2E2E2E2E2E2
310
E2E2E2E2E2E2E2E2E2E2E2E2DCDCDCDCDCDCDCDCE2E2DCDCDCDCDCE2DCDCDCDCE2DCDCDCDCE2DCE2DCDCDCDCE2DCDCDCDCDCE2DCE2DCDCDCDCDCE2E2DCE2DCDCDCDCDCDCE2E2DCDCDCDCDCE2DCDCE2DCDCDCE2DCDCE2E2DCDCDCDCDCDCDCE2E2DCDCDCE2DCE2DCE2DCDCDCDCE2E2DCDCDCDCDCDCDCDCDCE2DCDCDCDCDCDCE2
310
E2E2E2E2E2E2E2E2E2E2E2E2E2E2E2E2E2E2E2E2E2E2E2E2E2E2E2E2E2E2E2E2E2E2E2E2E2E2E2E2E2E2E2E2E2E2E2E2E2E2E2E2E2E2BEE2E2E2E2E2E2E2E2E2E2E2E2E2E2E2E2E2E2E2E2E2E2E2E2E2E2E2E2E2E2E2E2E2E2E2E2E2E2E2E2E2E2E2E2E2E2BEE2E2E2E2E2BEE2BEE2BEE2BEE2BEE2E2BEE2E2E2E2E2E2E2E2
310
E2E2E2E2E2E2E2E2E2E2E2E2E2E2DCDCDCDCDCDCDCDCE2E2DCDCDCDCE2E2DCDCDCDCDCDCDCDCDCE2DCDCDCDCDCE2E2DCDCDCDCDCE2E2DCDCDCDCDCDCE2E2DCDCDCDCE2DCDCDCE2E2DCDCDCDCE2E2DCDCDCDCDCDCDCDCDCE2E2DCDCE2DCDCDCDCE2E2DCDCDCE2E2DCDCDCDCDCDCDCE2E2DCDCDCDCDCDCDCDCDCDCDCDCDCDCDC
310
E2E2E2E2E2E2E2E2E2E2E2E2E2E2E2E2E2E2E2E2E2E2E2E2E2E2E2E2E2E2E2E2E2E2E2E2E2E2E2E2E2E2E2E2E2E2E2E2E2E2E2E2E2E2E2E2BEE2E2E2E2E2E2E2E2E2E2E2E2E2E2E2E2E2E2E2E2E2E2E2E2E2E2E2E2E2E2E2E2E2E2E2E2E2E2E2E2E2E2E2E2E2E2BEE2E2E2E2E2BEE2BEE2BEE2BEE2BEE2E2BEE2E2E2E2E2E2
310
E2E2E2E2E2E2E2E2E2E2E2E2E2E2E2E2DCDCDCDCDCDCDCDCE2DCDCDCDCDCDCE2DCDCDCDCDCDCDCDCDCE2E2DCDCDCDCDCE2DCDCDCDCDCE2E2DCDCDCDCDCDCDCE2DCDCDCDCDCDCE2DCE2DCDCDCDCDCDCE2DCDCDCDCDCDCE2DCDCE2E2DCDCDCDCDCDCDCE2DCDCDCDCE2E2DCDCDCDCDCDCDCE2E2DCDCE2DCDCDCDCDCDCDCDCDCDC
310
DCDCE2E2E2E2E2E2E2E2E2E2E2E2E2E2E2E2E2E2E2E2E2E2E2E2E2E2E2E2E2E2E2E2E2E2E2E2E2E2E2E2E2E2E2E2E2E2E2E2E2E2E2E2E2E2E2E2BEE2E2E2E2E2E2E2E2E2E2E2E2E2E2E2E2E2E2E2E2E2E2E2E2E2E2E2E2E2E2E2E2E2E2E2E2E2E2E2E2E2E2E2E2E2E2BEE2E2E2E2E2BEE2BEE2BEE2BEE2BEE2E2BEE2E2E2E2
310
E2E2E2E2E2E2E2E2E2E2E2E2E2E2E2DCDCE2DCDCDCE2E2DCDCDCDCDCE2E2DCDCDCDCDCDCDCDCDCDCDCDCDCE2DCDCDCDCDCDCDCDCE2DCDCDCDCE2DCDCDCE2DCDCE2E2DCDCDCE2DCDCDCDCDCE2DCDCE2DCDCDCDCDCDCE2E2DCDCDCDCDCE2E2DCDCDCDCDCE2DCDCDCE2DCDCDCDCDCE2DCDCDCDCDCE2E2DCDCDCDCDCDCDCDCDCDC
310
E2E2DCDCDCE2E2DCDCDCDCDCE2E2DCDCDCDCDCDCDCDCDCDCDCDCDCDCE2DCE2E2E2E2E2E2E2E2E2E2E2E2E2E2E2E2E2E2E2E2E2E2E2E2E2E2E2E2E2E2BEE2E2E2E2E2E2E2E2E2E2E2E2E2E2E2E2E2E2E2E2E2E2E2E2E2E2E2E2E2E2E2E2E2E2E2E2E2E2E2E2E2E2E2E2E2E2BEE2E2E2E2E2BEE2BEE2BEE2BEE2BEE2E2BEE2E2
310
E2E2E2E2E2E2E2E2E2E2E2E2E2E2E2E2DCDCE2E2DCDCDCE2E2DCDCDCDCDCE2E2DCE2DCDCDCDCDCDCDCE2DCE2E2E2DCDCDCDCDCDCDCE2E2DCDCDCDCDCDCDCDCDCDCDCE2E2DCDCDCE2DCDCDCDCDCDCDCDCDCDCDCDCDCDCDCE2E2DCDCE2DCDCE2E2DCDCDCDCDCE2DCDCDCDCDCDCDCDCDCDCDCE2DCDCDCE2E2DCDCDCDCDCDCDCDC
310
DCDCE2E2DCDCDCE2E2DCE2DCDCDCE2E2DCDCDCDCDCDCDCDCDCDCDCDCDCDCDCDCE2E2E2E2E2E2E2E2E2E2E2E2E2E2E2E2E2E2E2E2E2E2E2E2E2E2E2E2E2E2BEE2E2E2E2E2E2E2E2E2E2E2E2E2E2E2E2E2E2E2E2E2E2E2E2E2E2E2E2E2E2E2E2E2E2E2E2E2E2E2E2E2E2E2E2E2E2BEE2E2E2E2E2BEE2BEE2BEE2BEE2BEE2E2BE
310
E2E2E2E2E2E2E2E2E2E2E2E2E2E2E2E2E2E2DCDCE2E2DCDCDCE2DCDCDCDCDCDCE2E2DCDCDCDCDCE2DCDCDCE2DCDCE2E2DCDCDCDCDCDCDCE2E2DCDCDCDCDCDCDCDCE2DCDCE2E2DCDCDCE2DCDCE2DCDCE2DCDCDCDCDCDCDCDCDCE2E2DCDCDCDCDCE2E2DCDCDCDCDCE2DCDCDCDCDCDCDCDCDCDCDCE2DCDCDCE2E2DCDCE2DCDCDC
310
DCDCDCDCE2DCDCDCE2DCE2DCDCDCDCDCDCE2DCDCDCDCDCDCDCDCDCDCDCDCDCDCE2DCE2E2E2E2E2E2E2E2E2E2E2E2E2E2E2E2E2E2E2E2E2E2E2E2E2E2E2E2E2E2BEE2E2E2E2E2E2E2E2E2E2E2E2E2E2E2E2E2E2E2E2E2E2E2E2E2E2E2E2E2E2E2E2E2E2E2E2E2E2E2E2E2E2E2E2E2E2BEE2E2E2E2E2BEE2BEE2BEE2BEE2BEE2
310
E2BEE2E2E2E2E2E2E2E2E2E2E2E2E2E2E2E2E2E2DCDCDCDCDCDCDCDCDCDCDCDCDCDCDCDCDCDCDCDCDCDCDCDCDCDCDCDCE2E2E2E2E2E2E2E2E2E2E2E2E2E2E2E2E2E2E2E2E2E2E2E2E2E2E2E2E2E2E2E2E2E2E2E2E2E2E2E2E2E2E2E2E2E2E2E2E2E2E2E2E2E2E2E2E2E2E2E2E2E2E2E2E2E2E2E2E2E2E2E2E2E2E2E2E2E2E2
310
E2E2E2E2E2E2E2E2E2E2E2E2E2E2E2E2E2E2E2E2E2E2E2E2E2E2E2E2E2E2E2E2E2E2E2E2E2E2E2E2E2E2E2E2E2E2E2E2E2E2E2E2E2E2E2E2E2E2E2E2E2E2E2E2E2E2BEE2E2E2E2E2E2E2E2E2E2E2E2E2E2E2E2E2E2E2E2E2E2E2E2E2E2E2E2E2E2E2E2E2E2E2E2E2E2E2E2E2E2E2E2E2E2BEE2E2E2E2E2BEE2BEE2BEE2BEE2
310
BEE2E2BEE2E2E2E2E2E2E2E2E2E2E2E2E2E2E2E2E2E2DCDCDCDCDCDCDCE2E2DCDCDCE2E2DCDCDCDCDCDCDCDCDCDCDCDCDCDCE2E2E2E2E2E2E2E2E2E2E2E2E2E2E2E2E2E2E2E2E2E2E2E2E2E2E2E2E2E2E2E2E2E2E2E2E2E2E2E2E2E2E2E2E2E2E2E2E2E2E2E2E2E2E2E2E2E2E2E2E2E2E2E2E2E2E2E2E2E2E2E2E2E2E2E2E2
310
E2E2E2E2E2E2E2E2E2E2E2E2E2E2E2E2E2E2E2E2E2E2E2E2E2E2E2E2E2E2E2E2E2E2E2E2E2E2E2E2E2E2E2E2E2E2E2E2E2E2E2E2E2E2E2E2E2E2E2E2E2E2E2E2E2E2E2E2BEE2E2E2E2E2E2E2E2E2E2E2E2E2E2E2E2E2E2E2E2E2E2E2E2E2E2E2E2E2E2E2E2E2E2E2E2E2E2E2E2E2E2E2E2E2E2BEE2E2E2E2E2BEE2BEE2BEE2
310
BEE2BEE2E2BEE2E2E2E2E2E2E2E2E2E2E2E2E2E2E2E2E2E2DCDCDCDCDCDCDCE2E2DCDCDCE2E2DCDCDCDCDCDCDCDCE2DCDCDCDCE2E2E2E2E2E2E2E2E2E2E2E2E2E2E2E2E2E2E2E2E2E2E2E2E2E2E2E2E2E2E2E2E2E2E2E2E2E2E2E2E2E2E2E2E2E2E2E2E2E2E2E2E2E2E2E2E2E2E2E2E2E2E2E2E2E2E2E2E2E2E2E2E2E2E2E2
310
E2E2E2E2E2E2E2E2E2E2E2E2E2E2E2E2E2E2E2E2E2E2E2E2E2E2E2E2E2E2E2E2E2E2E2E2E2E2E2E2E2E2E2E2E2E2E2E2E2E2E2E2E2E2E2E2E2E2E2E2E2E2E2E2E2E2E2E2E2E2BEE2E2E2E2E2E2E2E2E2E2E2E2E2E2E2E2E2E2E2E2E2E2E2E2E2E2E2E2E2E2E2E2E2E2E2E2E2E2E2E2E2E2E2E2E2E2BEE2E2E2E2E2BEE2BEE2
310
BEE2BEE2BEE2E2BEE2E2E2E2E2E2E2E2E2E2E2E2E2E2E2E2E2E2E2E2E2E2E2E2E2E2E2E2E2E2E2E2E2E2E2E2E2E2E2E2E2E2E2E2E2E2E2E2E2E2E2E2E2E2E2E2E2E2E2E2E2E2E2E2E2E2E2E2E2E2E2E2E2E2E2E2E2E2E2E2E2E2E2E2E2E2E2E2E2E2E2E2E2E2E2E2E2E2E2E2E2E2E2E2E2E2E2E2E2E2E2E2E2E2E2E2E2E2E2
310
E2E2E2E2E2E2E2E2E2E2E2E2E2E2E2E2E2E2E2E2E2E2E2E2E2E2E2E2E2E2E2E2E2E2E2E2E2E2E2E2E2E2E2E2E2E2E2E2E2E2E2E2E2E2E2E2E2E2E2E2E2E2E2E2E2E2E2E2E2E2E2E2BEE2E2E2E2E2E2E2E2E2E2E2E2E2E2E2E2E2E2E2E2E2E2E2E2E2E2E2E2E2E2E2E2E2E2E2E2E2E2E2E2E2E2E2E2E2E2BEE2E2E2E2E2BEE2
310
BEE2BEE2BEE2BEE2E2BEE2E2E2E2E2E2E2E2E2E2E2E2E2E2E2E2E2E2E2E2E2E2E2E2E2E2E2E2E2E2E2E2E2E2E2E2E2E2E2E2E2E2E2E2E2E2E2E2E2E2E2E2E2E2E2E2E2E2E2E2E2E2E2E2E2E2E2E2E2E2E2E2E2E2E2E2E2E2E2E2E2E2E2E2E2E2E2E2E2E2E2E2E2E2E2E2E2E2E2E2E2E2E2E2E2E2E2E2E2E2E2E2E2E2E2E2E2
310
E2E2E2E2E2E2E2E2E2E2E2E2E2E2E2E2E2E2E2E2E2E2E2E2E2E2E2E2E2E2E2E2E2E2E2E2E2E2E2E2E2E2E2E2E2E2E2E2E2E2E2E2E2E2E2E2E2E2E2E2E2E2E2E2E2E2E2E2E2E2E2E2E2E2BEE2E2E2E2E2E2E2E2E2E2E2E2E2E2E2E2E2E2E2E2E2E2E2E2E2E2E2E2E2E2E2E2E2E2E2E2E2E2E2E2E2E2E2E2E2E2BEE2E2E2E2E2
310
BEE2BEE2BEE2BEE2BEE2E2BEE2E2E2E2E2E2E2E2E2E2E2E2E2E2E2E2E2E2E2E2E2E2E2E2E2E2E2E2E2E2E2E2E2E2E2E2E2E2E2E2E2E2E2E2E2E2E2E2E2E2E2E2E2E2E2E2E2E2E2E2E2E2E2E2E2E2E2E2E2E2E2E2E2E2E2E2E2E2E2E2E2E2E2E2E2E2E2E2E2E2E2E2E2E2E2E2E2E2E2E2E2E2E2E2E2E2E2E2E2E2E2E2E2E2E2
310
E2E2E2E2E2E2E2E2E2E2E2E2E2E2E2E2E2E2E2E2E2E2E2E2E2E2E2E2E2E2E2E2E2E2E2E2E2E2E2E2E2E2E2E2E2E2E2E2E2E2E2E2E2E2E2E2E2E2E2E2E2E2E2E2E2E2E2E2E2E2E2E2E2E2E2E2BEE2E2E2E2E2E2E2E2E2E2E2E2E2E2E2E2E2E2E2E2E2E2E2E2E2E2E2E2E2E2E2E2E2E2E2E2E2E2E2E2E2E2E2E2E2E2BEE2E2E2
310
E2E2BEE2BEE2BEE2BEE2BEE2E2BEE2E2E2E2E2E2E2E2E2E2E2E2E2E2E2E2E2E2E2E2E2E2E2E2E2E2E2E2E2E2E2E2E2E2E2E2E2E2E2E2E2E2E2E2E2E2E2E2E2E2E2E2E2E2E2E2E2E2E2E2E2E2E2E2E2E2E2E2E2E2E2E2E2E2E2E2E2E2E2E2E2E2E2E2E2E2E2E2E2E2E2E2E2E2E2E2E2E2E2E2E2E2E2E2E2E2E2E2E2E2E2E2E2
310
E2E2E2E2E2E2E2E2E2E2E2E2E2E2DCDCDCDCE2DCDCDCDCDCDCDCE2E2DCE2DCE2E2DCE2DCE2DCE2E2DCE2DCDCE2DCE2DCDCDCDCDCE2E2E2E2E2E2E2E2E2E2E2E2E2E2E2E2E2E2E2E2E2E2E2E2E2E2BEE2E2E2E2E2E2E2E2E2E2E2E2E2E2E2E2E2E2E2E2E2E2E2E2E2E2E2E2E2E2E2E2E2E2E2E2E2E2E2E2E2E2E2E2E2E2BEE2
310
E2E2E2E2BEE2BEE2BEE2BEE2BEE2E2BEE2E2E2E2E2E2E2E2E2E2E2E2E2E2E2E2E2E2E2E2E2E2E2E2E2E2E2E2E2E2E2E2E2E2E2E2E2E2E2E2E2E2E2E2E2E2E2E2E2E2E2E2E2E2E2E2E2E2E2E2E2E2E2E2E2E2E2E2E2E2E2E2E2E2E2E2E2E2E2E2E2E2E2E2E2E2E2E2E2E2E2E2E2E2E2E2E2E2E2E2E2E2E2E2E2E2E2E2E2E2E2
310
E2E2E2E2E2E2E2E2E2E2E2E2E2E2E2E2DCDCE2DCDCDCDCDCDCDCDCDCE2E2DCDCDCE2E2DCDCDCDCDCE2E2DCDCDCE2E2DCDCDCDCDCE2DCE2E2E2E2E2E2E2E2E2E2E2E2E2E2E2E2E2E2E2E2E2E2E2E2E2E2BEE2E2E2E2E2E2E2E2E2E2E2E2E2E2E2E2E2E2E2E2E2E2E2E2E2E2E2E2E2E2E2E2E2E2E2E2E2E2E2E2E2E2E2E2E2E2
310
BEE2E2E2E2E2BEE2BEE2BEE2BEE2BEE2E2BEE2E2E2E2E2E2E2E2E2E2E2E2E2E2E2E2E2E2E2E2E2E2E2E2E2E2E2E2E2E2E2E2E2E2E2E2E2E2E2E2E2E2E2E2E2E2E2E2E2E2E2E2E2E2E2E2E2E2E2E2E2E2E2E2E2E2E2E2E2E2E2E2E2E2E2E2E2E2E2E2E2E2E2E2E2E2E2E2E2E2E2E2E2E2E2E2E2E2E2E2E2E2E2E2E2E2E2E2E2
310
E2E2E2E2E2E2E2E2E2E2E2E2E2E2E2E2E2E2DCDCE2DCDCDCDCDCDCDCDCDCE2DCDCDCDCE2E2DCDCE2DCDCE2E2DCDCDCDCE2DCDCDCDCDCDCDCE2E2E2E2E2E2E2E2E2E2E2E2E2E2E2E2E2E2E2E2E2E2E2E2E2E2BEE2E2E2E2E2E2E2E2E2E2E2E2E2E2E2E2E2E2E2E2E2E2E2E2E2E2E2E2E2E2E2E2E2E2E2E2E2E2E2E2E2E2E2E2
310
E2E2BEE2E2E2E2E2BEE2BEE2BEE2BEE2BEE2E2BEE2E2E2E2E2E2E2E2E2E2E2E2E2E2E2E2E2E2E2E2E2E2E2E2E2E2E2E2E2E2E2E2E2E2E2E2E2E2E2E2E2E2E2E2E2E2E2E2E2E2E2E2E2E2E2E2E2E2E2E2E2E2E2E2E2E2E2E2E2E2E2E2E2E2E2E2E2E2E2E2E2E2E2E2E2E2E2E2E2E2E2E2E2E2E2E2E2E2E2E2E2E2E2E2E2E2E2
310
E2E2E2E2E2E2E2E2E2E2E2E2E2E2E2E2E2E2E2E2DCDCDCE2DCDCDCDCDCE2DCDCE2DCE2E2DCDCDCDCE2DCDCDCE2E2DCDCE2DCDCDCDCDCE2E2E2E2E2E2E2E2E2E2E2E2E2E2E2E2E2E2E2E2E2E2E2E2E2E2E2E2E2E2BEE2E2E2E2E2E2E2E2E2E2E2E2E2E2E2E2E2E2E2E2E2E2E2E2E2E2E2E2E2E2E2E2E2E2E2E2E2E2E2E2E2E2
310
E2E2E2E2BEE2E2E2E2E2BEE2BEE2BEE2BEE2BEE2E2BEE2E2E2E2E2E2E2E2E2E2E2E2E2E2E2E2E2E2E2E2E2E2E2E2E2E2E2E2E2E2E2E2E2E2E2E2E2E2E2E2E2E2E2E2E2E2E2E2E2E2E2E2E2E2E2E2E2E2E2E2E2E2E2E2E2E2E2E2E2E2E2DCDCDCDCDCDCDCDCDCDCDCDCDCDCDCDCDCDCDCDCDCDCDCDCDCDCDCDCDCDCDCDCDCDC
310
DCDCDCDCDCDCDCDCDCDCDCDCDCDCDCDCDCDCDCDCDCE2DCDCDCDCDCDCDCDCDCDCDCDCDCDCE2E2DCDCE2DCDCDCDCDCE2E2DCDCDCDCE2DCDCDCE2E2E2E2E2E2E2E2E2E2E2E2E2E2E2E2E2E2E2E2E2E2E2E2E2E2E2E2E2E2BEE2E2E2E2E2E2E2E2E2E2E2E2E2E2E2E2E2E2E2E2E2E2E2E2E2E2E2E2E2E2E2E2E2E2E2E2E2E2E2E2
310
E2E2E2E2E2E2BEE2E2E2E2E2BEE2BEE2BEE2BEE2BEE2E2BEE2E2E2E2E2E2E2E2E2E2E2E2E2E2E2E2E2E2E2E2E2E2E2E2E2E2E2E2E2E2E2E2E2E2E2E2E2E2E2E2E2E2E2E2E2E2E2E2E2E2E2E2E2E2E2E2E2E2E2E2E2E2E2E2E2E2E2E2E2DCDCE2E2E2E2E2E2E2E2E2E2E2E2E2E2E2E2E2E2E2E2E2E2E2E2E2E2E2E2E2E2E2E2
310
E2E2E2E2E2E2E2E2E2E2E2E2E2E2E2E2E2E2E2E2E2E2E2E2DCDCE2DCDCDCDCE2DCDCDCDCDCDCE2E2DCDCE2DCDCDCDCDCE2E2DCDCDCDCDCE2DCDCE2E2E2E2E2E2E2E2E2E2E2E2E2E2E2E2E2E2E2E2E2E2E2E2E2E2E2E2E2E2BEE2E2E2E2E2E2E2E2E2E2E2E2E2E2E2E2E2E2E2E2E2E2E2E2E2E2E2E2E2E2E2E2E2E2E2E2E2E2
310
E2E2E2E2E2E2E2E2BEE2E2E2E2E2BEE2BEE2BEE2BEE2BEE2E2BEE2E2E2E2E2E2E2E2E2E2E2E2E2E2E2E2E2E2E2E2E2E2E2E2E2E2E2E2E2E2E2E2E2E2E2E2E2E2E2E2E2E2E2E2E2E2E2E2E2E2E2E2E2E2E2E2E2E2E2E2E2E2E2E2E2E2DCDCDCE2E2E2E2E2E2E2E2E2E2E2E2E2E2E2E2E2E2E2E2E2E2E2E2E2E2E2E2E2E2E2E2
310
E2E2E2E2E2E2E2E2E2E2E2E2E2E2E2E2E2E2E2E2E2E2E2E2E2E2E2E2E2E2E2E2E2E2E2E2E2E2E2E2E2E2E2E2E2E2E2E2E2E2E2E2E2E2E2E2E2E2E2E2E2E2E2E2E2E2E2E2E2E2E2E2E2E2E2E2E2E2E2E2E2E2E2E2E2E2E2E2E2E2BEE2E2E2E2E2E2E2E2E2E2E2E2E2E2E2E2E2E2E2E2E2E2E2E2E2E2E2E2E2E2E2E2E2E2E2E2
310
E2E2E2E2E2E2E2E2E2E2BEE2E2E2E2E2BEE2BEE2BEE2BEE2BEE2E2BEE2E2E2E2E2E2E2E2E2E2E2E2E2E2E2E2E2E2E2E2E2E2E2E2E2E2E2E2E2E2E2E2E2E2E2E2E2E2E2DCE2E2E2E2E2E2E2E2E2E2E2E2E2E2E22D2D2D2DE2E2E2E2E2DCDCE2E2E2E2E2E2E2E2E2E2E2E2E2E2E2E2E2E2E2E2E2E2E2E2E2E2E2E2E2E2E2E2E2
310
E2E2E2E2E2E2E2E2E2E2E2E2E2E2E2E2E2E2E2E2E2E2E2E2E2E2E2E2E2E2E2E2E2E2E2E2E2E2E2E2E2E2E2E2E2E2E2E2E2E2E2E2E2E2E2E2E2E2E2E2E2E2E2E2E2E2E2E2E2E2E2E2E2E2E2E2E2E2E2E2E2E2E2E2E2E2E2E2E2E2E2E2BEE2E2E2E2E2E2E2E2E2E2E2E2E2E2E2E2E2E2E2E2E2E2E2E2E2E2E2E2E2E2E2E2E2E2
310
E2E2E2E2E2E2E2E2E2E2E2E2BEE2E2E2E2E2BEE2BEE2BEE2BEE2BEE2E2BEE2E2E2E2E2E2E2E2E2E2E2E2E2E2E2E2E2E2E2E2E2E2E2E2E2E2E2E2E2E2E2E2E2E2E2E2E2E2E2DCE2E2E2E2E2E2E2E2E2E2E2E2E2E2E22DE2E2E22DE2E2DCDCE2E2E2E2E2E2E2E2E2E2E2E2E2E2E2E2E2E2E2E2E2E2E2E2E2E2E2E2E2E2E2E2E2
310
E2E2E2E2E2E2E2E2E2E2E2E2E2E2E2E2E2E2E2E2E2E2E2E2E2E2E2E2E2E2E2E2E2E2E2E2E2E2E2E2E2E2E2E2E2E2E2E2E2E2E2E2E2E2E2E2E2E2E2E2E2E2E2E2E2E2E2E2E2E2E2E2E2E2E2E2E2E2E2E2E2E2E2E2E2E2E2E2E2E2E2E2E2E2BEE2E2E2E2E2E2E2E2E2E2E2E2E2E2E2E2E2E2E2E2E2E2E2E2E2E2E2E2E2E2E2E2
310
E2E2E2E2E2E2E2E2E2E2E2E2E2E2BEE2E2E2E2E2BEE2BEE2BEE2BEE2BEE2E2BEE2E2E2E2E2E2E2E2E2E2E2E2E2E2E2E2E2E2E2E2E2E2E2E2E2E2E2E2E2E2E2E2E2E2E2E2E2E2DCE2E2E2E2E2E2E2E2E2E2E2E2E2E2E22DDCDCDCE22D2DDCDCE2E2E2E2E2E2E2E2E2E2E2E2E2E2E2E2E2E2E2E2E2E2E2E2E2E2E2E2E2E2E2E2
310
E2E2E2E2E2E2E2E2E2E2E2E2E2E2E2E2E2E2E2E2E2E2E2E2E2E2E2E2E2E2E2E2DCDCDCDCDCDCDCE2DCDCDCE2E2E2DCDCDCDCDCE2E2E2E2E2E2E2E2E2E2E2E2E2E2E2E2E2E2E2E2E2E2E2E2E2E2E2E2E2E2E2E2E2E2E2E2E2E2E2E2E2E2E2E2E2BEE2E2E2E2E2E2E2E2E2E2E2E2E2E2E2E2E2E2E2E2E2E2E2E2E2E2E2E2E2E2
310
E2E2E2E2E2E2E2E2E2E2E2E2E2E2E2E2BEE2E2E2E2E2BEE2BEE2BEE2BEE2BEE2E2BEE2E2E2E2E2E2E2E2E2E2E2E2E2E2E2E2E2E2E2E2E2E2E2E2E2E2E2E2E2E2E2E2E2E2E2E2E2E2DCE2E2E2E2E2E2E2E2E2E2E2E2E2E2E22DE2DCDCDCE22DE2E2E2E2E2E2E2E2E2E2E2E2E2E2E2E2DCDCDCDCDCDCDCDCDCDCDCDCDCDCDCDC
310
DCDCDCDCDCDCDCDCDCDCDCDCDCDCDCDCDCDCDCDCDCDCDCDCDCDCDCDCDCDCDCDCDCE2DCDCDCDCDCDCE2E2DCDCDCDCE2E2DCDCDCDCDCDCE2E2E2E2E2E2E2E2E2E2E2E2E2E2E2E2E2E2E2E2E2E2E2E2E2E2E2E2E2E2E2E2E2E2E2E2E2E2E2E2E2E2E2E2BEE2E2E2E2E2E2E2E2E2E2E2E2E2E2E2E2E2E2E2E2E2E2E2E2E2E2E2E2
310
E2E2E2E2E2E2E2E2E2E2E2E2E2E2E2E2E2E2BEE2E2E2E2E2BEE2BEE2BEE2BEE2BEE2E2BEE2E2E2E2E2E2E2E2E2E2E2E2E2E2E2E2E2E2E2E2E2E2E2E2E2E2E2E2E2E2E2E2E2E2E2E2E2E2DCE2E2E2E2E2E2E2E2E2E2E2E2E2E2E2E22DE2E2E22DE2E2E2E2E2E2E2E2E2E2E2E2E2E2DCDCDCE2E2E2E2E2E2E2E2E2E2E2E2E2E2
310
E2E2E2E2E2E2E2E2E2E2E2E2E2E2E2E2E2E2E2E2E2E2E2E2E2E2E2E2E2E2E2E2E2E2E2E2DCDCDCDCDCDCDCE2DCDCDCDCE2DCDCDCDCDCDCDCDCE2E2E2E2E2E2E2E2E2E2E2E2E2E2E2E2E2E2E2E2E2E2E2E2E2E2E2E2E2E2E2E2E2E2E2E2E2E2E2E2E2E2E2BEE2E2E2E2E2E2E2E2E2E2E2E2E2E2E2E2E2E2E2E2E2E2E2E2E2E2
310
E2E2E2E2E2E2E2E2E2E2E2E2E2E2E2E2E2E2E2E2BEE2E2E2E2E2BEE2BEE2BEE2BEE2BEE2E2BEE2E2E2E2E2E2E2E2E2E2E2E2E2E2E2E2E2E2E2E2E2E2E2E2E2E2E2E2E2E2E2E2E2E2E2E2E2DCE2E2E2E2E2E2E2E2E2E2E2E2E2E2E2E2E22D2D2D2D2DE2E2E2E2E2E2E2E2E2E2E2E2DCDCE2E2E2E2E2E2E2E2E2E2E2E2E2E2E2
310
E2E2E2E2E2E2E2E2E2E2E2E2E2E2E2E2E2E2E2E2E2E2E2E2E2E2E2E2E2E2E2E2E2E2E2E2E2E2E2E2E2E2E2E2E2E2E2E2E2E2E2E2E2E2E2E2E2E2E2E2E2E2E2E2E2E2E2E2E2E2E2E2E2E2E2E2E2E2E2E2E2E2E2E2E2E2E2E2E2E2E2E2E2E2E2E2E2E2E2E2E2E2BEE2E2E2E2E2E2E2E2E2E2E2E2E2E2E2E2E2E2E2E2E2E2E2E2
310
E2E2E2E2E2E2E2E2E2E2E2E2E2E2E2E2E2E2E2E2E2E2BEE2E2E2E2E2BEE2BEE2BEE2BEE2BEE2E2BEE2E2E2E2E2E2E2E2E2E2E2E2E2E2E2E2E2E2E2E2E2E2E2E2E2E2E2E2E2E2E2E2E2E2E2E2E2DCDCDCDCDCDCDCDCDCDCDCDCDCDCDCDCDCDCDC2DE22DDCDCDCDCDCDCDCDCDCDCDCDCDCDCDCDCDCDCDCDCDCDCDCDCE2E2E2E2
310
E2E2E2E2E2E2E2E2E2E2E2E2E2E2E2E2E2E2E2E2E2E2E2E2E2E2E2E2E2E2E2E2E2E2E2E2E2E2E2E2E2E2E2E2E2E2E2E2E2E2E2E2E2E2E2E2E2E2E2E2E2E2E2E2E2E2E2E2E2E2E2E2E2E2E2E2E2E2E2E2E2E2E2E2E2E2E2E2E2E2E2E2E2E2E2E2E2E2E2E2E2E2E2E2BEE2E2E2E2E2E2E2E2E2E2E2E2E2E2E2E2E2E2E2E2E2E2
310
E2E2E2E2E2E2E2E2E2E2E2E2E2E2E2E2E2E2E2E2E2E2E2E2BEE2E2E2E2E2BEE2BEE2BEE2BEE2BEE2E2BEE2E2E2E2E2E2E2E2E2E2E2E2E2E2E2E2E2E2E2E2E2E2E2E2E2E2E2E2E2E2E2E2E2E2E2E2E2DCDCDCDCDCDCDCDCDCDCDCDCDCDCDCDCDCDCDC2DDC2DDCDCDCDCDCDCDCDCDCDCDCDCDCDCDCDCDCDCDCDCDCDCDCDCBEE2
310
E2E2E2E2E2E2E2E2E2E2E2E2E2E2E2E2E2E2E2E2E2E2E2E2E2E2E2E2E2E2E2E2E2E2E2E2E2E2E2E2E2E2E2E2E2E2E2E2E2E2E2E2E2E2E2E2E2E2E2E2E2E2E2E2E2E2E2E2E2E2E2E2E2E2E2E2E2E2E2E2E2E2E2E2E2E2E2E2E2E2E2E2E2E2E2E2E2E2E2E2E2E2E2E2E2E2BEE2E2E2E2E2E2E2E2E2E2E2E2E2E2E2E2E2E2E2E2
310
E2E2E2E2E2E2E2E2E2E2E2E2E2E2E2E2E2E2E2E2E2E2E2E2E2E2BEE2E2E2E2E2BEE2BEE2BEE2BEE2BEE2E2BEE2E2E2E2E2E2E2E2E2E2E2E2E2E2E2E2E2E2E2E2E2E2E2E2E2E2E2E2E2E2E2E2E2E2E2E2E2DC2D2D2D2D2D2D2D2D2D2D2D2D2D2D83832D2DDCE2DC2D2D83832D2D2D2D2D2D2D2D2D2D2D2D2D2D2D2D2D2D2D2D
310
2DE2E2E2E2E2E2E2E2E2E2E2E2E2E2E2E2E2E2E2E2E2E2E2E2E2E2E2E2E2E2E2E2E2E2E2E2E2E2E2E2E2E2E2E2E2E2E2E2E2E2E2E2E2E2E2E2E2E2E2E2E2E2E2E2E2E2E2E2E2E2E2E2E2E2E2E2E2E2E2E2E2E2E2E2E2E2E2E2E2E2E2E2E2E2E2E2E2E2E2E2E2E2E2E2E2E2E2BEE2E2E2E2E2E2E2E2E2E2E2E2E2E2E2E2E2E2
310
E2E2E2E2E2E2E2E2E2E2E2E2E2E2E2E2E2E2E2E2E2E2E2E2E2E2E2E2BEE2E2E2E2E2BEE2BEE2BEE2BEE2BEE2E2BEE2E2E2E2E2E2E2E2E2E2E2E2E2E2E2E2E2E2E2E2E2E2E2E2E2E2E2E2E2E2E2E2E2E2E2E2E2DC2D83832D2D2D2D83832D2D2D2D2D83832D2DE2E2E22D2D83832D2D2D2DE2E2E2E2E2E2E2E2E2E2E2E2E2E2
310
E2E2BEBEBEE2E2E2E2E2E2E2E2E2E2E2E2E2E2E2E2E2E2E2E2E2E2E2E2E2E2E2E2E2E2E2E2E2E2E2E2E2E2E2E2E2E2E2E2E2E2E2E2E2E2E2E2E2E2E2E2E2E2E2E2E2E2E2E2E2E2E2E2E2E2E2E2E2E2E2E2E2E2E2E2E2E2E2E2E2E2E2E2E2E2E2E2E2E2E2E2E2E2E2E2E2E2E2E2E2BEE2E2E2E2E2E2E2E2E2E2E2E2E2E2E2E2
310
E2E2E2E2E2E2E2E2E2E2E2E2E2E2E2E2E2E2E2E2E2E2E2E2E2E2E2E2E2E2BEE2E2E2E2E2BEE2BEE2BEE2BEE2BEE2E2BEE2E2E2E2E2E2E2E2E2E2E2E2E2E2E2E2E2E2E2E2E2E2E2E2E2E2E2E2E2E2E2E2E2E2E2E2E2DCE28383E2E2E2E28383E2DCDCE2E28383E2DCDCDCDCDC8383E22D2D2D2D2D2D2D2D2D2D2D2D2D2D2D2D
310
2D2D2D2D2D2DE2E2E2E2E2E2E2E2E2E2E2E2E2E2E2E2E2E2E2E2E2E2E2E2E2E2E2E2E2E2E2E2E2E2E2E2E2E2E2E2E2E2E2E2E2E2E2E2E2E2E2E2E2E2E2E2E2E2E2E2E2E2E2E2E2E2E2E2E2E2E2E2E2E2E2E2E2E2E2E2E2E2E2E2E2E2E2E2E2E2E2E2E2E2E2E2E2E2E2E2E2E2E2E2E2E2BEE2E2E2E2E2E2E2E2E2E2E2E2E2E2
310
E2E2E2E2E2E2E2E2E2E2E2E2E2E2E2E2E2E2E2E2E2E2E2E2E2E2E2E2E2E2E2E2BEE2E2E2E2E2BEE2BEE2BEE2BEE2BEE2E2BEE2E2E2E2E2E2E2E2E2E2E2E2E2E2E2E2E2E2E2E2E2E2E2E2E2E2E2E2E2E2E2E2E2E2E2E2DCE28383E2E2E2E2E28383E2DCDCE2E283E2E2E2E2E2E2E28383E2E2E2E2E2E2E2E2E2E2E2E2E2E2E2
310
E2E2E2E2E2E2E2E2BEE2E2E2E2E2E2E2E2E2E2E2E2E2E2E2E2E2E2E2E2E2E2E2E2E2E2E2E2E2E2E2E2E2E2E2E2E2E2E2E2E2E2E2E2E2E2E2E2E2E2E2E2E2E2E2E2E2E2E2E2E2E2E2E2E2E2E2E2E2E2E2E2E2E2E2E2E2E2E2E2E2E2E2E2E2E2E2E2E2E2E2E2E2E2E2E2E2E2E2E2E2E2E2E2E2BEE2E2E2E2E2E2E2E2E2E2E2E2
310
E2E2E2E2E2E2E2E2E2E2E2E2E2E2E2E2E2E2E2E2E2E2E2E2E2E2E2E2E2E2E2E2E2E2BEE2E2E2E2E2BEE2BEE2BEE2BEE2BEE2E2BEE2E2E2E2E2E2E2E2E2E2E2E2E2E2E2E2E2E2E2E2E2E2E2E2E2E2E2E2E2E2E2E2E2E2E2E2DCE28383E2E2E2E28383E2E2E2E2DC8383E2E2E2E2E2E28383E2E2E2E2E2E2E2E2E2E2E2E2E2E2
310
E2E2E2E2E2E2E2E2E2E2BEE2E2E2E2E2E2E2E2E2E2E2E2E2E2E2E2E2E2E2E2E2E2E2E2E2E2E2E2E2E2E2E2E2E2E2E2E2E2E2E2E2E2E2E2E2E2E2E2E2E2E2E2E2E2E2E2E2E2E2E2E2E2E2E2E2E2E2E2E2E2E2E2E2E2E2E2E2E2E2E2E2E2E2E2E2E2E2E2E2E2E2E2E2E2E2E2E2E2E2E2E2E2E2E2E2BEE2E2E2E2E2E2E2E2E2E2
310
E2E2E2E2E2E2E2E2E2E2E2E2E2E2E2E2E2E2E2E2E2E2E2E2E2E2E2E2E2E2E2E2E2E2E2E2BEE2E2E2E2E2BEE2BEE2BEE2BEE2BEE2E2BEE2E2E2E2E2E2E2E2E2E2E2E2E2E2E2E2E2E2E2E2E2E2E2E2E2E2E2E2E2E2E2E2E2E2E2E2DCE28383E2E2E2E28383E2E2E2E2DC83E2E2E2E2E2E2E283E2E2E2E2E2E2E2E2E2E2E2E2E2
310
E2E2E2E2E2E2E2E2E2E2E2E2E2E2E2E2E2E2E2E2E2E2E2E2E2E2E2E2E2E2E2E2E2E2E2E2E2E2E2E2E2E2E2E2E2E2E2E2E2E2E2E2E2E2E2E2E2E2E2E2E2E2E2E2E2E2E2E2E2E2E2E2E2E2E2E2E2E2E2E2E2E2E2E2E2E2E2E2E2E2E2E2E2E2E2E2E2E2E2E2E2E2E2E2E2E2E2E2E2E2E2E2E2E2E2E2E2E2BEE2E2E2E2E2E2E2E2
310
E2E2E2E2E2E2E2E2E2E2E2E2E2E2E2E2E2E2E2E2E2E2E2E2E2E2E2E2E2E2E2E2E2E2E2E2E2E2BEE2E2E2E2E2BEE2BEE2BEE2BEE2BEE2E2BEE2E2E2E2E2E2E2E2E2E2E2E2E2E2E2E2E2E2E2E2E2E2E2E2E2E2E2E2E2E2E2E2E2E2E2E2DCE283E2E2E2E2E28383E2E2E2E28383E2E2E2E2E2E283E2E2E2E2E2E2E2E2E2E2E2E2
310
E2E2E2E2E2E2E2E2E2E2E2E2E2E2E2E2E2E2E2E2E2E2E2E2E2E2E2E2E2E2E2E2E2E2E2E2E2E2E2E2E2E2E2E2E2E2E2E2E2E2E2E2E2E2E2E2DCDCDCDCDCDCDCDCDCDCDCE2E2DCDCDCDCE2DCDCDCDCDCDCE2E2E2E2E2E2E2E2E2E2E2E2E2E2E2E2E2E2E2E2E2E2E2E2E2E2E2E2E2E2E2E2E2E2E2E2E2E2E2E2BEE2E2E2E2E2E2
310
E2E2E2E2E2E2E2E2E2E2E2E2E2E2E2E2E2E2E2E2E2E2E2E2E2E2E2E2E2E2E2E2E2E2E2E2E2E2E2E2BEE2E2E2E2E2BEE2BEE2BEE2BEE2BEE2E2BEE2E2E2E2E2E2E2E2E2E2E2E2E2E2E2E2E2E2E2E2E2E2E2E2E2E2E2E2E2E2E2E2E2E2E2E2DCE283E2E2E2E2E28383E2E2E2E28383DCDCDCDCDCDC83DCDCDCDCDCDCDCDCDCDC
310
DCDCDCDCDCDCDCDCDCDCDCDCDCDCDCDCDCDCDCDCDCDCDCDCDCDCDCDCDCDCDCDCDCDCDCDCDCDCDCDCDCDCDCDCDCDCDCDCDCDCDCDCDCDCDCDCDCE2DCE2DCDCDCDCDCDCDCDCDCE2E2DCDCDCDCDCDCDCDCDCDCDCE2E2E2E2E2E2E2E2E2E2E2E2E2E2E2E2E2E2E2E2E2E2E2E2E2E2E2E2E2E2E2E2E2E2E2E2E2E2E2E2BEE2E2E2E2
310
E2E2E2E2E2E2E2E2E2E2E2E2E2E2E2E2E2E2E2E2E2E2E2E2E2E2E2E2E2E2E2E2E2E2E2E2E2E2E2E2E2E2BEE2E2E2E2E2BEE2BEE2BEE2BEE2BEE2E2BEE2E2E2E2E2E2E2E2E2E2E2E2E2E2E2E2E2E2E2E2E2E2E2E2E2E2E2E2E2E2E2E2E2E2E2E2DCE283E2E2E2E28383E2E2E2E2E283E2E2E2E2E2E283E2E2E2E2E2E2E2E2E2
310
E2E2E2E2E2E2E2E2E2E2E2E2E2E2E2E2E2E2E2E2E2E2E2E2E2E2E2E2E2E2E2E2E2E2E2E2E2E2E2E2E2E2E2E2E2E2E2E2E2E2E2E2E2E2E2E2E2E2E2E2DCDCDCDCDCDCDCE2DCDCDCDCE2DCDCDCDCDCDCDCDCDCDCDCE2E2E2E2E2E2E2E2E2E2E2E2E2E2E2E2E2E2E2E2E2E2E2E2E2E2E2E2E2E2E2E2E2E2E2E2E2E2E2E2BEE2E2
310
E2E2E2E2E2E2E2E2E2E2E2E2E2E2E2E2E2E2E2E2E2E2E2E2E2E2E2E2E2E2E2E2E2E2E2E2E2E2E2E2E2E2E2E2BEE2E2E2E2E2BEE2BEE2BEE2BEE2BEE2E2BEE2E2E2E2E2E2E2E2E2E2E2E2E2E2E2E2E2E2E2E2E2E2E2E2E2E2E2E2E2E2E2E2E2E2E2DCE28383E2E2E2E28383E2E2E2E28383E2E2E2E2E28383E2E2E2E2E2E2E2
310
E2E2E2E2E2E2E2E2E2E2E2E2E2E2E2E2E2E2E2E2E2E2E2E2E2E2E2E2E2E2E2E2E2E2E2E2E2E2E2E2E2E2E2E2E2E2E2E2E2E2E2E2E2E2E2E2E2E2E2E2E2E2E2E2E2E2E2E2E2E2E2E2E2E2E2E2E2E2E2E2E2E2E2E2E2E2E2E2E2E2E2E2E2E2E2E2E2E2E2E2E2E2E2E2E2E2E2E2E2E2E2E2E2E2E2E2E2E2E2E2E2E2E2E2E2E2BE
310
E2E2E2E2E2E2E2E2E2E2E2E2E2E2E2E2E2E2E2E2E2E2E2E2E2E2E2E2E2E2E2E2E2E2E2E2E2E2E2E2E2E2E2E2E2E2BEE2E2E2E2E2BEE2BEE2BEE2BEE2BEE2E2BEE2E2E2E2E2E2E2E2E2E2E2E2E2E2E2E2E2E2E2E2E2E2E2E2E2E2E2E2E2E2E2E2E2E2E2DCE28383E2E2E2E28383E2E2E2E28383E2E2E2E2E283E2E2E2E2E2E2
310
E2E2E2E2E2E2E2E2E2E2E2E2E2E2E2E2E2E2E2E2E2E2E2E2E2E2E2E2E2E2E2E2E2E2E2E2E2E2E2E2E2E2E2E2E2E2E2E2E2E2E2E2E2E2E2E2E2E2E2E2E2E2E2E2E2E2E2E2E2E2E2E2E2E2E2E2E2E2E2E2E2E2E2E2E2E2E2E2E2E2E2E2E2E2E2E2E2E2E2E2E2E2E2E2E2E2E2E2E2E2E2E2E2E2E2E2E2E2E2E2E2E2E2E2E2E2E2
310
E2BEE2E2E2E2E2E2E2E2E2E2E2E2E2E2E2E2E2E2E2E2E2E2E2E2E2E2E2E2E2E2E2E2E2E2E2E2E2E2E2E2E2E2E2E2E2E2BEE2E2E2E2E2BEE2BEE2BEE2BEE2BEE2E2BEE2E2E2E2E2E2E2E2E2E2E2E2E2E2E2E2E2E2E2E2E2E2E2E2E2E2E2E2E2E2E2E2E2E2E2DCE28383E2E2E2E28383E2E2E2E28383E2E2E2E28383E2E2E2E2
310
E2E2E2E2E2E2E2E2E2E2E2E2E2E2E2E2E2E2E2E2E2E2E2E2E2E2E2E2E2E2E2E2E2E2E2E2E2E2E2E2E2E2E2E2E2E2E2E2E2E2E2E2E2E2E2E2E2E2E2E2E2E2E2E2E2E2E2E2E2E2E2E2E2E2E2E2E2E2E2E2E2E2E2E2E2E2E2E2E2E2E2E2E2E2E2E2E2E2E2E2E2E2E2E2E2E2E2E2E2E2E2E2E2E2E2E2E2E2E2E2E2E2E2E2E2E2E2
310
E2E2E2BEE2E2E2E2E2E2E2E2E2E2E2E2E2E2E2E2E2E2E2E2E2E2E2E2E2E2E2E2E2E2E2E2E2E2E2E2E2E2E2E2E2E2E2E2E2E2BEE2E2E2E2E2BEE2BEE2BEE2BEE2BEE2E2BEE2E2E2E2E2E2E2E2E2E2E2E2E2E2E2E2E2E2E2E2E2E2E2E2E2E2E2E2E2E2E2E2E2E2E2DCE28383E2E2E2E28383E2E2E2E28383E2E2E28383E2DCDC
310
E2E2E2E2E2E2E2E2E2E2E2E2E2E2E2E2E2E2E2E2E2E2E2E2E2E2E2E2E2E2E2E2E2E2E2E2E2E2E2E2E2E2E2E2E2E2E2E2E2E2E2E2E2E2E2E2E2E2E2E2E2E2E2E2E2E2E2E2DCDCDCDCDCDCE2DCE2DCDCDCDCE2DCE2E2E2E2E2E2E2E2E2E2E2E2E2E2E2E2E2E2E2E2E2E2E2E2E2E2E2E2E2E2E2E2E2E2E2E2E2E2E2E2E2E2E2E2
310
E2E2E2E2E2BEE2E2E2E2E2E2E2E2E2E2E2E2E2E2E2E2E2E2E2E2E2E2E2E2E2E2E2E2E2E2E2E2E2E2E2E2E2E2E2E2E2E2E2E2E2E2BEE2E2E2E2E2BEE2BEE2BEE2BEE2BEE2E2BEE2E2E2E2E2E2E2E2E2E2E2E2E2E2E2E2E2E2E2E2E2E2E2E2E2E2E2E2E2E2E2E2E2E2E2DCE28383E2E2E2E28383E2E2E2E28383E2E2E28383E2
310
E2E2DCDCE2E2E2E2E2E2E2E2E2E2E2E2E2E2E2E2E2E2E2E2E2E2E2E2E2E2E2E2E2E2E2E2E2E2E2E2E2E2E2E2E2E2E2E2E2E2E2E2E2E2E2E2E2E2E2E2E2E2E2E2E2E2E2E2E2E2DCDCDCDCDCDCE2E2DCDCDCDCDCDCDCE2E2E2E2E2E2E2E2E2E2E2E2E2E2E2E2E2E2E2E2E2E2E2E2E2E2E2E2E2E2E2E2E2E2E2E2E2E2E2E2E2E2
310
E2E2E2E2E2E2E2BEE2E2E2E2E2E2E2E2E2E2E2E2E2E2E2E2E2E2E2E2E2E2E2E2E2E2E2E2E2E2E2E2E2E2E2E2E2E2E2E2E2E2E2E2E2E2BEE2E2E2E2E2BEE2BEE2BEE2BEE2BEE2E2BEE2E2E2E2E2E2E2E2E2E2E2E2E2E2E2E2E2E2E2E2E2E2E2E2E2E2E2E2E2E2E2E2E2E2E2DCE28383E2E2E28383E2E2E2E2E28383E2E28383
310
E2E2E2E2E2E2DCDCE2E2E2E2E2E2E2E2E2E2E2E2E2E2E2E2E2E2E2E2E2E2E2E2E2E2E2E2E2E2E2E2E2E2E2E2E2E2E2E2E2E2E2E2E2E2E2E2E2E2E2E2E2E2E2E2E2E2E2E2E2E2E2E2DCDCDCDCDCDCE2E2DCDCDCDCDCDCE2E2E2E2E2E2E2E2E2E2E2E2E2E2E2E2E2E2E2E2E2E2E2E2E2E2E2E2E2E2E2E2E2E2E2E2E2E2E2E2E2
310
E2E2E2E2E2E2E2E2E2BEE2E2E2E2E2E2E2E2E2E2E2E2E2E2E2E2E2E2E2E2E2E2E2E2E2E2E2E2E2E2E2E2E2E2E2E2E2E2E2E2E2E2E2E2E2E2BEE2E2E2E2E2BEE2BEE2BEE2BEE2BEE2E2BEE2E2E2E2E2E2E2E2E2E2E2E2E2E2E2E2E2E2E2E2E2E2E2E2E2E2E2E2E2E2E2E2E2E2E2DC8383E2E2E2E28383E2E2E2E2E28383E2E2
310
83E2E2E2E2E2E2E2E2E2DCE2E2E2E2E2E2E2E2E2E2E2E2E2E2E2E2E2E2E2E2E2E2E2E2E2E2E2E2E2E2E2E2E2E2E2E2E2E2E2E2E2E2E2E2E2E2E2E2E2E2E2E2E2E2E2E2E2E2E2E2E2E2E2DCDCE2DCDCDCDCE2DCDCDCDCDCDCE2E2DCDCDCE2E2DCDCDCDCE2DCDCDCE2E2E2E2E2E2E2E2E2E2E2E2E2E2E2E2E2E2E2E2E2E2E2E2
310
E2E2E2E2E2E2E2E2E2E2E2BEE2E2E2E2E2E2E2E2E2E2E2E2E2E2E2E2E2E2E2E2E2E2E2E2E2E2E2E2E2E2E2E2E2E2E2E2E2E2E2E2E2E2E2E2E2E2BEE2E2E2E2E2BEE2BEE2BEE2BEE2BEE2E2BEE2E2E2E2E2E2E2E2E2E2E2E2E2E2E2E2E2E2E2E2E2E2E2E2E2E2E2E2E2E2E2E2E2E2E2DC8383E2E2E2E28383E2E2E2E2E28383
310
E28383E2E2E2E2E2E2E2E2E2E2DCDCE2E2E2E2E2E2E2E2E2E2E2E2E2E2E2E2E2E2E2E2E2E2E2E2E2E2E2E2E2E2E2E2E2E2E2E2E2E2E2E2E2E2E2E2E2E2E2E2E2E2E2E2E2E2E2E2E2E2E2E2E2DCDCDCDCDCDCDCDCDCDCDCDCDCDCE2E2DCDCDCE2DCE2DCDCDCDCDCDCDCE2E2E2E2E2E2E2E2E2E2E2E2E2E2E2E2E2E2E2E2E2E2
310
E2E2E2E2E2E2E2E2E2E2E2E2E2BEE2E2E2E2E2E2E2E2E2E2E2E2E2E2E2E2E2E2E2E2E2E2E2E2E2E2E2E2E2E2E2E2E2E2E2E2E2E2E2E2E2E2E2E2E2E2BEE2E2E2E2E2BEE2BEE2BEE2BEE2BEE2E2BEE2E2E2E2E2E2E2E2E2E2E2E2E2E2E2E2E2E2E2E2E2E2E2E2E2E2E2E2E2E2E2E2E2E2E2DC8383E2E2E2E28383E2E2E2E2E2
310
E283E283E2E2E2E2E2E2E2E2E2E2E2E2E2DCDCE2E2E2E2E2E2E2E2E2E2E2E2E2E2E2E2E2E2E2E2E2E2E2E2E2E2E2E2E2E2E2E2E2E2E2E2E2E2E2E2E2E2E2E2E2E2E2E2E2E2E2E2E2E2E2E2E2E2E2DCDCDCDCDCDCDCE2DCDCDCDCDCDCE2DCDCDCDCE2DCDCDCDCDCDCDCDCDCE2E2E2E2E2E2E2E2E2E2E2E2E2E2E2E2E2E2E2E2
310
E2E2E2E2E2E2E2E2E2E2E2E2E2E2E2BEE2E2E2E2E2E2E2E2E2E2E2E2E2E2E2E2E2E2E2E2E2E2E2E2E2E2E2E2E2E2E2E2E2E2E2E2E2E2E2E2E2E2E2E2E2E2BEE2E2E2E2E2BEE2BEE2BEE2BEE2BEE2E2BEE2E2E2E2E2E2E2E2E2E2E2E2E2E2E2E2E2E2E2E2E2E2E2E2E2E2E2E2E2E2E2E2E2E2E2DC8383E2E2E2E28383E2E2E2
310
E2E2E2838383E2E2E2E2E2E2E2E2E2E2E2E2E2E2E2DCDCE2E2E2E2E2E2E2E2E2E2E2E2E2E2E2E2E2E2E2E2E2E2E2E2E2E2E2E2E2E2E2E2E2E2E2E2E2E2E2E2E2E2E2E2E2E2E2E2E2E2E2E2E2E2E2E2E2DCDCDCDCDCDCDCDCDCDCDCDCDCE2DCDCDCDCDCE2DCDCDCDCDCDCE2E2E2E2E2E2E2E2E2E2E2E2E2E2E2E2E2E2E2E2E2
310
E2E2E2E2E2E2E2E2E2E2E2E2E2E2E2E2E2BEE2E2E2E2E2E2E2E2E2E2E2E2E2E2E2E2E2E2E2E2E2E2E2E2E2E2E2E2E2E2E2E2E2E2E2E2E2E2E2E2E2E2E2E2E2E2BEE2E2E2E2E2BEE2BEE2BEE2BEE2BEE2E2BEE2E2E2E2E2E2E2E2E2E2E2E2E2E2E2E2E2E2E2E2E2E2E2E2E2E2E2E2E2E2E2E2E2E2DCE28383E2E2E2E28383E2
310
E2E2E2E2E28383E2E2E2E2E2E2E2E2E2E2E2E2E2E2E2E2E2E2DCDCDCDCDCDCDCDCDCDCDCDCDCDCDCDCDCDCDCDCDCDCDCDCDCDCDCDCDCDCDCDCDCDCDCDCDCDCDCDCDCDCDCDCDCDCDCDCDCDCDCDCDCDCDCDCE2DCDCDCDCDCDCDCDCDCDCDCDCDCE2DCDCDCDCDCDCDCE2DCDCDCDCE2E2E2E2E2E2E2E2E2E2E2E2E2E2E2E2E2E2E2
310
E2E2E2E2E2E2E2E2E2E2E2E2E2E2E2E2E2E2E2BEE2E2E2E2E2E2E2E2E2E2E2E2E2E2E2E2E2E2E2E2E2E2E2E2E2E2E2E2E2E2E2E2E2E2E2E2E2E2E2E2E2E2E2E2E2E2BEE2E2E2E2E2BEE2BEE2BEE2BEE2BEE2E2BEE2E2E2E2E2E2E2E2E2E2E2E2E2E2E2E2E2E2E2E2E2E2E2E2E2E2E2E2E2E2E2E2E2E2DCE28383E2E2E2E283
310
83E2E2E2E2E28383E2E2E2E2E2E2E2E2E2E2E2E2E2E2E2E2E2E2E2E2E2E2E2E2E2E2E2E2E2E2E2E2E2E2E2E2E2E2E2E2E2E2E2E2E2E2E2E2E2E2E2E2E2E2E2E2E2E2E2E2E2E2E2E2E2E2E2E2E2E2E2E2E2E2E2E2DCDCE2E2DCE2DCDCE2E2E2E2E2E2DCDCDCDCDCDCDCE2DCDCDCDCE2E2E2E2E2E2E2E2E2E2E2E2E2E2E2E2E2
310
E2E2E2E2E2E2E2E2E2E2E2E2E2E2E2E2E2E2E2E2E2BEE2E2E2E2E2E2E2E2E2E2E2E2E2E2E2E2E2E2E2E2E2E2E2E2E2E2E2E2E2E2E2E2E2E2E2E2E2E2E2E2E2E2E2E2E2E2BEE2E2E2E2E2BEE2BEE2BEE2BEE2BEE2E2BEE2E2E2E2E2E2E2E2E2E2E2E2E2E2E2E2E2E2E2E2E2E2E2E2E2E2E2E2E2E2E2E2E2E2DCE28383E2E2E2
310
E28383E2E2E2E2E28383E2E2E2E2E2E2E2E2E2E2E2E2E2E2E2E2E2E2E2E2E2E2E2E2E2E2E2E2E2E2E2E2E2E2E2E2E2E2E2E2E2E2E2E2E2E2E2E2E2E2E2E2E2E2E2E2E2E2E2E2E2E2E2E2E2E2E2E2E2E2E2E2E2E2E2E2E2E2E2E2E2E2E2E2E2E2E2E2E2E2E2E2E2E2E2E2E2E2E2E2E2E2E2E2E2E2E2E2E2E2E2E2E2E2E2E2E2
310
E2E2E2E2E2E2E2E2E2E2E2E2E2E2E2E2E2E2E2E2E2E2E2BEE2E2E2E2E2E2E2E2E2E2E2E2E2E2E2E2E2E2E2E2E2E2E2E2E2E2E2E2E2E2E2E2E2E2E2E2E2E2E2E2E2E2E2E2E2E2BEE2E2E2E2E2BEE2BEE2BEE2BEE2BEE2E2BEE2E2E2E2E2E2E2E2E2E2E2E2E2E2E2E2E2E2E2E2E2E2E2E2E2E2E2E2E2E2E2E2E2E2DCE28383E2
310
E2E28383E2E2E2E2E28383E2E2E2E2E2E2E2E2E2E2E2E2E2E2E2E2E2E2E2E2E2E2E2E2E2E2E2E2E2E2E2E2E2E2E2E2E2E2E2E2E2E2E2E2E2E2E2E2E2E2E2E2E2E2E2E2E2E2E2E2E2E2E2E2E2E2E2E2E2E2E2E2E2E2E2E2E2E2E2E2E2E2E2E2E2E2E2E2E2E2E2E2E2E2E2E2E2E2E2E2E2E2E2E2E2E2E2E2E2E2E2E2E2E2E2E2
310
E2E2E2E2E2E2E2E2E2E2E2E2E2E2E2E2E2E2E2E2E2E2E2E2E2BEE2E2E2E2E2E2E2E2E2E2E2E2E2E2E2E2E2E2E2E2E2E2E2E2E2E2E2E2E2E2E2E2E2E2E2E2E2E2E2E2E2E2E2E2E2E2BEE2E2E2E2E2BEE2BEE2BEE2BEE2BEE2E2BEE2E2E2E2E2E2E2E2E2E2E2E2E2E2E2E2E2E2E2E2E2E2E2E2E2E2E2E2E2E2E2E2E2E2DCE283
310
83E2E2E28383E2E2E2E2E28383E2E2E2E2E2E2E2E2E2E2E2E2E2E2E2E2E2E2E2E2E2E2E2E2E2E2E2E2E2E2E2E2E2BEE2E2E2E2E2E2E2E2E2E2E2E2E2E2E2E2E2E2E2E2E2E2E2E2E2E2E2E2E2E2E2E2E2E2E2E2E2E2E2E2E2E2E2E2E2E2E2E2E2E2E2E2E2E2E2E2E2E2E2E2E2E2E2E2E2E2E2E2E2E2E2E2E2E2E2E2E2E2E2E2
310
E2E2E2E2E2E2E2E2E2E2E2E2E2E2E2E2E2E2E2E2E2E2E2E2E2E2E2BEE2E2E2E2E2E2E2E2E2E2E2E2E2E2E2E2E2E2E2E2E2E2E2E2E2E2E2E2E2E2E2E2E2E2E2E2E2E2E2E2E2E2E2E2E2E2BEE2E2E2E2E2BEE2BEE2BEE2BEE2BEE2E2BEE2E2E2E2E2E2E2E2E2E2E2E2E2E2E2E2E2E2E2E2E2E2E2E2E2E2E2E2E2E2E2E2E2E2DC
310
E28383E2E2E28383E2E2E2E283832D2DE2E2E2E2E2E2E2E2E2E2E2E2E2E2E2E2E2E2E2E2E2E2E2E2E2E2E2E2E2E2E2E2E2BEE2E2E2E2E2E2E2E2E2E2E2E2E2E2E2E2E2E2E2E2E2E2E2E2E2E2E2E2E2E2E2E2E2E2E2E2E2E2E2E2E2E2DCDCE2DCDCDCDCDCDCDCDCE2E2DCDCE2DCE2DCDCDCE2DCDCE2E2DCDCE2DCDCE2DCE2E2
310
E2E2E2E2E2E2E2E2E2E2E2E2E2E2E2E2E2E2E2E2E2E2E2E2E2E2E2E2E2BEE2E2E2E2E2E2E2E2E2E2E2E2E2E2E2E2E2E2E2E2E2E2E2E2E2E2E2E2E2E2E2E2E2E2E2E2E2E2E2E2E2E2E2E2E2E2BEE2E2E2E2E2BEE2BEE2BEE2BEE2BEE2E2BEE2E2E2E2E2E2E2E2E2E2E2E2E2E2E2E2E2E2E2E2E2E2E2E2E2E2E2E2E2E2E2E2E2
310
E2DCE28383E2E2E28383E2E2E28383832DE22D2D2D2D2D2D2D2D2D2D2D2D2D2D2D2D2D2D2D2D2D2D2D2D2D2D2D2D2D2D2D2D2D2DBEE2E2E2E2E2E2E2E2E2E2E2E2E2E2E2E2E2E2E2E2E2E2E2E2E2E2E2E2E2E2E2E2E2E2E2E2E2E2E2E2E2DCDCDCDCDCDCDCDCDCDCDCE2E2DCDCDCDCE2DCDCDCDCDCDCE2E2DCDCE2DCDCDCDC
310
E2E2E2E2E2E2E2E2E2E2E2E2E2E2E2E2E2E2E2E2E2E2E2E2E2E2E2E2E2E2E2BEE2E2E2E2E2E2E2E2E2E2E2E2E2E2E2E2E2E2E2E2E2E2E2E2E2E2E2E2E2E2E2E2E2E2E2E2E2E2E2E2E2E2E2E2E2E2BEE2E2E2E2E2BEE2BEE2BEE2BEE2BEE2E2BEE2E2E2E2E2E2E2E2E2E2E2E2E2E2E2E2E2E2E2E2E2E2E2E2E2E2E2E2E2E2E2
310
E2E2E2DCE28383E2E2E28383E2E2E28383E22D2D2D2D2D2D2D2D2D2D2D2D2D2D2D2D2D2D2D2D2D2D2D2D2D2D2D2D2DE22D2D2D2D2D2DE2E2E2E2E2E2E2E2E2E2E2E2E2E2E2E2E2E2E2E2E2E2E2E2E2E2E2E2E2E2E2E2E2E2E2E2E2E2E2E2E2E2DCDCDCDCDCDCDCDCDCDCDCE2E2DCDCDCDCDCDCDCDCDCDCDCE2E2DCDCDCDCDC
310
DCDCE2E2E2E2E2E2E2E2E2E2E2E2E2E2E2E2E2E2E2E2E2E2E2E2E2E2E2E2E2E2E2BEE2E2E2E2E2E2E2E2E2E2E2E2E2E2E2E2E2E2E2E2E2E2E2E2E2E2E2E2E2E2E2E2E2E2E2E2E2E2E2E2E2E2E2E2E2E2BEE2E2E2E2E2BEE2BEE2BEE2BEE2BEE2E2BEE2E2E2E2E2E2E2E2E2E2E2E2E2E2E2E2E2E2E2E2E2E2E2E2E2E2E2E2E2
310
E2E2E2E2E2DCE28383E2E2E28383E2E2E2E283E22D2D2DE2E2E2E2E2E2E2E2E2E2E2E2E2E2E2E2E2E2E2E2E2E2E2E2E2E22D2D2DDCE2E2E2BEE2E2E2E2E2E2E2E2E2E2E2E2E2E2E2E2E2E2E2E2E2E2E2E2E2E2E2E2E2E2E2E2E2E2E2E2E2E2E2E2E2DCDCDCDCDCDCDCDCDCDCDCE2DCDCDCDCE2E2DCDCDCDCDCDCDCE2E2E2E2
310
E2E2E2E2E2E2E2E2E2E2E2E2E2E2E2E2E2E2E2E2E2E2E2E2E2E2E2E2E2E2E2E2E2E2E2BEE2E2E2E2E2E2E2E2E2E2E2E2E2E2E2E2E2E2E2E2E2E2E2E2E2E2E2E2E2E2E2E2E2E2E2E2E2E2E2E2E2E2E2E2E2E2BEE2E2E2E2E2BEE2BEE2BEE2BEE2BEE2E2BEE2E2E2E2E2E2E2E2E2E2E2E2E2E2E2E2E2E2E2E2E2E2E2E2E2E2E2
310
E2E2E2E2E2E2E2DCE28383E2E2E28383E2E2E2E2E283E2E2E2E2E2E2E2E2E2E2E2E2E2E2E2E2E2E2E2E2E2E2E2E2E2E2E2E2E2E2E2E2E2DCDCE2BEE2E2E2E2E2E2E2E2E2E2E2E2E2E2E2E2E2E2E2E2E2E2E2E2E2E2E2E2E2E2E2E2E2E2E2E2E2E2E2E2E2DCDCDCDCDCDCDCDCDCDCE2E2DCDCDCDCE2E2DCDCDCDCDCDCE2E2E2
310
E2E2E2E2E2E2E2E2E2E2E2E2E2E2E2E2E2E2E2E2E2E2E2E2E2E2E2E2E2E2E2E2E2E2E2E2E2BEE2E2E2E2E2E2E2E2E2E2E2E2E2E2E2E2E2E2E2E2E2E2E2E2E2E2E2E2E2E2E2E2E2E2E2E2E2E2E2E2E2E2E2E2E2E2BEE2E2E2E2E2BEE2BEE2BEE2BEE2BEE2E2BEE2E2E2E2E2E2E2E2E2E2E2E2E2E2E2E2E2E2E2E2E2E2E2E2E2
310
E2E2E2E2E2E2E2E2E2DCE28383E2E2E28383E2E2E2E2E283E2E2E2E2E2E2E2E2E2E2E2E2E2E2E2E2E2E2E2E2E2E2E2E2E2E2E2E2E2E2E2E2E2E2E2DCDCE2E2E2E2E2E2E2E2E2E2E2E2E2E2E2E2E2E2E2E2E2E2E2E2E2E2E2E2E2E2E2E2E2E2E2E2E2E2E2E2E2DCDCDCDCDCDCDCDCDCDCE2E2DCDCDCDCE2E2DCDCDCDCDCDCE2
310
E2E2E2E2E2E2E2E2E2E2E2E2E2E2E2E2E2E2E2E2E2E2E2E2E2E2E2E2E2E2E2E2E2E2E2E2E2E2E2BEE2E2E2E2E2E2E2E2E2E2E2E2E2E2E2E2E2E2E2E2E2E2E2E2E2E2E2E2E2E2E2E2E2E2E2E2E2E2E2E2E2E2E2E2E2E2BEE2E2E2E2E2BEE2BEE2BEE2BEE2BEE2E2BEE2E2E2E2E2E2E2E2E2E2E2E2E2E2E2E2E2E2E2E2E2E2E2
310
E2E2E2E2E2E2E2E2E2E2E2DCE28383E2E2E28383E2E2E2E2E2E283E2E2E2E2E2E2E2E2E2E2E2E2E2E2E2E2E2E2E2E2E2E2E2E2E2E2E2E2E2E2E2E2E2E2E2E2DCDCE2E2E2E2E2E2E2E2E2E2E2E2E2E2E2E2E2E2E2E2E2E2E2E2E2E2E2E2E2E2E2E2E2E2E2E2E2E2E2DCDCE2DCDCDCDCDCDCDCDCDCDCE2DCE2DCDCDCDCE2E2DC
310
E2DCDCDCE2E2E2E2E2E2E2E2E2E2E2E2E2E2E2E2E2E2E2E2E2E2E2E2E2E2E2E2E2E2E2E2E2E2E2E2E2BEE2E2E2E2E2E2E2E2E2E2E2E2E2E2E2E2E2E2E2E2E2E2E2E2E2E2E2E2E2E2E2E2E2E2E2E2E2E2E2E2E2E2E2E2E2E2BEE2E2E2E2E2BEE2BEE2BEE2BEE2BEE2E2BEE2E2E2E2E2E2E2E2E2E2E2E2E2E2E2E2E2E2E2E2E2
310
E2E2E2E2E2E2E2E2E2E2E2E2E2DCE28383E2E2E28383E2E2E2E2E28383E2E2E2E2E2E2E2E2E2E2E2E2E2E2E2E2E2E2E2E2E2E2E2E2E2E2E2E2E2E2E2E2E2E2E2E2E2E2DCDCDCDCDCDCDCDCDCDCDCDCDCDCDCDCDCDCDCDCDCDCDCDCDCDCDCDCDCDCDCDCDCDCDCDCDCDCE2DCDCDCDCDCDCDCDCDCDCE2DCDCDCE2E2DCDCDCDCE2
310
E2DCDCDCDCDCE2E2E2E2E2E2E2E2E2E2E2E2E2E2E2E2E2E2E2E2E2E2E2E2E2E2E2E2E2E2E2E2E2E2E2E2E2BEE2E2E2E2E2E2E2E2E2E2E2E2E2E2E2E2E2E2E2E2E2E2E2E2E2E2E2E2E2E2E2E2E2E2E2E2E2E2E2E2E2E2E2E2E2E2BEE2E2E2E2E2BEE2BEE2BEE2BEE2BEE2E2BEE2E2E2E2E2E2E2E2E2E2E2E2E2E2E2E2E2E2E2
310
E2E2E2E2E2E2E2E2E2E2E2E2E2E2E2DCE28383E2E2E28383E2E2E2E2E2838383E2E2E2E2E2E2E2E2E2E2E2E2E2E2E2E2E2E2E2E2E2E2E2E2E2E2E2E2E2E2E2E2E2E2E2E2E2E2E2E2E2E2E2E2E2E2E2E2E2E2E2E2E2E2E2E2E2E2E2E2E2E2E2E2E2E2E2E2E2E2E2E2E2E2E2E2DCDCDCDCDCDCDCDCDCDCE2DCDCDCDCE2DCDCDC
310
DCE2E2DCDCDCDCDCE2E2E2E2E2E2E2E2E2E2E2E2E2E2E2E2E2E2E2E2E2E2E2E2E2E2E2E2E2E2E2E2E2E2E2E2E2BEE2E2E2E2E2E2E2E2E2E2E2E2E2E2E2E2E2E2E2E2E2E2E2E2E2E2E2E2E2E2E2E2E2E2E2E2E2E2E2E2E2E2E2E2E2E2BEE2E2E2E2E2BEE2BEE2BEE2BEE2BEE2E2BEE2E2E2E2E2E2E2E2E2E2E2E2E2E2E2E2E2
310
E2E2E2E2E2E2E2E2E2E2E2E2E2E2E2E2E2DCE28383E2E2E28383E2E2E2E28383E28383E2E2E2E2E2E2E2E2E2E2E2E2E2E2E2E2E2E2E2E2E2E2E2E2E2E2E2E2E2E2E2E2E2E2E2E2E2E2E2E2E2E2E2E2E2E2E2E2E2E2E2E2E2E2E2E2E2E2E2E2E2E2E2E2E2E2E2E2E2E2E2E2E2E2E2E2E2E2E2E2E2E2E2E2E2E2E2E2E2E2E2E2
310
E2E2E2E2E2E2E2E2E2E2E2E2E2E2E2E2E2E2E2E2E2E2E2E2E2E2E2E2E2E2E2E2E2E2E2E2E2E2E2E2E2E2E2E2E2E2E2BEE2E2E2E2E2E2E2E2E2E2E2E2E2E2E2E2E2E2E2E2E2E2E2E2E2E2E2E2E2E2E2E2E2E2E2E2E2E2E2E2E2E2E2E2E2E2BEE2E2E2E2E2BEE2BEE2BEE2BEE2BEE2E2BEE2E2E2E2E2E2E2E2E2E2E2E2E2E2E2
310
E2E2E2E2E2E2E2E2E2E2E2E2E2E2E2E2E2E2E2DCE28383E2E2E28383E2E2E2E28383E2E283E2E2E2E2E2E2E2E2E2E2E2E2E2E2E2E2E2E2E2E2E2E2E2E2E2E2E2E2E2E2E2E2E2E2E2E2E2E2E2E2E2E2E2E2E2E2E2E2E2E2E2E2E2E2E2E2E2E2E2E2E2E2E2E2E2E2E2E2E2E2E2E2E2E2E2E2E2E2E2E2E2E2E2E2E2E2E2E2E2E2
310
E2E2E2E2E2E2E2E2E2E2E2E2E2E2E2E2E2E2E2E2E2E2E2E2E2E2E2E2E2E2E2E2E2E2E2E2E2E2E2E2E2E2E2E2E2E2E2E2E2BEE2E2E2E2E2E2E2E2E2E2E2E2E2E2E2E2E2E2E2E2E2E2E2E2E2E2E2E2E2E2E2E2E2E2E2E2E2E2E2E2E2E2E2E2E2E2BEE2E2E2E2E2BEE2BEE2BEE2BEE2BEE2E2BEE2E2E2E2E2E2E2E2E2E2E2E2E2
310
E2E2E2E2E2E2E2E2E2E2E2E2E2E2E2E2E2E2E2E2E2DCE28383E2E2E28383E2E2E2E28383E2E28383E2E2E2E2E2E2E2E2E2E2E2E2E2E2E2E2E2E2E2E2E2E2E2E2E2E2E2E2E2E2E2E2E2E2E2E2E2E2E2E2E2E2E2E2E2E2E2E2E2E2E2E2E2E2E2E2E2E2E2E2E2E2E2E2E2E2E2E2E2E2E2E2E2E2E2E2E2E2E2E2E2E2E2E2E2E2E2
310
E2E2E2E2E2E2E2E2E2E2E2E2E2E2E2E2E2E2E2E2E2E2E2E2E2E2E2E2E2E2E2E2E2E2E2E2E2E2E2E2E2E2E2E2E2E2E2E2E2E2E2BEE2E2E2E2E2E2E2E2E2E2E2E2E2E2E2E2E2E2E2E2E2E2E2E2E2E2E2E2E2E2E2E2E2E2E2E2E2E2E2E2E2E2E2E2E2E2BEE2E2E2E2E2BEE2BEE2BEE2BEE2BEE2E2BEE2E2E2E2E2E2E2E2E2E2E2
310
E2E2E2E2E2E2E2E2E2E2E2E2E2E2E2E2E2E2E2E2E2E2E2DCE28383E2E2E28383E2E2E2E283E2E2E2E283E2E2E2E2E2E2E2E2E2E2E2E2E2E2E2E2E2E2E2E2E2E2E2E2E2E2E2E2E2E2E2E2E2E2E2E2E2E2E2E2E2E2E2E2E2E2E2E2E2E2E2E2E2E2E2E2E2E2E2E2E2E2E2E2E2E2E2E2E2E2E2E2E2E2DCDCDCDCDCDCDCDCE2DCDC
310
DCE2E2DCDCDCDCDCE2DCE2DCE2DCDCDCE2DCDCE2E2E2E2E2E2E2E2E2E2E2E2E2E2E2E2E2E2E2E2E2E2E2E2E2E2E2E2E2E2E2E2E2E2BEE2E2E2E2E2E2E2E2E2E2E2E2E2E2E2E2E2E2E2E2E2E2E2E2E2E2E2E2E2E2E2E2E2E2E2E2E2E2E2E2E2E2E2E2E2E2BEE2E2E2E2E2BEE2BEE2BEE2BEE2BEE2E2BEE2E2E2E2E2E2E2E2E2
310
E2E2E2E2E2E2E2E2E2E2E2E2E2E2E2E2E2E2E2E2E2E2E2E2E2DCE28383E2E2E28383E2E2E2E28383E2E2E2E283E2E2E2E2E2E2E2E2E2E2E2E2E2E2E2E2E2E2E2E2E2E2E2E2E2E2E2E2E2E2E2E2E2E2E2E2E2E2E2E2E2E2E2E2E2E2E2E2E2E2E2E2E2E2E2E2E2E2E2E2E2E2E2E2E2E2E2E2E2E2E2E2E2DCDCDCDCE2DCDCDCE2
310
DCDCDCE2E2DCDCDCDCDCDCDCE2DCDCDCDCDCDCDCDCE2E2E2E2E2E2E2E2E2E2E2E2E2E2E2E2E2E2E2E2E2E2E2E2E2E2E2E2E2E2E2E2E2E2BEE2E2E2E2E2E2E2E2E2E2E2E2E2E2E2E2E2E2E2E2E2E2E2E2E2E2E2E2E2E2E2E2E2E2E2E2E2E2E2E2E2E2E2E2E2E2BEE2E2E2E2E2BEE2BEE2BEE2BEE2BEE2E2BEE2E2E2E2E2E2E2
310
E2E2E2E2E2E2E2E2E2E2E2E2E2E2E2E2E2E2E2E2E2E2E2E2E2E2E2DCE28383E2E2E28383E2E2E2E28383E2E2E2E28383E2E2E2E2E2E2E2E2E2E2E2E2E2E2E2E2E2E2E2E2E2E2E2E2E2E2E2E2E2E2E2E2E2E2E2E2E2E2E2E2E2E2E2E2E2E2E2E2E2E2E2E2E2E2E2E2E2E2E2E2E2E2E2E2E2E2E2E2E2E2E2E2DCDCDCDCDCDCDC
310
DCE2E2DCDCDCE2DCDCDCDCDCE2DCE2DCDCDCDCDCE2DCDCE2E2E2E2E2E2E2E2E2E2E2E2E2E2E2E2E2E2E2E2E2E2E2E2E2E2E2E2E2E2E2E2E2E2BEE2E2E2E2E2E2E2E2E2E2E2E2E2E2E2E2E2E2E2E2E2E2E2E2E2E2E2E2E2E2E2E2E2E2E2E2E2E2E2E2E2E2E2E2E2E2BEE2E2E2E2E2BEE2BEE2BEE2BEE2BEE2E2BEE2E2E2E2E2
310
E2E2E2E2E2E2E2E2E2E2E2E2E2E2E2E2E2E2E2E2E2E2E2E2E2E2E2E2E2DCE28383E2E2E28383E2E2E2E28383E2E2E2E2E283E2E2E2E2E2E2E2E2E2E2E2E2E2E2E2E2E2E2E2E2E2E2E2E2E2E2E2E2E2E2E2E2E2E2E2E2E2E2E2E2E2E2E2E2E2E2E2E2E2E2E2E2E2E2E2E2E2E2E2E2E2E2E2E2E2E2E2E2E2E2E2E2DCDCDCDCDC
310
E2DCDCDCDCDCDCDCDCDCDCDCE2DCDCDCDCDCDCDCDCE2E2E2E2E2E2E2E2E2E2E2E2E2E2E2E2E2E2E2E2E2E2E2E2E2E2E2E2E2E2E2E2E2E2E2E2E2E2BEE2E2E2E2E2E2E2E2E2E2E2E2E2E2E2E2E2E2E2E2E2E2E2E2E2E2E2E2E2E2E2E2E2E2E2E2E2E2E2E2E2E2E2E2E2E2BEE2E2E2E2E2BEE2BEE2BEE2BEE2BEE2E2BEE2E2E2
310
E2E2E2E2E2E2E2E2E2E2E2E2E2E2E2E2E2E2E2E2E2E2E2E2E2E2E2E2E2E2E2DCE28383E2E2E2E283E2E2E2E2E283E2E2E2E2E28383E2E2E2E2E2E2E2E2E2E2E2E2E2E2E2E2E2E2E2E2E2E2E2E2E2E2E2E2E2E2E2E2DCDCDCDCDCDCDCDCDCDCDCDCDCDCDCDCDCDCDCDCDCDCDCDCDCDCDCDCDCDCDCDCDCDCDCDCDCDCE2DCDCDC
310
DCE2DCDCDCDCDCDCDCDCDCDCDCDCE2DCDCDCDCDCDCDCDCDCE2E2E2E2E2E2E2E2E2E2E2E2E2E2E2E2E2E2E2E2E2E2E2E2E2E2E2E2E2E2E2E2E2E2E2E2E2BEE2E2E2E2E2E2E2E2E2E2E2E2E2E2E2E2E2E2E2E2E2E2E2E2E2E2E2E2E2E2E2E2E2E2E2E2E2E2E2E2E2E2E2E2E2E2BEE2E2E2E2E2BEE2BEE2BEE2BEE2BEE2E2BEE2
310
E2E2E2E2E2E2E2E2E2E2E2E2E2E2E2E2E2E2E2E2E2E2E2E2E2E2E2E2E2E2E2E2E2DCE28383E2E2E2E283E2E2E2E2E28383E2E2E2E2E283E2E2E2E2E2E2E2E2E2E2E2E2E2E2E2E2E2E2E2E2E2E2E2E2E2E2E2E2DCDCDCDCE2E2E2E2E2E2E2E2E2E2E2E2E2E2E2E2E2E2E2E2E2E2E2E2E2E2E2E2E2E2E2E2E2E2E2E2E2E2E2DC
310
DCDCDCE2DCE2DCDCDCDCDCDCE2DCE2DCE2DCDCDCDCDCDCDCDCDCE2E2E2E2E2E2E2E2E2E2E2E2E2E2E2E2E2E2E2E2E2E2E2E2E2E2E2E2E2E2E2E2E2E2E2E2E2BEE2E2E2E2E2E2E2E2E2E2E2E2E2E2E2E2E2E2E2E2E2E2E2E2E2E2E2E2E2E2E2E2E2E2E2E2E2E2E2E2E2E2E2E2E2E2BEE2E2E2E2E2BEE2BEE2BEE2BEE2BEE2E2
310
BEE2E2E2E2E2E2E2E2E2E2E2E2E2E2E2E2E2E2E2E2E2E2E2E2E2E2E2E2E2E2E2E2E2E2DCE28383E2E2E2E28383E2E2E2E2E28383E2E2E2E2E283E2E2E2E2E2E2E2E2E2E2E2E2E2E2E2E2E2E2E2E2E2E2E2DCDCDCDCE2E2E2E2E2E2E2E2E2E2E2E2E2E2E2E2E2E2E2E2E2E2E2E2E2E2E2E2E2E2E2E2E2E2E2E2E2E2E2E2E2E2
310
E2E2E2E2E2E2E2E2E2E2E2E2E2E2E2E2E2E2E2E2E2E2E2E2E2E2E2E2E2E2E2E2E2E2E2E2E2E2E2E2E2E2E2E2E2E2E2E2E2E2E2E2E2E2E2E2E2E2E2E2E2E2E2E2E2BEE2E2E2E2E2E2E2E2E2E2E2E2E2E2E2E2E2E2E2E2E2E2E2E2E2E2E2E2E2E2E2E2E2E2E2E2E2E2E2E2E2E2E2E2E2E2BEE2E2E2E2E2BEE2BEE2BEE2BEE2BE
310
E2E2BEE2E2E2E2E2E2E2E2E2E2E2E2E2E2E2E2E2E2E2E2E2E2E2E2E2E2E2E2E2E2E2E2E2E2E2DC8383E2E2E2E28383E2E2E2E2E2E283E2E2E2E2E28383E2E2E2E2E2E2E2E2E2E2E2E2E2E2E2E2E2E2DCDCDCDCE2E2E2E2E2E2E2E2E2E2E2E2E2E2E2E2E2E2E2E2E2E2E2E2E2E2E2E2E2E2E2E2E2E2E2E2E2E2E2E2E2E2E2E2
310
E2E2E2DCDCDCDCDCDCDCDCE2DCDCDCDCDCDCDCDCDCDCDCDCDCDCE2E2E2E2E2E2E2E2E2E2E2E2E2E2E2E2E2E2E2E2E2E2E2E2E2E2E2E2E2E2E2E2E2E2E2E2E2E2E2E2E2BEE2E2E2E2E2E2E2E2E2E2E2E2E2E2E2E2E2E2E2E2E2E2E2E2E2E2E2E2E2E2E2E2E2E2E2E2E2E2E2E2E2E2E2E2E2E2BEE2E2E2E2E2BEE2BEE2BEE2BE
310
E2BEE2E2BEE2E2E2E2E2E2E2E2E2E2E2E2E2E2E2E2E2E2E2E2E2E2E2E2E2E2E2E2E2E2E2E2E2E2E2DC8383E2E2E2E28383E2E2E2E2E2E28383E2E2E2E2E283E2E2E2E2E2E2E2E2E2E2E2E2E2E2DCDCDCDCE2E2E2E2E2E2E2E2E2E2E2E2E2E2E2E2E2E2E2E2E2E2E2E2E2E2E2E2E2E2E2E2E2E2E2E2E2E2E2E2E2E2E2E2E2E2
310
E2E2E2E2E2DCDCDCDCE2DCDCDCE2DCDCDCDCDCDCDCDCDCDCDCDCE2DCE2E2E2E2E2E2E2E2E2E2E2E2E2E2E2E2E2E2E2E2E2E2E2E2E2E2E2E2E2E2E2E2E2E2E2E2E2E2E2E2E2BEE2E2E2E2E2E2E2E2E2E2E2E2E2E2E2E2E2E2E2E2E2E2E2E2E2E2E2E2E2E2E2E2E2E2E2E2E2E2E2E2E2E2E2E2E2E2BEE2E2E2E2E2BEE2BEE2BE
310
E2BEE2BEE2E2BEE2E2E2E2E2E2E2E2E2E2E2E2E2E2E2E2E2E2E2E2E2E2E2E2E2E2E2E2E2E2E2E2E2E2E2DCE283E2E2E2E28383E2E2E2E2E2E2E28383E2E2E2E28383E2E2E2E2E2E2E2E2E2DCDCDCDCE2E2E2E2E2E2E2E2E2E2E2E2E2E2E2E2E2E2E2E2E2E2E2E2E2E2E2E2E2E2E2E2E2E2E2E2E2E2E2E2E2E2E2E2E2E2E2E2
310
E2E2E2E2E2E2E2DCDCDCDCDCDCDCDCE2E2DCDCDCDCDCDCDCDCDCDCDCDCDCE2E2E2E2E2E2E2E2E2E2E2E2E2E2E2E2E2E2E2E2E2E2E2E2E2E2E2E2E2E2E2E2E2E2E2E2E2E2E2E2E2BEE2E2E2E2E2E2E2E2E2E2E2E2E2E2E2E2E2E2E2E2E2E2E2E2E2E2E2E2E2E2E2E2E2E2E2E2E2E2E2E2E2E2E2E2E2E2BEE2E2E2E2E2BEE2BE
310
E2BEE2BEE2BEE2E2BEE2E2E2E2E2E2E2E2E2E2E2E2E2E2E2E2E2E2E2E2E2E2E2E2E2E2E2E2E2E2E2E2E2E2E2DCE283E2E2E2E28383E2E2E2E2E2E2E28383E2E2E2E2E283E2E2E2E2E2DCDCDCDCE2E2E2E2E2E2E2E2E2E2E2E2E2E2E2E2E2E2E2E2E2E2E2E2E2E2E2E2E2E2E2E2E2E2E2E2E2E2E2E2E2E2E2E2E2E2E2E2E2E2
310
E2E2E2E2E2E2E2E2E2DCDCDCDCDCDCDCDCDCDCE2E2DCDCDCDCE2DCDCDCDCDCDCDCE2E2E2E2E2E2E2E2E2E2E2E2E2E2E2E2E2E2E2E2E2E2E2E2E2E2E2E2E2E2E2E2E2E2E2E2E2E2E2E2BEE2E2E2E2E2E2E2E2E2E2E2E2E2E2E2E2E2E2E2E2E2E2E2E2E2E2E2E2E2E2E2E2E2E2E2E2E2E2E2E2E2E2E2E2E2E2BEE2E2E2E2E2BE
310
E2BEE2BEE2BEE2BEE2E2BEE2E2E2E2E2E2E2E2E2E2E2E2E2E2E2E2E2E2E2E2E2E2E2E2E2E2E2E2E2E2E2E2E2E2E2DCE28383E2E2E2E28383E2E2E2E2E2E2E22D2D2D2DE2E2DC83DCDCDCDCE2E2E2E2E2E2E2E2E2E2E2E2E2E2E2E2E2E2E2E2E2E2E2E2E2E2E2E2E2E2E2E2E2E2E2E2E2E2E2E2E2E2E2E2E2E2E2E2E2E2E2E2
310
E2E2E2E2DCDCDCDCDCDCE2DCDCDCDCDCDCDCDCDCDCE2E2DCDCDCDCDCDCDCDCDCE2DCE2E2E2E2E2E2E2E2E2E2E2E2E2E2E2E2E2E2E2E2E2E2E2E2E2E2E2E2E2E2E2E2E2E2E2E2E2E2E2E2E2BEE2E2E2E2E2E2E2E2E2E2E2E2E2E2E2E2E2E2E2E2E2E2E2E2E2E2E2E2E2E2E2E2E2E2E2E2E2E2E2E2E2E2E2E2E2E2BEE2E2E2E2
310
E2BEE2BEE2BEE2BEE2BEE2E2BEE2E2E2E2E2E2E2E2E2E2E2E2E2E2E2E2E2E2E2E2E2E2E2E2E2E2E2E2E2E2E2E2E2E2E2E2DC8383E2E2E2E28383E2E2E2E2E2E22D2DE2E22DDCDCDCDC83E2E2E2E2E2E2E2E2E2E2E2E2E2E2E2E2E2E2E2E2E2E2E2E2E2E2E2E2E2E2E2E2E2E2E2BEE2E2E2E2E2E2E2E2E2E2E2E2E2E2E2E2E2
310
E2E2E2E2E2E2E2DCE2E2E2E2E2DCDCDCDCDCDCDCDCDCDCE2E2DCDCDCDCE2DCDCDCDCDCDCE2E2E2E2E2E2E2E2E2E2E2E2E2E2E2E2E2E2E2E2E2E2E2E2E2E2E2E2E2E2E2E2E2E2E2E2E2E2E2E2E2BEE2E2E2E2E2E2E2E2E2E2E2E2E2E2E2E2E2E2E2E2E2E2E2E2E2E2E2E2E2E2E2E2E2E2E2E2E2E2E2E2E2E2E2E2E2E2BEE2E2
310
E2E2E2BEE2BEE2BEE2BEE2BEE2E2BEE2E2E2E2E2E2E2E2E2E2E2E2E2E2E2E2E2E2E2E2E2E2E2E2E2E2E2E2E2E2E2E2E2E2E2E2DC8383E2E2E2E2E283E2E2E2E2E2E22DDCDCDCDC2DE2E2E283E2E2E22D2DE2E2E2E2E2E2E2E2E2E2E2E2E2E2E2E2E2E2E2E2E2E2E2E2E2E2E22DE2E2BEE2E2E2E2E2E2E2E2E2E2E2E2E2E2E2
310
E2E2E2E2E2E2E2E2E2DCE2E2E2E2E2E2E2E2E2E2E2E2E2E2E2E2E2E2E2E2E2E2E2E2E2E2E2E2E2E2E2E2E2E2E2E2E2E2E2E2E2E2E2E2E2E2E2E2E2E2E2E2E2E2E2E2E2E2E2E2E2E2E2E2E2E2E2E2E2BEE2E2E2E2E2E2E2E2E2E2E2E2E2E2E2E2E2E2E2E2E2E2E2E2E2E2E2E2E2E2E2E2E2E2E2E2E2E2E2E2E2E2E2E2E2E2BE
310
E2E2E2E2E2BEE2BEE2BEE2BEE2BEE2E2BEE2E2E2E2E2E2E2E2E2E2E2E2E2E2E2E2E2E2E2E2E2E2E2E2E2E2E2E2E2E2E2E2E2E2E2E2DCE283E2E2E2E2E28383E2E2E2E2E22DDCDCDCDC2DE2E2E28383E22D2D2D2D2D2D2D2D2D2D2D2D2D2D2D2D2D2D2D2D2D2D2D2D2D2D2D2D2D2D2D2D2D2DBEBEE2E2E2E2E2E2E2E2E2E2E2
310
E2E2E2E2E2E2E2E2E2E2E2E2DCE2E2E2E2E2E2E2E2E2E2E2E2E2E2E2E2E2E2E2E2E2E2E2E2E2E2E2E2E2E2E2E2E2E2E2E2E2E2E2E2E2E2E2E2E2E2E2E2E2E2E2E2E2E2E2E2E2E2E2E2E2E2E2E2E2E2E2E2BEE2E2E2E2E2E2E2E2E2E2E2E2E2E2E2E2E2E2E2E2E2E2E2E2E2E2E2E2E2E2E2E2E2E2E2E2E2E2E2E2E2E2E2E2E2
310
E2BEE2E2E2E2E2BEE2BEE2BEE2BEE2BEE2E2BEE2E2E2E2E2E2E2E2E2E2E2E2E2E2E2E2E2E2E2E2E2E2E2E2E2E2E2E2E2E2E2E2E2E2E2E2E2DC83E2E2E2E2E2E283E2E2E2E2E22DDCE2DCDC2DE2E2E2E283E22D2DE22D2D2D2D2D2D2D2D2D2D2D2D2D2D2D2D2D2D2D2D2D2D2D2D2D2D2D2D2D2D2DBEE2E2E2E2E2E2E2E2E2E2
310
E2E2E2E2E2E2E2E2E2E2E2E2E2E2DCE2E2E2E2E2E2E2E2E2E2E2E2E2E2E2E2E2E2E2E2E2E2E2E2E2E2E2E2E2E2E2E2E2E2E2E2E2E2E2E2E2E2E2E2E2E2E2E2E2E2E2E2E2E2E2E2E2E2E2E2E2E2E2E2E2E2E2E2BEE2E2E2E2E2E2E2E2E2E2E2E2E2E2E2E2E2E2E2E2E2E2E2E2E2E2E2E2E2E2E2E2E2E2E2E2E2E2E2E2E2E2E2
310
E2E2E2BEE2E2E2E2E2BEE2BEE2BEE2BEE2BEE2E2BEE2E2E2E2E2E2E2E2E2E2E2E2E2E2E2E2E2E2E2E2E2E2E2E2E2E2E2E2E2E2E2E2E2E2E2E2E2DC8383E2E2E2E2E28383E2E2E2E2E22D2D2D2DE2E2E283838383832D2DE2E2E2E2E2E2E2E2E2E2E2E2E2E2E2E2E2E2E2E2E2E2E2E2E2E22D2D2DE2E2BEE2E2E2E2E2E2E2E2
310
E2E2E2E2E22D2DE2E2E22D2D2D2D2D2D2D2D2D2D2D2D2D2D2DE2E2E2E2E2E2E2E2E2E2E2E2E2E2E2E2E2E2E2E2E2E2E2E2E2E2E2E2E2E2E2E2E2E2E2E2E2E2E2E2E2E2E2E2E2E2E2E2E2E2E2E2E2E2E2E2E2E2E2E2BEE2E2E2E2E2E2E2E2E2E2E2E2E2E2E2E2E2E2E2E2E2E2E2E2E2E2E2E2E2E2E2E2E2E2E2E2E2E2E2E2E2
310
E2E2E2E2E2BEE2E2E2E2E2BEE2BEE2BEE2BEE2BEE2E2BEE2E2E2E2E2E2E2E2E2E2E2E2E2E2E2E2E2E2E2E2E2E2E2E2E2E2E2E2E2E2E2E2E2E2E2E2E2DC8383E2E2E2E2E2E28383E2E2E2E2E2E2E2E283E28383E2E28383838383838383838383838383838383838383838383838383E2E2E2E2E2E2E2E2E2E2BEE2E2E2E2E2
310
E2E2E2E2E2E2E22D2DE2E2E22D2D2DE2E2E2DCDCE2E2E2E22D2D2DE2E2E2E2E2E2E2E2E2E2E2E2E2E2E2E2E2E2E2E2E2E2E2E2E2E2E2E2E2E2E2E2E2E2E2E2E2E2E2E2E2E2E2E2E2E2E2E2E2E2E2E2E2E2E2E2E2E2E2E2BEE2E2E2E2E2E2E2E2E2E2E2E2E2E2E2E2E2E2E2E2E2E2E2E2E2E2E2E2E2E2E2E2E2E2E2E2E2E2E2
310
E2E2E2E2E2E2E2BEE2E2E2E2E2BEE2BEE2BEE2BEE2BEE2E2BEE2E2E2E2E2E2E2E2E2E2E2E2E2E2E2E2E2E2E2E2E2E2E2E2E2E2E2E2E2E2E2E2E2E2E2E2E2E283E283E2E2E2E2E2E283E2E2E2E2E2E2E2E28383E2E2E2E2E2838383838383838383838383838383838383838383838383838383838383838383838383838383
310
8383838383838383838383E2E2E22D2DE2E2E2E2E2DCDCE2E2E2E22D2DE2E2E2E2E2E2E2E2E2E2E2E2E2E2E2E2E2E2E2E2E2E2E2E2E2E2E2E2E2E2E2E2E2E2E2E2E2E2E2E2E2E2E2E2E2E2E2E2E2E2E2E2E2E2E2E2E2E2E2E2BEE2E2E2E2E2E2E2E2E2E2E2E2E2E2E2E2E2E2E2E2E2E2E2E2E2E2E2E2E2E2E2E2E2E2E2E2E2
310
E2E2E2E2E2E2E2E2E2BEE2E2E2E2E2BEE2BEE2BEE2BEE2BEE2E2BEE2E2E2E2E2E2E2E2E2E2E2E2E2E2E2E2E2E2E2E2E2E2E2E2E2E2E2E2E2E2E2E2E2E2E2E2E2E2DC8383E2E2E2E2E2E28383E2E2E2E2E2E28383E2E2E2E2E2E2E2E2E2E2E2E2E2E2E2E2E2E2E2E2E2E2E2E2E2E2E2E2E2E2E2E2E2E2E2E2E2E2E2E2E2E2E2
310
E2E2E2E2E2E2E2E2E2E2E22D2DDCDCE22D2DE2E2E2E2E2E2DCE2E2E2E22D2DE2E2E2E2E2E2E2E2E2E2E2E2E2E2E2E2E2E2E2E2E2E2E2E2E2E2E2E2E2E2E2E2E2E2E2E2E2E2E2E2E2E2E2E2E2E2E2E2E2E2E2E2E2E2E2E2E2E2E2E2BEE2E2E2E2E2E2E2E2E2E2E2E2E2E2E2E2E2E2E2E2E2E2E2E2E2E2E2E2E2E2E2E2E2E2E2
310
E2E2E2E2E2E2E2E2E2E2E2BEE2E2E2E2E2BEE2BEE2BEE2BEE2BEE2E2BEE2E2E2E2E2E2E2E2E2E2E2E2E2E2E2E2E2E2E2E2E2E2E2E2E2E2E2E2E2E2E2E2E2E2E2E2E2E2DCE283E2E2E2E2E2E2E28383E2E2E2E28383E2E2E2E2E2E2E2E2E2E2E2E2E2E2E2E2E2E2E2E2E2E2E2E2E2E2E2E2E2E2E2E2E2E2E2E2E2E2E2E2E2E2
310
E2E2E2E2E2E2E2E2E2E2E2E2E2DCE2E22D2D2D2DE2E2E2E2E2E2E2E2E2E2E22D2DE2E2E2E2E2E2E2E2E2E2E2E2E2E2E2E2E2E2E2E2E2E2E2E2E2E2E2E2E2E2E2E2E2E2E2E2E2E2E2E2E2E2E2E2E2E2E2E2E2E2E2E2E2E2E2E2E2E2E2E2BEE2E2E2E2E2E2E2E2E2E2E2E2E2E2E2E2E2E2E2E2E2E2E2E2E2E2E2E2E2E2E2E2E2
310
E2E2E2E2E2E2E2E2E2E2E2E2E2BEE2E2E2E2E2BEE2BEE2BEE2BEE2BEE2E2BEE2E2E2E2E2E2E2E2E2E2E2E2E2E2E2E2E2E2E2E2E2E2E2E2E2E2E2E2E2E2E2E2E2E2E2E2E2E2DCE28383E2E2E2E2E2E2E2838383E283E2E2E2E2E2E2E2E2E2E2E2E2E2E2E2E2E2E2E2E2E2E2E2E2E2E2E2E2E2E2E2E2E2E2E2E2E2E2E2E2E2E2
310
E2E2E2E2E2E2E2E2E2E2E2E2E2E2E2DCE2E22D2D2D2DE2E2E2E2E2E2E2E2E2E2E22D2DE2E2E2E2E2E2E2E2E2E2E2E2E2E2E2E2E2E2E2E2E2E2E2E2E2E2E2E2E2E2E2E2E2E2E2E2E2E2E2E2E2E2E2E2E2E2E2E2E2E2E2E2E2E2E2E2E2E2E2E2BEE2E2E2E2E2E2E2E2E2E2E2E2E2E2E2E2E2E2E2E2E2E2E2E2E2E2E2E2E2E2E2
310
E2E2E2E2E2E2E2E2E2E2E2E2E2E2E2BEE2E2E2E2E2BEE2BEE2BEE2BEE2BEE2E2BEE2E2E2E2E2E2E2E2E2E2E2E2E2E2E2E2E2E2E2E2E2E2E2E2E2E2E2E2E2E2E2E2E2E2E2E2E2E2E2DCE283E2E2E2E2E2E2E2E283838383E2E2E2E2E2E2E2E2E2E2E2E2E2E2E2E2E2E2E2E2E2E2E2E2E2E2E2E2E2E2E2E2E2E2E2E2E2E2E2E2
310
E2E2E2E2E2E2E2E2E2E2E2E2E2E2E2E2E22D2DDCDCE22D2DE2E2E2E2E2E2E2E2E2E2E22D2DE2E2E2E2E2E2E2E2E2E2E2E2E2E2E2E2E2E2E2E2E2E2E2E2E2E2E2E2E2E2E2E2E2E2E2E2E2E2E2E2E2E2E2E2E2E2E2E2E2E2E2E2E2E2E2E2E2E2E2E2BEE2E2E2E2E2E2E2E2E2E2E2E2E2E2E2E2E2E2E2E2E2E2E2E2E2E2E2E2E2
310
E2E2E2E2E2E2E2E2E2E2E2E2E2E2E2E2E2BEE2E2E2E2E2BEE2BEE2BEE2BEE2BEE2E2BEE2E2E2E2E2E2E2E2E2E2E2E2E2E2E2E2E2E2E2E2E2E2E2E2E2E2E2E2E2E2E2E2E2E2E2E2E2E2E2DCDC838383E2E2E2E2E2E2E2838383838383838383E2E2E2E2E2E2E2E2E2E2E2E2E2E2E2E2E2E2E2E2E2E2E2E2E2E2E2E2E2E2E2E2
310
E2E2E2E2E2E2E2E2E2E2E2E2E2E2E2E2E2E2E22D2DE2E2E22D2DE2E2E2E2E2E2E2E2E2E2E22D2DE2E2E2E2E2E2E2E2E2E2E2E2E2E2E2E2E2E2E2E2E2E2E2E2E2E2E2E2E2E2E2E2E2E2E2E2E2E2E2E2E2E2E2E2E2E2E2E2E2E2E2E2E2E2E2E2E2E2E2E2BEE2E2E2E2E2E2E2E2E2E2E2E2E2E2E2E2E2E2E2E2E2E2E2E2E2E2E2
310
E2E2E2E2E2E2E2E2E2E2E2E2E2E2E2E2E2E2E2BEE2E2E2E2E2BEE2BEE2BEE2BEE2BEE2E2BEE2E2E2E2E2E2E2E2E2E2E2E2E2E2E2E2E2E2E2E2E2E2E2E2E2E2E2E2E2E2E2E2E2E2E2E2E2E2E2E2E2DC8383E2E2E2E2E2E28383E2E2838383838383838383838383838383838383838383838383838383838383838383838383
310
8383838383838383838383838383838383838383838383E2E2E22D2D2D2D2D2D2D2D2D2D2D2D2D2D2DE2E2E2E2E2E2E2E2E2E2E2E2E2E2E2E2E2E2E2E2E2E2E2E2E2E2E2E2E2E2E2E2E2E2E2E2E2E2E2E2E2E2E2E2E2E2E2E2E2E2E2E2E2E2E2E2E2E2E2E2BEE2E2E2E2E2E2E2E2E2E2E2E2E2E2E2E2E2E2E2E2E2E2E2E2E2
310
E2E2E2E2E2E2E2E2E2E2E2E2E2E2E2E2E2E2E2E2E2BEE2E2E2E2E2BEE2BEE2BEE2BEE2BEE2E2BEE2E2E2E2E2E2E2E2E2E2E2E2E2E2E2E2E2E2E2E2E2E2E2E2E2E2E2E2E2E2E2E2E2E2E2E2E2E2E2E2E2DCE28383E2E2E2E283E283E2E2E2E2E2E2E2E2E2E2E283838383838383838383838383838383838383838383838383
310
83838383838383838383838383838383838383838383838383E2E2E2E22D2D2D2D2D2D2D2D2D2D2D2D2DE2E2E2E2E2E2E2E2E2E2E2E2E2E2E2E2E2E2E2E2E2E2E2E2E2E2E2E2E2E2E2E2E2E2E2E2E2E2E2E2E2E2E2E2E2E2E2E2E2E2E2E2E2E2E2E2E2E2E2E2E2BEE2E2E2E2E2E2E2E2E2E2E2E2E2E2E2E2E2E2E2E2E2E2E2
310
E2E2E2E2E2E2E2E2E2E2E2E2E2E2E2E2E2E2E2E2E2E2E2BEE2E2E2E2E2BEE2BEE2BEE2BEE2BEE2E2BEE2E2E2E2E2E2E2E2E2E2E2E2E2E2E2E2E2E2E2E2E2E2E2E2E2E2E2E2E2E2E2E2E2E2E2E2E2E2E2E2E2E2DCDC838383E2E28383E2E2E2E2E2E2E2E2E2E2E2E2E2E2E2E2E2E2E2E2E2E2E2E2E2E2E2E2E2E2E2E2E2E2E2
310
E2E2E2E2E2E2E2E2E2E2E2E2E2E2E2E2E2E2E2E2E2E2E2E2E22D2DE2E2E2E2E2E2E2E2E2E2E2E2E2E2E2E2E2E2E2E2E2E2E2E2E2E2E2E2E2E2E2E2E2E2E2E2E2E2E2E2E2E2E2E2E2E2E2E2E2E2E2E2E2E2E2E2E2E2E2E2E2E2E2E2E2E2E2E2E2E2E2E2E2E2E2E2E2E2BEE2E2E2E2E2E2E2E2E2E2E2E2E2E2E2E2E2E2E2E2E2
310
E2E2E2E2E2E2E2E2E2E2E2E2E2E2E2E2E2E2E2E2E2E2E2E2E2BEE2E2E2E2E2BEE2BEE2BEE2BEE2BEE2E2BEE2E2E2E2E2E2E2E2E2E2E2E2E2E2E2E2E2E2E2E2E2E2E2E2E2E2E2E2E2E2E2E2E2E2E2E2E2E2E2E2E2E2E2DCE28383838383E2E2E2E2E2E2E2E2E2E2E2E2E2E2E2E2E2E2E2E2E2E2E2E2E2E2E2E2E2E2E2E2E2E2
310
E2E2E2E2E2E2E2E2E2E2E2E2E2E2E2E2E2E2E2E2E2E2E2E2E2E2E22D2DE2E2E2E2E2E2E2E2E2E2E2E2E2E2E2E2E2E2E2E2E2E2E2E2E2E2E2E2E2E2E2E2E2E2E2E2E2E2E2E2E2E2E2E2E2E2E2E2E2E2E2E2E2E2E2E2E2E2E2E2E2E2E2E2E2E2E2E2E2E2E2E2E2E2E2E2E2E2BEE2E2E2E2E2E2E2E2E2E2E2E2E2E2E2E2E2E2E2
310
E2E2E2E2E2E2E2E2E2E2E2E2E2E2E2E2E2E2E2E2E2E2E2E2E2E2E2BEE2E2E2E2E2BEE2BEE2BEE2BEE2BEE2E2BEE2E2E2E2E2E2E2E2E2E2E2E2E2E2E2E2E2E2E2E2E2E2E2E2E2E2E2E2E2E2E2E2E2E2E2E2E2E2E2E2E2E2E2E2DCDCE283838383838383E2E2E2E2E2E2E2E2E2E2E2E2E2E2E2E2E2E2E2E2E2E2E2E2E2E2E2E2
310
E2E2E2E2E2E2E2E2E2E2E2E2E2E2E2E2E2E2E2E2E2E2E2E2E2E2E2E2E22D2DDCDCE2E2E2E2E2E2E2E2E2E2E2E2E2E2E2E2E2E2E2E2E2E2E2E2E2E2E2E2E2E2E2E2E2E2E2E2E2E2E2E2E2E2E2E2E2E2E2E2E2E2E2E2E2E2E2E2E2E2E2E2E2E2E2E2E2E2E2E2E2E2E2E2E2E2E2E2BEE2E2E2E2E2E2E2E2E2E2E2E2E2E2E2E2E2
310
E2E2E2E2E2E2E2E2E2E2E2E2E2E2E2E2E2E2E2E2E2E2E2E2E2E2E2E2E2BEE2E2E2E2E2BEE2BEE2BEE2BEE2BEE2E2BEE2E2E2E2E2E2E2E2E2E2E2E2E2E2E2E2E2E2E2E2E2E2E2E2E2E2E2E2E2E2E2E2E2E2E2E2E2E2E2E2E2E2E2E2E2E2DCDCDCE2E283838383838383838383E2E2E2E2E2E2E2E2E2E2E2E2E2E2E2E2E2E2E2
310
E2E2E2E2E2E2E2E2E2E2E2E2E2E2E2E2E2E2E2E2E2E2E2E2E2E2E2E2E2E2E22D2DE2E2DCDCE2E2E2E2E2E2E2E2E2E2E2E2E2E2E2E2E2E2E2E2E2E2E2E2E2E2E2E2E2E2E2E2E2E2E2E2E2E2E2E2E2E2E2E2E2E2E2E2E2E2E2E2E2E2E2E2E2E2E2E2E2E2E2E2E2E2E2E2E2E2E2E2E2E2BEE2E2E2E2E2E2E2E2E2E2E2E2E2E2E2
310
E2E2E2E2E2E2E2E2E2E2E2E2E2E2E2E2E2E2E2E2E2E2E2E2E2E2E2E2E2E2E2BEE2E2E2E2E2BEE2BEE2BEE2BEE2BEE2E2BEE2E2E2E2E2E2E2E2E2E2E2E2E2E2E2E2E2E2E2E2E2E2E2E2E2E2E2E2E2E2E2E2E2E2E2E2E2E2E2E2E2E2E2E2E2E2E2E2E2DCDCDCDCE2838383838383838383838383838383838383838383838383
310
8383838383838383838383838383838383838383838383838383838383838383838383E2E2E2E2DCE2E2E2E2E2E2E2E2E2E2E2E2E2E2E2E2E2E2E2E2E2E2E2E2E2E2E2E2E2E2E2E2E2E2E2E2E2E2E2E2E2E2E2E2E2E2E2E2E2E2E2E2E2E2E2E2E2E2E2E2E2E2E2E2E2E2E2E2E2E2E2E2E2BEE2E2E2E2E2E2E2E2E2E2E2E2E2
310
E2E2E2E2E2E2E2E2E2E2E2E2E2E2E2E2E2E2E2E2E2E2E2E2E2E2E2E2E2E2E2E2E2BEE2E2E2E2E2BEE2BEE2BEE2BEE2BEE2E2BEE2E2E2E2E2E2E2E2E2E2E2E2E2E2E2E2E2E2E2E2E2E2E2E2E2E2E2E2E2E2E2E2E2E2E2E2E2E2E2E2E2E2E2E2E2E2E2E2E2E2E2E2E2DCDCDCDCDCDCDCDCDCDCE2E28383838383838383838383
310
838383838383838383838383838383838383838383838383838383838383E2E2E2E2E22D2DE2E2E2E2E2DCE2E2E2E2E2E2E2E2E2E2E2E2E2E2E2E2E2E2E2E2E2E2E2E2E2E2E2E2E2E2E2E2E2E2E2E2E2E2E2E2E2E2E2E2E2E2E2E2E2E2E2E2E2E2E2E2E2E2E2E2E2E2E2E2E2E2E2E2E2E2E2E2BEE2E2E2E2E2E2E2E2E2E2E2
310
E2E2E2E2E2E2E2E2E2E2E2E2E2E2E2E2E2E2E2E2E2E2E2E2E2E2E2E2E2E2E2E2E2E2E2BEE2E2E2E2E2BEE2BEE2BEE2BEE2BEE2E2BEE2E2E2E2E2E2E2E2E2E2E2E2E2E2E2E2E2E2E2E2E2E2E2E2E2E2E2E2E2E2E2E2E2E2E2E2E2E2E2E2E2E2E2E2E2E2E2E2E2E2E2E2E2E2E2E2E2E2E2E2E2E2E2DCDCDCDCDCDCDCDCDCDCDC
310
DCDCDCDCDCDCDCDCDCDCDCDCDCDCDCDCDCDCDCDCDCDCDCDCDCDCDCDCDCDCDCDCDCDCDCDCDCDCDCDCDCE2E2E2E2DCDCE2E2E2E2E2E2DCDCDCDCE2DCE2DCDCDCE2E2DCDCDCDCDCDCDCDCDCDCE2E2E2E2E2E2E2E2E2E2E2E2E2E2E2E2E2E2E2E2E2E2E2E2E2E2E2E2E2E2E2E2E2E2E2E2E2E2E2E2E2E2BEE2E2E2E2E2E2E2E2E2
310
E2E2E2E2E2E2E2E2E2E2E2E2E2E2E2E2E2E2E2E2E2E2E2E2E2E2E2E2E2E2E2E2E2E2E2E2E2BEE2E2E2E2E2BEE2BEE2BEE2BEE2BEE2E2BEE2E2E2E2E2E2E2E2E2E2E2E2E2E2E2E2E2E2E2E2E2E2E2E2E2E2E2E2E2E2E2E2E2E2E2E2E2E2E2E2E2E2E2E2E2E2E2E2E2E2E2E2E2E2E2E2E2E2E2E2E2E2E2E2E2E2E2E2E2E2E2E2
310
E2E2E2E2E2E2E2E2E2E2E2E2E2E2E2E2E2E2E2E2E2E2E2DCDCE2E2E2E2E2E2E2E2E2E2E2E2E2E2E2E2E2E2E2E2E2E2E2E2DCDCDCDCDCE2DCDCDCDCDCDCDCDCE2DCE2E2DCDCDCDCDCDCDCDCDCDCE2E2E2E2E2E2E2E2E2E2E2E2E2E2E2E2E2E2E2E2E2E2E2E2E2E2E2E2E2E2E2E2E2E2E2E2E2E2E2E2E2E2BEE2E2E2E2E2E2E2
310
E2E2E2E2E2E2E2E2E2E2E2E2E2E2E2E2E2E2E2E2E2E2E2E2E2E2E2E2E2E2E2E2E2E2E2E2E2E2E2BEE2E2E2E2E2BEE2BEE2BEE2BEE2BEE2E2BEE2E2E2E2E2E2E2E2E2E2E2E2E2E2E2E2E2E2E2E2E2E2E2E2E2E2E2E2E2E2E2E2E2E2E2E2E2E2E2E2E2E2E2E2E2E2E2E2E2E2E2E2E2E2E2E2E2E2E2E2E2E2E2E2E2E2E2E2E2E2
310
E2E2E2E2E2E2E2E2E2E2E2E2E2E2E2E2E2E2E2E2E2E2E2E2E2E2DCDCDCE2E2E2E2E2E2E2E2E2E2E2E2E2E2E2E2E2E2E2E2E2E2E2E2E2E2E2E2DCDCE2DCDCDCDCDCDCDCE2E2DCDCDCDCDCDCDCDCDCDCE2E2E2E2E2E2E2E2E2E2E2E2E2E2E2E2E2E2E2E2E2E2E2E2E2E2E2E2E2E2E2E2E2E2E2E2E2E2E2E2E2E2BEE2E2E2E2E2
310
E2E2E2E2E2E2E2E2E2E2E2E2E2E2E2E2E2E2E2E2E2E2E2E2E2E2E2E2E2E2E2E2E2E2E2E2E2E2E2E2E2BEE2E2E2E2E2BEE2BEE2BEE2BEE2BEE2E2BEE2E2E2E2E2E2E2E2E2E2E2E2E2E2E2E2E2E2E2E2E2E2E2E2E2E2E2E2E2E2E2E2E2E2E2E2E2E2E2E2E2E2E2E2E2E2E2E2E2E2E2E2E2E2E2E2E2E2E2E2E2E2E2E2E2E2E2E2
310
E2E2E2E2E2E2E2E2E2E2E2E2E2E2E2E2E2E2E2E2E2E2E2E2E2E2E2E2E2E2E2DCDCE2E2E2E2E2E2E2E2E2E2E2E2E2E2E2E2E2E2E2E2E2E2E2E2E2E2E2E2E2E2E2E2E2E2E2E2E2E2E2E2E2E2E2E2E2E2E2E2E2E2E2E2E2E2E2E2E2E2E2E2E2E2E2E2E2E2E2E2E2E2E2E2E2E2E2E2E2E2E2E2E2E2E2E2E2E2E2E2E2E2BEE2E2E2
310
E2E2E2E2E2E2E2E2E2E2E2E2E2E2E2E2E2E2E2E2E2E2E2E2E2E2E2E2E2E2E2E2E2E2E2E2E2E2E2E2E2E2E2BEE2E2E2E2E2BEE2BEE2BEE2BEE2BEE2E2BEE2E2E2E2E2E2E2E2E2E2E2E2E2E2E2E2E2E2E2E2E2E2E2E2E2E2E2E2E2E2E2E2E2E2E2E2E2E2E2E2E2E2E2E2E2E2E2E2E2E2E2E2E2E2E2E2E2E2E2E2E2E2E2E2E2E2
310
E2E2E2E2E2E2E2E2E2E2E2E2E2E2E2E2E2E2E2E2E2E2E2E2E2E2E2E2E2E2E2E2E2E2E2DCDCE2E2E2E2E2E2E2E2E2E2E2E2E2E2E2E2E2E2E2E2E2E2E2E2E2E2E2E2E2E2E2E2E2E2E2E2E2E2E2E2E2E2E2E2E2E2E2E2E2E2E2E2E2E2E2E2E2E2E2E2E2E2E2E2E2E2E2E2E2E2E2E2E2E2E2E2E2E2E2E2E2E2E2E2E2E2E2E2BEE2
310
E2E2E2E2E2E2E2E2E2E2E2E2E2E2E2E2E2E2E2E2E2E2E2E2E2E2E2E2E2E2E2E2E2E2E2E2E2E2E2E2E2E2E2E2E2BEE2E2E2E2E2BEE2BEE2BEE2BEE2BEE2E2BEE2E2E2E2E2E2E2E2E2E2E2E2E2E2E2E2E2E2E2E2E2E2E2E2E2E2E2E2E2E2E2E2E2E2E2E2E2E2E2E2E2E2E2E2E2E2E2E2E2E2E2E2E2E2E2E2E2E2E2E2E2E2E2E2
310
E2E2E2E2E2E2E2E2E2E2E2E2E2E2E2E2E2E2E2E2E2E2E2E2E2E2E2E2E2E2E2E2E2E2E2E2E2E2E2DCDCE2E2E2E2E2E2E2E2E2E2E2E2E2E2E2E2E2E2E2E2E2E2E2E2E2E2E2E2E2E2E2E2E2E2E2E2E2E2E2E2E2E2E2E2E2E2E2E2E2E2E2E2E2E2E2E2E2E2E2E2E2E2E2E2E2E2E2E2E2E2E2E2E2E2E2E2E2E2E2E2E2E2E2E2E2E2
310
BEE2E2E2E2E2E2E2E2E2E2E2E2E2E2E2E2E2E2E2E2E2E2E2E2E2E2E2E2E2E2E2E2E2E2E2E2E2E2E2E2E2E2E2E2E2E2BEE2E2E2E2E2BEE2BEE2BEE2BEE2BEE2E2BEE2E2E2E2E2E2E2E2E2E2E2E2E2E2E2E2E2E2E2E2E2E2E2E2E2E2E2E2E2E2E2E2E2E2E2E2E2E2E2E2E2E2E2E2E2E2E2E2E2E2E2E2E2E2E2E2E2E2E2E2E2E2
310
E2E2E2E2E2E2E2E2E2E2E2E2E2E2E2E2E2E2E2E2E2E2E2E2E2E2E2E2E2E2E2E2E2E2E2E2E2E2E2E2E2E2E2DCDCE2E2E2E2E2E2E2E2E2E2E2E2E2E2E2E2E2E2E2E2DCDCDCDCDCDCDCE2E2DCDCE2E2DCE2DCDCDCDCDCDCDCDCE2E2E2E2E2E2E2E2E2E2E2E2E2E2E2E2E2E2E2E2E2E2E2E2E2E2E2E2E2E2E2E2E2E2E2E2E2E2E2
310
E2E2BEE2E2E2E2E2E2E2E2E2E2E2E2E2E2E2E2E2E2E2E2E2E2E2E2E2E2E2E2E2E2E2E2E2E2E2E2E2E2E2E2E2E2E2E2E2E2BEE2E2E2E2E2BEE2BEE2BEE2BEE2BEE2E2BEE2E2E2E2E2E2E2E2E2E2E2E2E2E2E2E2E2E2E2E2E2E2E2E2E2E2E2E2E2E2E2E2E2E2E2E2E2E2E2E2E2E2E2E2E2E2E2E2E2E2E2E2E2E2E2E2E2E2E2E2
310
E2E2E2E2E2E2E2E2E2E2E2E2E2E2E2E2E2E2E2E2E2E2E2E2E2E2E2E2E2E2E2E2E2E2E2E2E2E2E2E2E2E2E2E2E2E2E2DCDCDCDCDCDCDCDCDCDCDCDCDCDCDCDCDCDCDCE2DCDCDCDCDCDCE2E2DCDCDCDCE2DCDCDCDCDCDCDCDCDCDCE2E2E2E2E2E2E2E2E2E2E2E2E2E2E2E2E2E2E2E2E2E2E2E2E2E2E2E2E2E2E2E2E2E2E2E2E2
310
E2E2E2E2BEE2E2E2E2E2E2E2E2E2E2E2E2E2E2E2E2E2E2E2E2E2E2E2E2E2E2E2E2E2E2E2E2E2E2E2E2E2E2E2E2E2E2E2E2E2E2BEE2E2E2E2E2BEE2BEE2BEE2BEE2BEE2E2BEE2E2E2E2E2E2E2E2E2E2E2E2E2E2E2E2E2E2E2E2E2E2E2E2E2E2E2E2E2E2E2E2E2E2E2E2E2E2E2E2E2E2E2E2E2E2E2E2E2E2E2E2E2E2E2E2E2E2
310
E2E2E2E2E2E2E2E2E2E2E2E2E2E2E2E2E2E2E2E2E2E2E2E2E2E2E2E2E2E2E2E2E2E2E2E2E2E2E2E2E2E2E2E2E2E2E2E2E2E2E2E2E2E2E2E2E2E2E2E2E2E2E2E2E2E2E2E2E2DCDCDCDCDCDCDCE2DCDCDCDCE2DCDCDCDCE2DCDCDCDCDCE2E2E2E2E2E2E2E2E2E2E2E2E2E2E2E2E2E2E2E2E2E2E2E2E2E2E2E2E2E2E2E2E2E2E2
310
E2E2E2E2E2E2BEE2E2E2E2E2E2E2E2E2E2E2E2E2E2E2E2E2E2E2E2E2E2E2E2E2E2E2E2E2E2E2E2E2E2E2E2E2E2E2E2E2E2E2E2E2E2BEE2E2E2E2E2BEE2BEE2BEE2BEE2BEE2E2BEE2E2E2E2E2E2E2E2E2E2E2E2E2E2E2E2E2E2E2E2E2E2E2E2E2E2E2E2E2E2E2E2E2E2E2E2E2E2E2E2E2E2E2E2E2E2E2E2E2E2E2E2E2E2E2E2
310
E2E2E2E2E2E2E2E2E2E2E2E2E2E2E2E2E2E2E2E2E2E2E2E2E2E2E2E2E2E2E2E2E2E2E2E2E2E2E2E2E2E2E2E2E2E2E2E2E2E2E2E2E2E2E2E2E2E2E2E2E2E2E2E2E2E2E2E2E2E2E2E2E2E2E2E2E2E2E2E2E2E2E2E2E2E2E2E2E2E2E2E2E2E2E2E2E2E2E2E2E2E2E2E2E2E2E2E2E2E2E2E2E2E2E2E2E2E2E2E2E2E2E2E2E2E2E2
310
E2E2E2E2E2E2E2E2BEE2E2E2E2E2E2E2E2E2E2E2E2E2E2E2E2E2E2E2E2E2E2E2E2E2E2E2E2E2E2E2E2E2E2E2E2E2E2E2E2E2E2E2E2E2E2BEE2E2E2E2E2BEE2BEE2BEE2BEE2BEE2E2BEE2E2E2E2E2E2E2E2E2E2E2E2E2E2E2E2E2E2E2E2E2E2E2E2E2E2E2E2E2E2E2E2E2E2E2E2E2E2E2E2E2E2E2E2E2E2E2E2E2E2E2E2E2E2
310
E2E2E2E2E2E2E2E2E2E2E2E2E2E2E2E2E2E2E2E2E2E2E2E2E2E2E2E2E2E2E2E2E2E2E2E2E2E2E2E2E2E2E2E2E2E2E2E2E2E2E2E2E2E2E2E2E2E2E2E2E2E2E2E2E2E2E2E2E2E2E2E2E2E2E2E2E2E2E2E2E2E2E2E2E2E2E2E2E2E2E2E2E2E2E2E2E2E2E2E2E2E2E2E2E2E2E2E2E2E2E2E2E2E2E2E2E2E2E2E2E2E2E2E2E2E2E2
310
E2E2E2E2E2E2E2E2E2E2BEE2E2E2E2E2E2E2E2E2E2E2E2E2E2E2E2E2E2E2E2E2E2E2E2E2E2E2E2E2E2E2E2E2E2E2E2E2E2E2E2E2E2E2E2E2E2BEE2E2E2E2E2BEE2BEE2BEE2BEE2BEE2E2BEE2E2E2E2E2E2E2E2E2E2E2E2E2E2E2E2E2E2E2E2E2E2E2E2E2E2E2E2E2E2E2E2E2E2E2E2E2E2E2E2E2E2E2E2E2E2E2E2E2E2E2E2
310
E2E2E2E2E2E2E2E2E2E2E2E2E2E2E2E2E2E2E2E2E2E2E2E2E2E2E2E2E2E2E2E2E2E2E2E2E2E2E2E2E2E2E2E2E2E2E2E2E2E2E2E2E2E2E2E2E2E2E2E2E2E2E2E2E2E2E2E2E2E2E2E2E2E2E2E2E2E2E2E2E2E2E2E2E2E2E2E2E2E2E2E2E2E2E2E2E2E2E2E2E2E2E2E2E2E2E2E2E2E2E2E2E2E2E2E2E2E2E2E2E2E2E2E2E2E2E2
310
E2E2E2E2E2E2E2E2E2E2E2E2BEE2E2E2E2E2E2E2E2E2E2E2E2E2E2E2E2E2E2E2E2E2E2E2E2E2E2E2E2E2E2E2E2E2E2E2E2E2E2E2E2E2E2E2E2E2E2BEE2E2E2E2E2BEE2BEE2BEE2BEE2BEE2E2BEE2E2E2E2E2E2E2E2E2E2E2E2E2E2E2E2E2E2E2E2E2E2E2E2E2E2E2E2E2E2E2E2E2E2E2E2E2E2E2E2E2E2E2E2E2E2E2E2E2E2
310
E2E2E2E2E2E2E2E2E2E2E2E2E2E2E2E2E2E2E2E2E2E2E2E2E2E2E2E2E2E2E2E2E2E2E2E2E2E2E2E2E2E2E2E2E2E2E2E2E2E2E2E2E2E2E2E2E2E2E2E2E2E2E2E2E2E2E2E2E2E2E2E2E2E2E2E2E2E2E2E2E2E2E2E2E2E2E2E2E2E2E2E2E2E2E2E2E2E2E2E2E2E2E2E2E2E2E2E2E2E2E2E2E2E2E2E2E2E2E2E2E2E2E2E2E2E2E2
310
E2E2E2E2E2E2E2E2E2E2E2E2E2E2BEE2E2E2E2E2E2E2E2E2E2E2E2E2E2E2E2E2E2E2E2E2E2E2E2E2E2E2E2E2E2E2E2E2E2E2E2E2E2E2E2E2E2E2E2E2E2BEE2E2E2E2E2BEE2BEE2BEE2BEE2BEE2E2BEE2E2E2E2E2E2E2E2E2E2E2E2E2E2E2E2E2E2E2E2E2E2E2E2E2E2E2E2E2E2E2E2E2E2E2E2E2E2E2E2E2E2E2E2E2E2E2E2
310
E2E2E2E2E2E2E2E2E2E2E2E2E2E2E2E2E2E2E2E2E2E2E2E2E2E2E2E2E2E2E2E2E2E2E2E2E2E2E2E2E2E2E2E2E2E2E2E2E2E2E2E2E2E2E2E2E2E2E2E2E2E2E2E2E2E2E2E2E2E2E2E2E2E2E2E2E2E2E2E2E2E2E2E2E2E2E2E2E2E2E2E2E2E2E2E2E2E2E2E2E2E2E2E2E2E2E2E2E2E2E2E2E2E2E2E2E2E2E2E2E2E2E2E2E2E2E2
310
E2E2E2E2E2E2E2E2E2E2E2E2E2E2E2E2BEE2E2E2E2E2E2E2E2E2E2E2E2E2E2E2E2E2E2E2E2E2E2E2E2E2E2E2E2E2E2E2E2E2E2E2E2E2E2E2E2E2E2E2E2E2E2BEE2E2E2E2E2BEE2BEE2E2E2BEE2BEE2E2BEE2E2E2E2E2E2E2E2E2E2E2E2E2E2E2E2E2E2E2E2E2E2E2E2E2E2E2E2E2E2E2E2E2E2E2E2E2E2E2E2E2E2E2E2E2E2
310
E2E2E2E2E2E2E2E2E2E2E2E2E2E2E2E2E2E2E2E2E2E2E2E2E2E2E2E2E2E2E2E2E2E2E2E2E2E2E2E2E2E2E2E2E2E2E2E2E2E2E2E2E2E2E2E2E2E2E2E2E2E2E2E2E2E2E2E2E2E2E2E2E2E2E2E2E2E2E2E2E2E2E2E2E2E2E2E2E2E2E2E2E2E2E2E2E2E2E2E2E2E2E2E2E2E2E2E2E2E2E2E2E2E2E2E2E2E2E2E2E2E2E2E2E2E2E2
310
E2E2E2E2E2E2E2E2E2E2E2E2E2E2E2E2E2E2BEE2E2E2E2E2E2E2E2E2E2E2E2E2E2E2E2E2E2E2E2E2E2E2E2E2E2E2E2E2E2E2E2E2E2E2E2E2E2E2E2E2E2E2E2E2E2BEE2E2E2E2E2BEE2BEE2E2E2BEE2E2E2E2BEE2E2E2E2E2E2E2E2E2E2E2E2E2E2E2E2E2E2E2E2E2E2E2E2E2E2E2E2E2E2E2E2E2E2E2E2E2E2E2E2E2E2E2E2
310
E2E2E2E2E2E2E2E2E2E2E2E2E2E2E2E2E2E2E2E2E2E2E2E2E2E2E2E2E2E2E2E2E2E2E2E2E2E2E2E2E2E2E2E2E2E2E2E2E2E2E2E2E2E2E2E2E2E2E2E2E2E2E2E2E2E2E2E2E2E2E2E2E2E2E2E2E2E2E2E2E2E2E2E2E2E2E2E2E2E2E2E2E2E2E2E2E2E2E2E2E2E2E2E2E2E2E2E2E2E2E2E2E2E2E2E2E2E2E2E2E2E2E2E2E2E2E2
310
E2E2E2E2E2E2E2E2E2E2E2E2E2E2E2E2E2E2E2E2BEE2E2E2E2E2E2E2E2E2E2E2E2E2E2E2E2E2E2E2E2E2E2E2E2E2E2E2E2E2E2E2E2E2E2E2E2E2E2E2E2E2E2E2E2E2E2BEE2E2E2E2E2E2E2BEE2E2E2BEE2E2E2E2BEE2E2E2E2E2E2E2E2E2E2E2E2E2E2E2E2E2E2E2E2E2E2E2E2E2E2E2E2E2E2E2E2E2E2E2E2E2E2E2E2E2E2
310
E2E2E2E2E2E2E2E2E2E2E2E2E2E2E2E2E2E2E2E2E2E2E2E2E2E2E2E2E2E2E2E2E2E2E2E2E2E2E2E2E2E2E2E2E2E2E2E2E2E2E2E2E2E2E2E2E2E2E2E2E2E2E2E2E2E2E2E2E2E2E2E2E2E2E2E2E2E2E2E2E2E2E2E2E2E2E2E2E2E2E2E2E2E2E2E2E2E2E2E2E2E2E2E2E2E2E2E2E2E2E2E2E2E2E2E2E2E2E2E2E2E2E2E2E2E2E2
310
E2E2E2E2E2E2E2E2E2E2E2E2E2E2E2E2E2E2E2E2E2E2BEE2E2E2E2E2E2E2E2E2E2E2E2E2E2E2E2E2E2E2E2E2E2E2E2E2E2E2E2E2E2E2E2E2E2E2E2E2E2E2E2E2E2E2E2E2E2BEE2E2E2E2E2E2E2E2E2E2E2E2E2E2E2E2BEE2E2E2E2E2E2E2E2E2E2E2E2E2E2E2E2E2E2E2E2E2E2E2E2E2E2E2E2E2E2E2E2E2E2E2E2E2E2E2E2
310
E2E2E2E2E2E2E2E2E2E2E2E2E2E2E2E2E2E2E2E2E2E2E2E2E2E2E2E2E2E2E2E2E2E2E2E2E2E2E2E2E2E2E2E2E2E2E2E2E2E2E2E2E2E2E2E2E2E2E2E2E2E2E2E2E2E2E2E2E2E2E2E2E2E2E2E2E2E2E2E2E2E2E2E2E2E2E2E2E2E2E2E2E2E2E2E2E2E2E2E2E2E2E2E2E2E2E2E2E2E2E2E2E2E2E2E2E2E2E2E2E2E2E2E2E2E2E2
310
E2E2E2E2E2E2E2E2E2E2E2E2E2E2E2E2E2E2E2E2E2E2E2E2BEE2E2E2E2E2E2E2E2E2E2E2E2E2E2E2E2E2E2E2E2E2E2E2E2E2E2E2E2E2E2E2E2E2E2E2E2E2E2E2E2E2E2E2E2E2E2BEE2E2E2E2E2E2E2E2E2E2E2E2E2E2E2E2BEE2E2E2E2E2E2E2E2E2E2E2E2E2E2E2E2E2E2E2E2E2E2E2E2E2E2E2E2E2E2E2E2E2E2E2E2E2E2
310
E2E2E2E2E2E2E2E2E2E2E2E2E2E2E2E2E2E2E2E2E2E2E2E2E2E2E2E2E2E2E2E2E2E2E2E2E2E2E2E2E2E2E2E2E2E2E2E2E2E2E2E2E2E2E2E2E2E2E2E2E2E2E2E2E2E2E2E2E2E2E2E2E2E2E2E2E2E2E2E2E2E2E2E2E2E2E2E2E2E2E2E2E2E2E2E2E2E2E2E2E2E2E2E2E2E2E2E2E2E2E2E2E2E2E2E2E2E2E2E2E2E2E2E2E2E2E2
310
E2E2E2E2E2E2E2E2E2E2E2E2E2E2E2E2E2E2E2E2E2E2E2E2E2E2BEE2E2E2E2E2E2E2E2E2E2E2E2E2E2E2E2E2E2E2E2E2E2E2E2E2E2E2E2E2E2E2E2E2E2E2E2E2E2E2E2E2E2E2E2E2E2BEE2E2E2E2E2E2E2E2E2E2E2E2E2E2E2E2BEE2E2E2E2E2E2E2E2E2E2E2E2E2E2E2E2E2E2E2E2E2E2E2E2E2E2E2E2E2E2E2E2E2E2E2E2
310
E2E2E2E2E2E2E2E2E2E2E2E2E2E2E2E2E2E2E2E2E2E2E2E2E2E2E2E2E2E2E2E2E2E2E2E2E2E2E2E2E2E2E2E2E2E2E2E2E2E2E2E2E2E2E2E2E2E2E2E2E2E2E2E2E2E2E2E2E2E2E2E2E2E2E2E2E2E2E2E2E2E2E2E2E2E2E2E2E2E2E2E2E2E2E2E2E2E2E2E2E2E2E2E2E2E2E2E2E2E2E2E2E2E2E2E2E2E2E2E2E2E2E2E2E2E2E2
310
E2E2E2E2E2E2E2E2E2E2E2E2E2E2E2E2E2E2E2E2E2E2E2E2E2E2E2E2BEE2E2E2E2E2E2E2E2E2E2E2E2E2E2E2E2E2E2E2E2E2E2E2E2E2E2E2E2E2E2E2E2E2E2E2E2E2E2E2E2E2E2E2E2E2E2BEBEBEBEBEBEBEBEBEBEBEBEBEBEBEBEBEBEBEBEBEBEBEBEBEBEBEBEBEBEBEBEBEBEBEBEBEBEBEBEBEBEBEBEBEBEBEBEBEBEBEBE
310
BEBEBEBEBEBEBEBEBEBEBEBEBEBEBEBEBEBEBEBEBEBEBEBEBEBEBEBEBEBEBEBEBEBEBEBEBEBEBEBEBEBEBEBEBEBEBEBEBEBEBEBEBEBEBEBEBEBEBEBEBEBEBEBEBEBEBEBEBEBEBEBEBEBEBEBEBEBEBEBEBEBEBEBEBEBEBEBEBEBEBEBEBEBEBEBEBEBEBEBEBEBEBEBEBEBEBEBEBEBEBEBEBEBEBEBEBEBEBEBEBEBEBEBEBEBEBE
310
BEBEBEBEBEBEBEBEBEBEBEBEBEBEBEBEBEBEBEBEBEBEBEBEBEBEBEBEBEBEBEE2E2E2E2E2E2E2E2E2E2E2E2E2E2E2E2E2E2E2E2E2E2E2E2E2E2E2E2E2E2E2E2E2E2E2E2E2E2E2E2E2E2E2E2E2E2E2E2E2E2E2E2E2E2E2E2E2E2E2E2E2E2E2E2E2E2E2E2E2E2E2E2E2E2E2E2E2E2E2E2E2E2E2E2E2E2E2E2E2E2E2E2E2E2E2E2
310
E2E2E2E2E2E2E2E2E2E2E2E2E2E2E2E2E2E2E2E2E2E2E2E2E2E2E2E2E2E2E2E2E2E2E2E2E2E2E2E2E2E2E2E2E2E2E2E2E2E2E2E2E2E2E2E2E2E2E2E2E2E2E2E2E2E2E2E2E2E2E2E2E2E2E2E2E2E2E2E2E2E2E2E2E2E2E2E2E2E2E2E2E2E2E2E2E2E2E2E2E2E2E2E2E2E2E2E2E2E2E2E2E2E2E2E2E2E2E2E2E2E2E2E2E2E2E2
310
E2E2E2E2E2E2E2E2E2E2E2E2E2E2E2E2E2E2E2E2E2E2E2E2E2E2E2E2E2E2E2E2E2E2E2E2E2E2E2E2E2E2E2E2E2E2E2E2E2E2E2E2E2E2E2E2E2E2E2E2E2E2E2E2E2E2E2E2E2E2E2E2E2E2E2E2E2E2E2E2E2E2E2E2E2E2E2E2E2E2E2E2E2E2E2E2E2E2E2E2E2E2E2E2E2E2E2E2E2E2E2E2E2E2E2E2E2E2E2E2E2E2E2E2E2E2E2
310
E2E2E2E2E2E2E2E2E2E2E2E2E2E2E2E2E2E2E2E2E2E2E2E2E2E2E2E2E2E2E2E2E2E2E2E2E2E2E2E2E2E2E2E2E2E2E2E2E2E2E2E2E2E2E2E2E2E2E2E2E2E2E2E2E2E2E2E2E2E2E2E2E2E2E2E2E2E2E2E2E2E2E2E2E2E2E2E2E2E2E2E2E2E2E2E2E2E2E2E2E2E2E2E2E2E2E2E2E2E2E2E2E2E2E2E2E2E2E2E2E2E2E2E2E2E2E2
310
E2E2E2E2E2E2E2E2E2E2E2E2E2E2E2E2E2E2E2E2E2E2E2E2E2E2E2E2E2E2E2E2E2E2E2E2E2E2E2E2E2E2E2E2E2E2E2E2E2E2E2E2E2E2E2E2E2E2E2E2E2E2E2E2E2E2E2E2E2E2E2E2E2E2E2E2E2E2E2E2E2E2E2E2E2E2E2E2E2E2E2E2E2E2E2E2E2E2E2E2E2E2E2E2E2E2E2E2E2E2E2E2E2E2E2E2E2E2E2E2E2E2E2E2E2E2E2
310
E2E2E2E2E2E2E2E2E2E2E2E2E2E2E2E2E2E2E2E2E2E2E2E2E2E2E2E2E2E2E2E2E2E2E2E2E2E2E2E2E2E2E2E2E2E2E2E2E2E2E2E2E2E2E2E2E2E2E2E2E2E2E2E2E2E2E2E2E2E2E2E2E2E2E2E2E2E2E2E2E2E2E2E2E2E2E2E2E2E2E2E2E2E2E2E2E2E2E2E2E2E2E2E2E2E2E2E2E2E2E2E2E2E2E2E2E2E2E2E2E2E2E2E2E2E2E2
310
E2E2E2E2E2E2E2E2E2E2E2E2E2E2E2E2E2E2E2E2E2E2E2E2E2E2E2E2E2E2E2E2E2E2E2E2E2E2E2E2E2E2E2E2E2E2E2E2E2E2E2E2E2E2E2E2E2E2E2E2E2E2E2E2E2E2E2E2E2E2E2E2E2E2E2E2E2E2E2E2E2E2E2E2E2E2E2E2E2E2E2E2E2E2E2E2E2E2E2E2E2E2E2E2E2E2E2E2E2E2E2E2E2E2E2E2E2E2E2E2E2E2E2E2E2E2E2
310
E2E2E2E2E2E2E2E2E2E2E2E2E2E2E2E2E2E2E2E2E2E2E2E2E2E2E2E2E2E2E2E2E2E2E2E2E2E2E2E2E2E2E2E2E2E2E2E2E2E2E2E2E2E2E2E2E2E2E2E2E2E2E2E2E2E2E2E2E2E2E2E2E2E2E2E2E2E2E2E2E2E2E2E2E2E2E2E2E2E2E2E2E2E2E2E2E2E2E2E2E2E2E2E2E2E2E2E2E2E2E2E2E2E2E2E2E2E2E2E2E2E2E2E2E2E2E2
310
E2E2E2E2E2E2E2E2E2E2E2E2E2E2E2E2E2E2E2E2E2E2E2E2E2E2E2E2E2E2E2E2E2E2E2E2E2E2E2E2E2E2E2E2E2E2E2E2E2E2E2E2E2E2E2E2E2E2E2E2E2E2E2E2E2E2E2E2E2E2E2E2E2E2E2E2E2E2E2E2E2E2E2E2E2E2E2E2E2E2E2E2E2E2E2E2E2E2E2E2E2E2E2E2E2E2E2E2E2E2E2E2E2E2E2E2E2E2E2E2E2E2E2E2E2E2E2
310
E2E2E2E2E2E2E2E2E2E2E2E2E2E2E2E2E2E2E2E2E2E2E2E2E2E2E2E2E2E2E2E2E2E2E2E2E2E2E2E2E2E2E2E2E2E2E2E2E2E2E2E2E2E2E2E2E2E2E2E2E2E2E2E2E2E2E2E2E2E2E2E2E2E2E2E2E2E2E2E2E2E2E2E2E2E2E2E2E2E2E2E2E2E2E2E2E2E2E2E2E2E2E2E2E2E2E2E2E2E2E2E2E2E2E2E2E2E2E2E2E2E2E2E2E2E2E2
310
E2E2E2E2E2E2E2E2E2E2E2E2E2E2E2E2E2E2E2E2E2E2E2E2E2E2E2E2E2E2E2E2E2E2E2E2E2E2E2E2E2E2E2E2E2E2E2E2E2E2E2E2E2E2E2E2E2E2E2E2E2E2E2E2E2E2E2E2E2E2E2E2E2E2E2E2E2E2E2E2E2E2E2E2E2E2E2E2E2E2E2E2E2E2E2E2E2E2E2E2E2E2E2E2E2E2E2E2E2E2E2E2E2E2E2E2E2E2E2E2E2E2E2E2E2E2E2
310
E2E2E2E2E2E2E2E2E2E2E2E2E2E2E2E2E2E2E2E2E2E2E2E2E2E2E2E2E2E2E2E2E2E2E2E2E2E2E2E2E2E2E2E2E2E2E2E2E2E2E2E2E2E2E2E2E2E2E2E2E2E2E2E2E2E2E2E2E2E2E2E2E2E2E2E2E2E2E2E2E2E2E2E2E2E2E2E2E2E2E2E2E2E2E2E2E2E2E2E2E2E2E2E2E2E2E2E2E2E2E2E2E2E2E2E2E2E2E2E2E2E2E2E2E2E2E2
310
E2E2E2E2E2E2E2E2E2E2E2E2E2E2E2E2E2E2E2E2E2E2E2E2E2E2E2E2E2E2E2E2E2E2E2E2E2E2E2E2E2E2E2E2E2E2E2E2E2E2E2E2E2E2E2E2E2E2E2E2E2E2E2E2E2E2E2E2E2E2E2E2E2E2E2E2E2E2E2E2E2E2E2E2E2E2E2E2E2E2E2E2E2E2E2E2E2E2E2E2E2E2E2E2E2E2E2E2E2E2E2E2E2E2E2E2E2E2E2E2E2E2E2E2E2E2E2
310
E2E2E2E2E2E2E2E2E2E2E2E2E2E2E2E2E2E2E2E2E2E2E2E2E2E2E2E2E2E2E2E2E2E2E2E2E2E2E2E2E2E2E2E2E2E2E2E2E2E2E2E2E2E2E2E2E2E2E2E2E2E2E2E2E2E2E2E2E2E2E2E2E2E2E2E2E2E2E2E2E2E2E2E2E2E2E2E2E2E2E2E2E2E2E2E2E2E2E2E2E2E2E2E2E2E2E2E2E2E2E2E2E2E2E2E2E2E2E2E2E2E2E2E2E2E2E2
310
E2E2E2E2E2E2E2E2E2E2E2E2E2E2E2E2E2E2E2E2E2E2E2E2E2E2E2E2E2E2E2E2E2E2E2E2E2E2E2E2E2E2E2E2E2E2E2E2E2E2E2E2E2E2E2E2E2E2E2E2E2E2E2E2E2E2E2E2E2E2E2E2E2E2E2E2E2E2E2E2E2E2E2E2E2E2E2E2E2E2E2E2E2E2E2E2E2E2E2E2E2E2E2E2E2E2E2E2E2E2E2E2E2E2E2E2E2E2E2E2E2E2E2E2E2E2E2
310
E2E2E2E2E2E2E2E2E2E2E2E2E2E2E2E2E2E2E2E2E2E2E2E2E2E2E2E2E2E2E2E2E2E2E2E2E2E2E2E2E2E2E2E2E2E2E2E2E2E2E2E2E2E2E2E2E2E2E2E2E2E2E2E2E2E2E2E2E2E2E2E2E2E2E2E2E2E2E2E2E2E2E2E2E2E2E2E2E2E2E2E2E2E2E2E2E2E2E2E2E2E2E2E2E2E2E2E2E2E2E2E2E2E2E2E2E2E2E2E2E2E2E2E2E2E2E2
310
E2E2E2E2E2E2E2E2E2E2E2E2E2E2E2E2E2E2E2E2E2E2E2E2E2E2E2E2E2E2E2E2E2E2E2E2E2E2E2E2E2E2E2E2E2E2E2E2E2E2E2E2E2E2E2E2E2E2E2E2E2E2E2E2E2E2E2E2E2E2E2E2E2E2E2E2E2E2E2E2E2E2E2E2E2E2E2E2E2E2E2E2E2E2E2E2E2E2E2E2E2E2E2E2E2E2E2E2E2E2E2E2E2E2E2E2E2E2E2E2E2E2E2E2E2E2E2
310
E2E2E2E2E2E2E2E2E2E2E2E2E2E2E2E2E2E2E2E2E2E2E2E2E2E2E2E2E2E2E2E2E2E2E2E2E2E2E2E2E2E2E2E2E2E2E2E2E2E2E2E2E2E2E2E2E2E2E2E2E2E2E2E2E2E2E2E2E2E2E2E2E2E2E2E2E2E2E2E2E2E2E2E2E2E2E2E2E2E2E2E2E2E2E2E2E2E2E2E2E2E2E2E2E2E2E2E2E2E2E2E2E2E2E2E2E2E2E2E2E2E2E2E2E2E2E2
310
E2E2E2E2E2E2E2E2E2E2E2E2E2E2E2E2E2E2E2E2E2E2E2E2E2E2E2E2E2E2E2E2E2E2E2E2E2E2E2E2E2E2E2E2E2E2E2E2E2E2E2E2E2E2E2E2E2E2E2E2E2E2E2E2E2E2E2E2E2E2E2E2E2E2E2E2E2E2E2E2E2E2E2E2E2E2E2E2E2E2E2E2E2E2E2E2E2E2E2E2E2E2E2E2E2E2E2E2E2E2E2E2E2E2E2E2E2E2E2E2E2E2E2E2E2E2E2
310
E2E2E2E2E2E2E2E2E2E2E2E2E2E2E2E2E2E2E2E2E2E2E2E2E2E2E2E2E2E2E2E2E2E2E2E2E2E2E2E2E2E2E2E2E2E2E2E2E2E2E2E2E2E2E2E2E2E2E2E2E2E2E2E2E2E2E2E2E2E2E2E2E2E2E2E2E2E2E2E2E2E2E2E2E2E2E2E2E2E2E2E2E2E2E2E2E2E2E2E2E2E2E2E2E2E2E2E2E2E2E2E2E2E2E2E2E2E2E2E2E2E2E2E2E2E2E2
310
E2E2E2E2E2E2E2E2E2E2E2E2E2E2E2E2E2E2E2E2E2E2E2E2E2E2E2E2E2E2E2E2E2E2E2E2E2E2E2E2E2E2E2E2E2E2E2E2E2E2E2E2E2E2E2E2E2E2E2E2E2E2E2E2E2E2E2E2E2E2E2E2E2E2E2E2E2E2E2E2E2E2E2E2E2E2E2E2E2E2E2E2E2E2E2E2E2E2E2E2E2E2E2E2E2E2E2E2E2E2E2E2E2E2E2E2E2E2E2E2E2E2E2E2E2E2E2
310
E2E2E2E2E2E2E2E2E2E2E2E2E2E2E2E2E2E2E2E2E2E2E2E2E2E2E2E2E2E2E2E2E2E2E2E2E2E2E2E2E2E2E2E2E2E2E2E2E2E2E2E2E2E2E2E2E2E2E2E2E2E2E2E2E2E2E2E2E2E2E2E2E2E2E2E2E2E2E2E2E2E2E2E2E2E2E2E2E2E2E2E2E2E2E2E2E2E2E2E2E2E2E2E2E2E2E2E2E2E2E2E2E2E2E2E2E2E2E2E2E2E2E2E2E2E2E2
310
E2E2E2E2E2E2E2E2E2E2E2E2E2E2E2E2E2E2E2E2E2E2E2E2E2E2E2E2E2E2E2E2E2E2E2E2E2E2E2E2E2E2E2E2E2E2E2E2E2E2E2E2E2E2E2E2E2E2E2E2E2E2E2E2E2E2E2E2E2E2E2E2E2E2E2E2E2E2E2E2E2E2E2E2E2E2E2E2E2E2E2E2E2E2E2E2E2E2E2E2E2E2E2E2E2E2E2E2E2E2E2E2E2E2E2E2E2E2E2E2E2E2E2E2E2E2E2
310
E2E2E2E2E2E2E2E2E2E2E2E2E2E2E2E2E2E2E2E2E2E2E2E2E2E2E2E2E2E2E2E2E2E2E2E2E2E2E2E2E2E2E2E2E2E2E2E2E2E2E2E2E2E2E2E2E2E2E2E2E2E2E2E2E2E2E2E2E2E2E2E2E2E2E2E2E2E2E2E2E2E2E2E2E2E2E2E2E2E2E2E2E2E2E2E2E2E2E2E2E2E2E2E2E2E2E2E2E2E2E2E2E2E2E2E2E2E2E2E2E2E2E2E2E2E2E2
310
E2E2E2E2E2E2E2E2E2E2E2E2E2E2E2E2E2E2E2E2E2E2E2E2E2E2E2E2E2E2E2E2E2E2E2E2E2E2E2E2E2E2E2E2E2E2E2E2E2E2E2E2E2E2E2E2E2E2E2E2E2E2E2E2E2E2E2E2E2E2E2E2E2E2E2E2E2E2E2E2E2E2E2E2E2E2E2E2E2E2E2E2E2E2E2E2E2E2E2E2E2E2E2E2E2E2E2E2E2E2E2E2E2E2E2E2E2E2E2E2E2E2E2E2E2E2E2
310
E2E2E2E2E2E2E2E2E2E2E2E2E2E2E2E2E2E2E2E2E2E2E2E2E2E2E2E2E2E2E2E2E2E2E2E2E2E2E2E2E2E2E2E2E2E2E2E2E2E2E2E2E2E2E2E2E2E2E2E2E2E2E2E2E2E2E2E2E2E2E2E2E2E2E2E2E2E2E2E2E2E2E2E2E2E2E2E2E2E2E2E2E2E2E2E2E2E2E2E2E2E2E2E2E2E2E2E2E2E2E2E2E2E2E2E2E2E2E2E2E2E2E2E2E2E2E2
310
E2E2E2E2E2E2E2E2E2E2E2E2E2E2E2E2E2E2E2E2E2E2E2E2E2E2E2E2E2E2E2E2E2E2E2E2E2E2E2E2E2E2E2E2E2E2E2E2E2E2E2E2E2E2E2E2E2E2E2E2E2E2E2E2E2E2E2E2E2E2E2E2E2E2E2E2E2E2E2E2
  0
XRECORD
  5
29C0
102
{ACAD_REACTORS
330
29BF
102
}
330
29BF
100
AcDbXrecord
280
     1
102
MATERIAL
148
0.0
149
0.0
149
0.0
 93
        0
 94
       63
282
     0
 72
     1
 77
     1
171
     1
175
     1
179
     1
273
     0
  0
XRECORD
  5
29BE
102
{ACAD_REACTORS
330
29BD
102
}
330
29BD
100
AcDbXrecord
280
     1
102
MATERIAL
148
0.0
149
0.0
149
0.0
 93
        0
 94
       63
282
     0
 72
     1
 77
     1
171
     1
175
     1
179
     1
273
     0
  0
XRECORD
  5
29C1
102
{ACAD_REACTORS
330
110
102
}
330
110
100
AcDbXrecord
280
     1
102
MATERIAL
148
0.0
149
0.0
149
0.0
 93
        0
 94
       63
282
     0
 72
     1
 77
     1
171
     1
175
     1
179
     1
273
     0
  0
XRECORD
  5
112
102
{ACAD_REACTORS
330
110
102
}
330
110
100
AcDbXrecord
280
     1
270
     1
271
     1
  0
XRECORD
  5
111
102
{ACAD_REACTORS
330
110
102
}
330
110
100
AcDbXrecord
280
     1
270
     1
271
     1
  0
XRECORD
  5
113
102
{ACAD_REACTORS
330
110
102
}
330
110
100
AcDbXrecord
280
     1
270
     1
271
     1
  0
XRECORD
  5
114
102
{ACAD_REACTORS
330
110
102
}
330
110
100
AcDbXrecord
280
     1
270
     1
271
     1
  0
CELLSTYLEMAP
  5
29BA
102
{ACAD_REACTORS
330
2940
102
}
330
2940
100
AcDbCellStyleMap
 90
        3
300
CELLSTYLE
  1
TABLEFORMAT_BEGIN
 90
        5
170
     1
 91
        0
 92
    32768
 62
   257
 93
        1
300
CONTENTFORMAT
  1
CONTENTFORMAT_BEGIN
 90
        0
 91
        0
 92
      512
 93
        0
300

 40
0.0
140
1.0
 94
        5
 62
     0
340
180
144
0.5
309
CONTENTFORMAT_END
171
     0
 94
        6
 95
        1
302
GRIDFORMAT
  1
GRIDFORMAT_BEGIN
 90
        0
 91
        1
 62
     0
 92
       -2
340
0
 93
        1
 40
0.045
309
GRIDFORMAT_END
 95
        2
302
GRIDFORMAT
  1
GRIDFORMAT_BEGIN
 90
        0
 91
        1
 62
     0
 92
       -2
340
0
 93
        1
 40
0.045
309
GRIDFORMAT_END
 95
        4
302
GRIDFORMAT
  1
GRIDFORMAT_BEGIN
 90
        0
 91
        1
 62
     0
 92
       -2
340
0
 93
        1
 40
0.045
309
GRIDFORMAT_END
 95
        8
302
GRIDFORMAT
  1
GRIDFORMAT_BEGIN
 90
        0
 91
        1
 62
     0
 92
       -2
340
0
 93
        1
 40
0.045
309
GRIDFORMAT_END
 95
       16
302
GRIDFORMAT
  1
GRIDFORMAT_BEGIN
 90
        0
 91
        1
 62
     0
 92
       -2
340
0
 93
        1
 40
0.045
309
GRIDFORMAT_END
 95
       32
302
GRIDFORMAT
  1
GRIDFORMAT_BEGIN
 90
        0
 91
        1
 62
     0
 92
       -2
340
0
 93
        1
 40
0.045
309
GRIDFORMAT_END
309
TABLEFORMAT_END
  1
CELLSTYLE_BEGIN
 90
        1
 91
        1
300
_TITLE
309
CELLSTYLE_END
300
CELLSTYLE
  1
TABLEFORMAT_BEGIN
 90
        5
170
     1
 91
        0
 92
        0
 62
   257
 93
        1
300
CONTENTFORMAT
  1
CONTENTFORMAT_BEGIN
 90
        0
 91
        0
 92
      512
 93
        0
300

 40
0.0
140
1.0
 94
        4
 62
     0
340
180
144
0.4
309
CONTENTFORMAT_END
171
     0
 94
        6
 95
        1
302
GRIDFORMAT
  1
GRIDFORMAT_BEGIN
 90
        0
 91
        1
 62
     0
 92
       -2
340
0
 93
        1
 40
0.045
309
GRIDFORMAT_END
 95
        2
302
GRIDFORMAT
  1
GRIDFORMAT_BEGIN
 90
        0
 91
        1
 62
     0
 92
       -2
340
0
 93
        1
 40
0.045
309
GRIDFORMAT_END
 95
        4
302
GRIDFORMAT
  1
GRIDFORMAT_BEGIN
 90
        0
 91
        1
 62
     0
 92
       -2
340
0
 93
        1
 40
0.045
309
GRIDFORMAT_END
 95
        8
302
GRIDFORMAT
  1
GRIDFORMAT_BEGIN
 90
        0
 91
        1
 62
     0
 92
       -2
340
0
 93
        1
 40
0.045
309
GRIDFORMAT_END
 95
       16
302
GRIDFORMAT
  1
GRIDFORMAT_BEGIN
 90
        0
 91
        1
 62
     0
 92
       -2
340
0
 93
        1
 40
0.045
309
GRIDFORMAT_END
 95
       32
302
GRIDFORMAT
  1
GRIDFORMAT_BEGIN
 90
        0
 91
        1
 62
     0
 92
       -2
340
0
 93
        1
 40
0.045
309
GRIDFORMAT_END
309
TABLEFORMAT_END
  1
CELLSTYLE_BEGIN
 90
        2
 91
        1
300
_HEADER
309
CELLSTYLE_END
300
CELLSTYLE
  1
TABLEFORMAT_BEGIN
 90
        5
170
     1
 91
        0
 92
        0
 62
   257
 93
        1
300
CONTENTFORMAT
  1
CONTENTFORMAT_BEGIN
 90
        0
 91
        0
 92
      512
 93
        0
300

 40
0.0
140
1.0
 94
        4
 62
     0
340
180
144
0.4
309
CONTENTFORMAT_END
171
     0
 94
        6
 95
        1
302
GRIDFORMAT
  1
GRIDFORMAT_BEGIN
 90
        0
 91
        1
 62
     0
 92
       -2
340
0
 93
        1
 40
0.045
309
GRIDFORMAT_END
 95
        2
302
GRIDFORMAT
  1
GRIDFORMAT_BEGIN
 90
        0
 91
        1
 62
     0
 92
       -2
340
0
 93
        1
 40
0.045
309
GRIDFORMAT_END
 95
        4
302
GRIDFORMAT
  1
GRIDFORMAT_BEGIN
 90
        0
 91
        1
 62
     0
 92
       -2
340
0
 93
        1
 40
0.045
309
GRIDFORMAT_END
 95
        8
302
GRIDFORMAT
  1
GRIDFORMAT_BEGIN
 90
        0
 91
        1
 62
     0
 92
       -2
340
0
 93
        1
 40
0.045
309
GRIDFORMAT_END
 95
       16
302
GRIDFORMAT
  1
GRIDFORMAT_BEGIN
 90
        0
 91
        1
 62
     0
 92
       -2
340
0
 93
        1
 40
0.045
309
GRIDFORMAT_END
 95
       32
302
GRIDFORMAT
  1
GRIDFORMAT_BEGIN
 90
        0
 91
        1
 62
     0
 92
       -2
340
0
 93
        1
 40
0.045
309
GRIDFORMAT_END
309
TABLEFORMAT_END
  1
CELLSTYLE_BEGIN
 90
        3
 91
        2
300
_DATA
309
CELLSTYLE_END
  0
XRECORD
  5
29E8
102
{ACAD_REACTORS
330
2940
102
}
330
2940
100
AcDbXrecord
280
     1
102
ACAD_ROUNDTRIP_PRE2007_TABLESTYLE
 90
      512
 91
        0
  1

 92
      512
 93
        0
  2

 94
      512
 95
        0
  3

  0
CELLSTYLEMAP
  5
29B9
102
{ACAD_REACTORS
330
104
102
}
330
104
100
AcDbCellStyleMap
 90
        3
300
CELLSTYLE
  1
TABLEFORMAT_BEGIN
 90
        5
170
     1
 91
        0
 92
    32768
 62
   257
 93
        1
300
CONTENTFORMAT
  1
CONTENTFORMAT_BEGIN
 90
        0
 91
        0
 92
      512
 93
        0
300

 40
0.0
140
1.0
 94
        5
 62
     0
340
11
144
0.25
309
CONTENTFORMAT_END
171
     1
301
MARGIN
  1
CELLMARGIN_BEGIN
 40
0.06
 40
0.06
 40
0.06
 40
0.06
 40
0.18
 40
0.18
309
CELLMARGIN_END
 94
        6
 95
        1
302
GRIDFORMAT
  1
GRIDFORMAT_BEGIN
 90
        0
 91
        1
 62
     0
 92
       -2
340
0
 93
        0
 40
0.045
309
GRIDFORMAT_END
 95
        2
302
GRIDFORMAT
  1
GRIDFORMAT_BEGIN
 90
        0
 91
        1
 62
     0
 92
       -2
340
0
 93
        0
 40
0.045
309
GRIDFORMAT_END
 95
        4
302
GRIDFORMAT
  1
GRIDFORMAT_BEGIN
 90
        0
 91
        1
 62
     0
 92
       -2
340
0
 93
        0
 40
0.045
309
GRIDFORMAT_END
 95
        8
302
GRIDFORMAT
  1
GRIDFORMAT_BEGIN
 90
        0
 91
        1
 62
     0
 92
       -2
340
0
 93
        0
 40
0.045
309
GRIDFORMAT_END
 95
       16
302
GRIDFORMAT
  1
GRIDFORMAT_BEGIN
 90
        0
 91
        1
 62
     0
 92
       -2
340
0
 93
        0
 40
0.045
309
GRIDFORMAT_END
 95
       32
302
GRIDFORMAT
  1
GRIDFORMAT_BEGIN
 90
        0
 91
        1
 62
     0
 92
       -2
340
0
 93
        0
 40
0.045
309
GRIDFORMAT_END
309
TABLEFORMAT_END
  1
CELLSTYLE_BEGIN
 90
        1
 91
        1
300
_TITLE
309
CELLSTYLE_END
300
CELLSTYLE
  1
TABLEFORMAT_BEGIN
 90
        5
170
     1
 91
        0
 92
        0
 62
   257
 93
        1
300
CONTENTFORMAT
  1
CONTENTFORMAT_BEGIN
 90
        0
 91
        0
 92
      512
 93
        0
300

 40
0.0
140
1.0
 94
        5
 62
     0
340
11
144
0.18
309
CONTENTFORMAT_END
171
     1
301
MARGIN
  1
CELLMARGIN_BEGIN
 40
0.06
 40
0.06
 40
0.06
 40
0.06
 40
0.18
 40
0.18
309
CELLMARGIN_END
 94
        6
 95
        1
302
GRIDFORMAT
  1
GRIDFORMAT_BEGIN
 90
        0
 91
        1
 62
     0
 92
       -2
340
0
 93
        0
 40
0.045
309
GRIDFORMAT_END
 95
        2
302
GRIDFORMAT
  1
GRIDFORMAT_BEGIN
 90
        0
 91
        1
 62
     0
 92
       -2
340
0
 93
        0
 40
0.045
309
GRIDFORMAT_END
 95
        4
302
GRIDFORMAT
  1
GRIDFORMAT_BEGIN
 90
        0
 91
        1
 62
     0
 92
       -2
340
0
 93
        0
 40
0.045
309
GRIDFORMAT_END
 95
        8
302
GRIDFORMAT
  1
GRIDFORMAT_BEGIN
 90
        0
 91
        1
 62
     0
 92
       -2
340
0
 93
        0
 40
0.045
309
GRIDFORMAT_END
 95
       16
302
GRIDFORMAT
  1
GRIDFORMAT_BEGIN
 90
        0
 91
        1
 62
     0
 92
       -2
340
0
 93
        0
 40
0.045
309
GRIDFORMAT_END
 95
       32
302
GRIDFORMAT
  1
GRIDFORMAT_BEGIN
 90
        0
 91
        1
 62
     0
 92
       -2
340
0
 93
        0
 40
0.045
309
GRIDFORMAT_END
309
TABLEFORMAT_END
  1
CELLSTYLE_BEGIN
 90
        2
 91
        1
300
_HEADER
309
CELLSTYLE_END
300
CELLSTYLE
  1
TABLEFORMAT_BEGIN
 90
        5
170
     1
 91
        0
 92
        0
 62
   257
 93
        1
300
CONTENTFORMAT
  1
CONTENTFORMAT_BEGIN
 90
        0
 91
        0
 92
      512
 93
        0
300

 40
0.0
140
1.0
 94
        2
 62
     0
340
11
144
0.18
309
CONTENTFORMAT_END
171
     1
301
MARGIN
  1
CELLMARGIN_BEGIN
 40
0.06
 40
0.06
 40
0.06
 40
0.06
 40
0.18
 40
0.18
309
CELLMARGIN_END
 94
        6
 95
        1
302
GRIDFORMAT
  1
GRIDFORMAT_BEGIN
 90
        0
 91
        1
 62
     0
 92
       -2
340
0
 93
        0
 40
0.045
309
GRIDFORMAT_END
 95
        2
302
GRIDFORMAT
  1
GRIDFORMAT_BEGIN
 90
        0
 91
        1
 62
     0
 92
       -2
340
0
 93
        0
 40
0.045
309
GRIDFORMAT_END
 95
        4
302
GRIDFORMAT
  1
GRIDFORMAT_BEGIN
 90
        0
 91
        1
 62
     0
 92
       -2
340
0
 93
        0
 40
0.045
309
GRIDFORMAT_END
 95
        8
302
GRIDFORMAT
  1
GRIDFORMAT_BEGIN
 90
        0
 91
        1
 62
     0
 92
       -2
340
0
 93
        0
 40
0.045
309
GRIDFORMAT_END
 95
       16
302
GRIDFORMAT
  1
GRIDFORMAT_BEGIN
 90
        0
 91
        1
 62
     0
 92
       -2
340
0
 93
        0
 40
0.045
309
GRIDFORMAT_END
 95
       32
302
GRIDFORMAT
  1
GRIDFORMAT_BEGIN
 90
        0
 91
        1
 62
     0
 92
       -2
340
0
 93
        0
 40
0.045
309
GRIDFORMAT_END
309
TABLEFORMAT_END
  1
CELLSTYLE_BEGIN
 90
        3
 91
        2
300
_DATA
309
CELLSTYLE_END
  0
XRECORD
  5
29BC
102
{ACAD_REACTORS
330
104
102
}
330
104
100
AcDbXrecord
280
     1
102
ACAD_ROUNDTRIP_PRE2007_TABLESTYLE
 90
      512
 91
        0
  1

 92
      512
 93
        0
  2

 94
      512
 95
        0
  3

  0
XRECORD
  5
29CD
102
{ACAD_REACTORS
330
29CC
102
}
330
29CC
100
AcDbXrecord
280
     1
102
RTVSPropertyOp0
 70
     1
102
RTVSPropertyOp1
 70
     1
102
RTVSPropertyOp2
 70
     1
102
RTVSPropertyOp3
 70
     1
102
RTVSPropertyOp4
 70
     1
102
RTVSPropertyOp5
 70
     1
102
RTVSPropertyOp6
 70
     1
102
RTVSPropertyOp7
 70
     1
102
RTVSPropertyOp8
 70
     1
102
RTVSPropertyOp9
 70
     1
102
RTVSPropertyOp10
 70
     1
102
RTVSPropertyOp11
 70
     1
102
RTVSPropertyOp12
 70
     1
102
RTVSPropertyOp13
 70
     1
102
RTVSPropertyOp14
 70
     1
102
RTVSPropertyOp15
 70
     1
102
RTVSPropertyOp16
 70
     1
102
RTVSPropertyOp17
 70
     1
102
RTVSPropertyOp18
 70
     1
102
RTVSPropertyOp19
 70
     1
102
RTVSPropertyOp20
 70
     1
102
RTVSPropertyOp21
 70
     1
102
RTVSPropertyOp22
 70
     1
102
RTVSPropertyOp23
 70
     1
102
RTVSPropertyOp24
 70
     1
102
RTVSPropertyOp25
 70
     1
102
RTVSPropertyOp26
 70
     1
102
RTVSPropertyOp27
 70
     1
  0
XRECORD
  5
29D1
102
{ACAD_REACTORS
330
29D0
102
}
330
29D0
100
AcDbXrecord
280
     1
102
RTVSPropertyOp0
 70
     1
102
RTVSPropertyOp1
 70
     1
102
RTVSPropertyOp2
 70
     1
102
RTVSPropertyOp3
 70
     1
102
RTVSPropertyOp4
 70
     1
102
RTVSPropertyOp5
 70
     1
102
RTVSPropertyOp6
 70
     1
102
RTVSPropertyOp7
 70
     1
102
RTVSPropertyOp8
 70
     1
102
RTVSPropertyOp9
 70
     1
102
RTVSPropertyOp10
 70
     1
102
RTVSPropertyOp11
 70
     1
102
RTVSPropertyOp12
 70
     1
102
RTVSPropertyOp13
 70
     1
102
RTVSPropertyOp14
 70
     1
102
RTVSPropertyOp15
 70
     1
102
RTVSPropertyOp16
 70
     1
102
RTVSPropertyOp17
 70
     1
102
RTVSPropertyOp18
 70
     1
102
RTVSPropertyOp19
 70
     1
102
RTVSPropertyOp20
 70
     1
102
RTVSPropertyOp21
 70
     1
102
RTVSPropertyOp22
 70
     1
102
RTVSPropertyOp23
 70
     1
102
RTVSPropertyOp24
 70
     1
102
RTVSPropertyOp25
 70
     1
102
RTVSPropertyOp26
 70
     1
102
RTVSPropertyOp27
 70
     1
  0
XRECORD
  5
29CF
102
{ACAD_REACTORS
330
29CE
102
}
330
29CE
100
AcDbXrecord
280
     1
102
RTVSPropertyOp0
 70
     1
102
RTVSPropertyOp1
 70
     1
102
RTVSPropertyOp2
 70
     1
102
RTVSPropertyOp3
 70
     1
102
RTVSPropertyOp4
 70
     1
102
RTVSPropertyOp5
 70
     1
102
RTVSPropertyOp6
 70
     1
102
RTVSPropertyOp7
 70
     1
102
RTVSPropertyOp8
 70
     1
102
RTVSPropertyOp9
 70
     1
102
RTVSPropertyOp10
 70
     1
102
RTVSPropertyOp11
 70
     1
102
RTVSPropertyOp12
 70
     1
102
RTVSPropertyOp13
 70
     1
102
RTVSPropertyOp14
 70
     1
102
RTVSPropertyOp15
 70
     1
102
RTVSPropertyOp16
 70
     1
102
RTVSPropertyOp17
 70
     1
102
RTVSPropertyOp18
 70
     1
102
RTVSPropertyOp19
 70
     1
102
RTVSPropertyOp20
 70
     1
102
RTVSPropertyOp21
 70
     1
102
RTVSPropertyOp22
 70
     1
102
RTVSPropertyOp23
 70
     1
102
RTVSPropertyOp24
 70
     1
102
RTVSPropertyOp25
 70
     1
102
RTVSPropertyOp26
 70
     1
102
RTVSPropertyOp27
 70
     1
  0
XRECORD
  5
29CB
102
{ACAD_REACTORS
330
29CA
102
}
330
29CA
100
AcDbXrecord
280
     1
102
RTVSPropertyOp0
 70
     1
102
RTVSPropertyOp1
 70
     1
102
RTVSPropertyOp2
 70
     1
102
RTVSPropertyOp3
 70
     1
102
RTVSPropertyOp4
 70
     1
102
RTVSPropertyOp5
 70
     1
102
RTVSPropertyOp6
 70
     1
102
RTVSPropertyOp7
 70
     1
102
RTVSPropertyOp8
 70
     1
102
RTVSPropertyOp9
 70
     1
102
RTVSPropertyOp10
 70
     1
102
RTVSPropertyOp11
 70
     1
102
RTVSPropertyOp12
 70
     1
102
RTVSPropertyOp13
 70
     1
102
RTVSPropertyOp14
 70
     1
102
RTVSPropertyOp15
 70
     1
102
RTVSPropertyOp16
 70
     1
102
RTVSPropertyOp17
 70
     1
102
RTVSPropertyOp18
 70
     1
102
RTVSPropertyOp19
 70
     1
102
RTVSPropertyOp20
 70
     1
102
RTVSPropertyOp21
 70
     1
102
RTVSPropertyOp22
 70
     1
102
RTVSPropertyOp23
 70
     1
102
RTVSPropertyOp24
 70
     1
102
RTVSPropertyOp25
 70
     1
102
RTVSPropertyOp26
 70
     1
102
RTVSPropertyOp27
 70
     1
  0
XRECORD
  5
29D9
102
{ACAD_REACTORS
330
29D8
102
}
330
29D8
100
AcDbXrecord
280
     1
102
RTVSPropertyOp0
 70
     1
102
RTVSPropertyOp1
 70
     1
102
RTVSPropertyOp2
 70
     1
102
RTVSPropertyOp3
 70
     1
102
RTVSPropertyOp4
 70
     1
102
RTVSPropertyOp5
 70
     1
102
RTVSPropertyOp6
 70
     1
102
RTVSPropertyOp7
 70
     1
102
RTVSPropertyOp8
 70
     1
102
RTVSPropertyOp9
 70
     1
102
RTVSPropertyOp10
 70
     1
102
RTVSPropertyOp11
 70
     1
102
RTVSPropertyOp12
 70
     1
102
RTVSPropertyOp13
 70
     1
102
RTVSPropertyOp14
 70
     1
102
RTVSPropertyOp15
 70
     1
102
RTVSPropertyOp16
 70
     1
102
RTVSPropertyOp17
 70
     1
102
RTVSPropertyOp18
 70
     1
102
RTVSPropertyOp19
 70
     1
102
RTVSPropertyOp20
 70
     1
102
RTVSPropertyOp21
 70
     1
102
RTVSPropertyOp22
 70
     1
102
RTVSPropertyOp23
 70
     1
102
RTVSPropertyOp24
 70
     1
102
RTVSPropertyOp25
 70
     1
102
RTVSPropertyOp26
 70
     1
102
RTVSPropertyOp27
 70
     1
  0
XRECORD
  5
29E1
102
{ACAD_REACTORS
330
29E0
102
}
330
29E0
100
AcDbXrecord
280
     1
102
RTVSPropertyOp0
 70
     1
102
RTVSPropertyOp1
 70
     1
102
RTVSPropertyOp2
 70
     1
102
RTVSPropertyOp3
 70
     1
102
RTVSPropertyOp4
 70
     1
102
RTVSPropertyOp5
 70
     1
102
RTVSPropertyOp6
 70
     1
102
RTVSPropertyOp7
 70
     1
102
RTVSPropertyOp8
 70
     1
102
RTVSPropertyOp9
 70
     1
102
RTVSPropertyOp10
 70
     1
102
RTVSPropertyOp11
 70
     1
102
RTVSPropertyOp12
 70
     1
102
RTVSPropertyOp13
 70
     1
102
RTVSPropertyOp14
 70
     1
102
RTVSPropertyOp15
 70
     1
102
RTVSPropertyOp16
 70
     1
102
RTVSPropertyOp17
 70
     1
102
RTVSPropertyOp18
 70
     1
102
RTVSPropertyOp19
 70
     1
102
RTVSPropertyOp20
 70
     1
102
RTVSPropertyOp21
 70
     1
102
RTVSPropertyOp22
 70
     1
102
RTVSPropertyOp23
 70
     1
102
RTVSPropertyOp24
 70
     1
102
RTVSPropertyOp25
 70
     1
102
RTVSPropertyOp26
 70
     1
102
RTVSPropertyOp27
 70
     1
  0
XRECORD
  5
29D3
102
{ACAD_REACTORS
330
29D2
102
}
330
29D2
100
AcDbXrecord
280
     1
102
RTVSPropertyOp0
 70
     1
102
RTVSPropertyOp1
 70
     1
102
RTVSPropertyOp2
 70
     1
102
RTVSPropertyOp3
 70
     1
102
RTVSPropertyOp4
 70
     1
102
RTVSPropertyOp5
 70
     1
102
RTVSPropertyOp6
 70
     1
102
RTVSPropertyOp7
 70
     1
102
RTVSPropertyOp8
 70
     1
102
RTVSPropertyOp9
 70
     1
102
RTVSPropertyOp10
 70
     1
102
RTVSPropertyOp11
 70
     1
102
RTVSPropertyOp12
 70
     1
102
RTVSPropertyOp13
 70
     1
102
RTVSPropertyOp14
 70
     1
102
RTVSPropertyOp15
 70
     1
102
RTVSPropertyOp16
 70
     1
102
RTVSPropertyOp17
 70
     1
102
RTVSPropertyOp18
 70
     1
102
RTVSPropertyOp19
 70
     1
102
RTVSPropertyOp20
 70
     1
102
RTVSPropertyOp21
 70
     1
102
RTVSPropertyOp22
 70
     1
102
RTVSPropertyOp23
 70
     1
102
RTVSPropertyOp24
 70
     1
102
RTVSPropertyOp25
 70
     1
102
RTVSPropertyOp26
 70
     1
102
RTVSPropertyOp27
 70
     1
  0
XRECORD
  5
29D7
102
{ACAD_REACTORS
330
29D6
102
}
330
29D6
100
AcDbXrecord
280
     1
102
RTVSPropertyOp0
 70
     1
102
RTVSPropertyOp1
 70
     1
102
RTVSPropertyOp2
 70
     1
102
RTVSPropertyOp3
 70
     1
102
RTVSPropertyOp4
 70
     1
102
RTVSPropertyOp5
 70
     1
102
RTVSPropertyOp6
 70
     1
102
RTVSPropertyOp7
 70
     1
102
RTVSPropertyOp8
 70
     1
102
RTVSPropertyOp9
 70
     1
102
RTVSPropertyOp10
 70
     1
102
RTVSPropertyOp11
 70
     1
102
RTVSPropertyOp12
 70
     1
102
RTVSPropertyOp13
 70
     1
102
RTVSPropertyOp14
 70
     1
102
RTVSPropertyOp15
 70
     1
102
RTVSPropertyOp16
 70
     1
102
RTVSPropertyOp17
 70
     1
102
RTVSPropertyOp18
 70
     1
102
RTVSPropertyOp19
 70
     1
102
RTVSPropertyOp20
 70
     1
102
RTVSPropertyOp21
 70
     1
102
RTVSPropertyOp22
 70
     1
102
RTVSPropertyOp23
 70
     1
102
RTVSPropertyOp24
 70
     1
102
RTVSPropertyOp25
 70
     1
102
RTVSPropertyOp26
 70
     1
102
RTVSPropertyOp27
 70
     1
  0
XRECORD
  5
29E7
102
{ACAD_REACTORS
330
29E6
102
}
330
29E6
100
AcDbXrecord
280
     1
102
RTVSPropertyOp0
 70
     0
102
RTVSPropertyOp1
 70
     0
102
RTVSPropertyOp2
 70
     0
102
RTVSPropertyOp3
 70
     0
102
RTVSPropertyOp4
 70
     0
102
RTVSPropertyOp5
 70
     0
102
RTVSPropertyOp6
 70
     0
102
RTVSPropertyOp7
 70
     0
102
RTVSPropertyOp8
 70
     0
102
RTVSPropertyOp9
 70
     0
102
RTVSPropertyOp10
 70
     0
102
RTVSPropertyOp11
 70
     0
102
RTVSPropertyOp12
 70
     0
102
RTVSPropertyOp13
 70
     0
102
RTVSPropertyOp14
 70
     2
102
RTVSPropertyOp15
 70
     0
102
RTVSPropertyOp16
 70
     0
102
RTVSPropertyOp17
 70
     0
102
RTVSPropertyOp18
 70
     0
102
RTVSPropertyOp19
 70
     0
102
RTVSPropertyOp20
 70
     0
102
RTVSPropertyOp21
 70
     0
102
RTVSPropertyOp22
 70
     0
102
RTVSPropertyOp23
 70
     0
102
RTVSPropertyOp24
 70
     0
102
RTVSPropertyOp25
 70
     0
102
RTVSPropertyOp26
 70
     0
102
RTVSPropertyOp27
 70
     0
  0
XRECORD
  5
29DF
102
{ACAD_REACTORS
330
29DE
102
}
330
29DE
100
AcDbXrecord
280
     1
102
RTVSPropertyOp0
 70
     1
102
RTVSPropertyOp1
 70
     1
102
RTVSPropertyOp2
 70
     1
102
RTVSPropertyOp3
 70
     1
102
RTVSPropertyOp4
 70
     1
102
RTVSPropertyOp5
 70
     1
102
RTVSPropertyOp6
 70
     1
102
RTVSPropertyOp7
 70
     1
102
RTVSPropertyOp8
 70
     1
102
RTVSPropertyOp9
 70
     1
102
RTVSPropertyOp10
 70
     1
102
RTVSPropertyOp11
 70
     1
102
RTVSPropertyOp12
 70
     1
102
RTVSPropertyOp13
 70
     1
102
RTVSPropertyOp14
 70
     1
102
RTVSPropertyOp15
 70
     1
102
RTVSPropertyOp16
 70
     1
102
RTVSPropertyOp17
 70
     1
102
RTVSPropertyOp18
 70
     1
102
RTVSPropertyOp19
 70
     1
102
RTVSPropertyOp20
 70
     1
102
RTVSPropertyOp21
 70
     1
102
RTVSPropertyOp22
 70
     1
102
RTVSPropertyOp23
 70
     1
102
RTVSPropertyOp24
 70
     1
102
RTVSPropertyOp25
 70
     1
102
RTVSPropertyOp26
 70
     1
102
RTVSPropertyOp27
 70
     1
  0
XRECORD
  5
29C3
102
{ACAD_REACTORS
330
29C2
102
}
330
29C2
100
AcDbXrecord
280
     1
102
RTVSPropertyOp0
 70
     1
102
RTVSPropertyOp1
 70
     1
102
RTVSPropertyOp2
 70
     1
102
RTVSPropertyOp3
 70
     1
102
RTVSPropertyOp4
 70
     1
102
RTVSPropertyOp5
 70
     1
102
RTVSPropertyOp6
 70
     1
102
RTVSPropertyOp7
 70
     1
102
RTVSPropertyOp8
 70
     1
102
RTVSPropertyOp9
 70
     1
102
RTVSPropertyOp10
 70
     1
102
RTVSPropertyOp11
 70
     1
102
RTVSPropertyOp12
 70
     1
102
RTVSPropertyOp13
 70
     1
102
RTVSPropertyOp14
 70
     1
102
RTVSPropertyOp15
 70
     1
102
RTVSPropertyOp16
 70
     1
102
RTVSPropertyOp17
 70
     1
102
RTVSPropertyOp18
 70
     1
102
RTVSPropertyOp19
 70
     1
102
RTVSPropertyOp20
 70
     1
102
RTVSPropertyOp21
 70
     1
102
RTVSPropertyOp22
 70
     1
102
RTVSPropertyOp23
 70
     1
102
RTVSPropertyOp24
 70
     1
102
RTVSPropertyOp25
 70
     1
102
RTVSPropertyOp26
 70
     1
102
RTVSPropertyOp27
 70
     1
  0
XRECORD
  5
29C5
102
{ACAD_REACTORS
330
29C4
102
}
330
29C4
100
AcDbXrecord
280
     1
102
RTVSPropertyOp0
 70
     1
102
RTVSPropertyOp1
 70
     1
102
RTVSPropertyOp2
 70
     1
102
RTVSPropertyOp3
 70
     1
102
RTVSPropertyOp4
 70
     1
102
RTVSPropertyOp5
 70
     1
102
RTVSPropertyOp6
 70
     1
102
RTVSPropertyOp7
 70
     1
102
RTVSPropertyOp8
 70
     1
102
RTVSPropertyOp9
 70
     1
102
RTVSPropertyOp10
 70
     1
102
RTVSPropertyOp11
 70
     1
102
RTVSPropertyOp12
 70
     1
102
RTVSPropertyOp13
 70
     1
102
RTVSPropertyOp14
 70
     1
102
RTVSPropertyOp15
 70
     1
102
RTVSPropertyOp16
 70
     1
102
RTVSPropertyOp17
 70
     1
102
RTVSPropertyOp18
 70
     1
102
RTVSPropertyOp19
 70
     1
102
RTVSPropertyOp20
 70
     1
102
RTVSPropertyOp21
 70
     1
102
RTVSPropertyOp22
 70
     1
102
RTVSPropertyOp23
 70
     1
102
RTVSPropertyOp24
 70
     1
102
RTVSPropertyOp25
 70
     1
102
RTVSPropertyOp26
 70
     1
102
RTVSPropertyOp27
 70
     1
  0
XRECORD
  5
29C7
102
{ACAD_REACTORS
330
29C6
102
}
330
29C6
100
AcDbXrecord
280
     1
102
RTVSPropertyOp0
 70
     1
102
RTVSPropertyOp1
 70
     1
102
RTVSPropertyOp2
 70
     1
102
RTVSPropertyOp3
 70
     1
102
RTVSPropertyOp4
 70
     1
102
RTVSPropertyOp5
 70
     1
102
RTVSPropertyOp6
 70
     1
102
RTVSPropertyOp7
 70
     1
102
RTVSPropertyOp8
 70
     1
102
RTVSPropertyOp9
 70
     1
102
RTVSPropertyOp10
 70
     1
102
RTVSPropertyOp11
 70
     1
102
RTVSPropertyOp12
 70
     1
102
RTVSPropertyOp13
 70
     1
102
RTVSPropertyOp14
 70
     1
102
RTVSPropertyOp15
 70
     1
102
RTVSPropertyOp16
 70
     1
102
RTVSPropertyOp17
 70
     1
102
RTVSPropertyOp18
 70
     1
102
RTVSPropertyOp19
 70
     1
102
RTVSPropertyOp20
 70
     1
102
RTVSPropertyOp21
 70
     1
102
RTVSPropertyOp22
 70
     1
102
RTVSPropertyOp23
 70
     1
102
RTVSPropertyOp24
 70
     1
102
RTVSPropertyOp25
 70
     1
102
RTVSPropertyOp26
 70
     1
102
RTVSPropertyOp27
 70
     1
  0
XRECORD
  5
29C9
102
{ACAD_REACTORS
330
29C8
102
}
330
29C8
100
AcDbXrecord
280
     1
102
RTVSPropertyOp0
 70
     1
102
RTVSPropertyOp1
 70
     1
102
RTVSPropertyOp2
 70
     1
102
RTVSPropertyOp3
 70
     1
102
RTVSPropertyOp4
 70
     1
102
RTVSPropertyOp5
 70
     1
102
RTVSPropertyOp6
 70
     1
102
RTVSPropertyOp7
 70
     1
102
RTVSPropertyOp8
 70
     1
102
RTVSPropertyOp9
 70
     1
102
RTVSPropertyOp10
 70
     1
102
RTVSPropertyOp11
 70
     1
102
RTVSPropertyOp12
 70
     1
102
RTVSPropertyOp13
 70
     1
102
RTVSPropertyOp14
 70
     1
102
RTVSPropertyOp15
 70
     1
102
RTVSPropertyOp16
 70
     1
102
RTVSPropertyOp17
 70
     1
102
RTVSPropertyOp18
 70
     1
102
RTVSPropertyOp19
 70
     1
102
RTVSPropertyOp20
 70
     1
102
RTVSPropertyOp21
 70
     1
102
RTVSPropertyOp22
 70
     1
102
RTVSPropertyOp23
 70
     1
102
RTVSPropertyOp24
 70
     1
102
RTVSPropertyOp25
 70
     1
102
RTVSPropertyOp26
 70
     1
102
RTVSPropertyOp27
 70
     1
  0
XRECORD
  5
1B0
102
{ACAD_REACTORS
330
1AF
102
}
330
1AF
100
AcDbXrecord
280
     1
102
RTVSPropertyOp28
 70
     1
102
RTVSPropertyOp29
 70
     1
102
RTVSPropertyOp30
 70
     1
102
RTVSPropertyOp31
 70
     1
102
RTVSPropertyOp32
 70
     1
102
RTVSPropertyOp0
 70
     1
102
RTVSPropertyOp1
 70
     1
102
RTVSPropertyOp2
 70
     1
102
RTVSPropertyOp3
 70
     1
102
RTVSPropertyOp4
 70
     1
102
RTVSPropertyOp5
 70
     1
102
RTVSPropertyOp6
 70
     1
102
RTVSPropertyOp7
 70
     1
102
RTVSPropertyOp8
 70
     1
102
RTVSPropertyOp9
 70
     1
102
RTVSPropertyOp10
 70
     1
102
RTVSPropertyOp11
 70
     1
102
RTVSPropertyOp12
 70
     1
102
RTVSPropertyOp13
 70
     1
102
RTVSPropertyOp14
 70
     1
102
RTVSPropertyOp15
 70
     1
102
RTVSPropertyOp16
 70
     1
102
RTVSPropertyOp17
 70
     1
102
RTVSPropertyOp18
 70
     1
102
RTVSPropertyOp19
 70
     1
102
RTVSPropertyOp20
 70
     1
102
RTVSPropertyOp21
 70
     1
102
RTVSPropertyOp22
 70
     1
102
RTVSPropertyOp23
 70
     1
102
RTVSPropertyOp24
 70
     1
102
RTVSPropertyOp25
 70
     1
102
RTVSPropertyOp26
 70
     1
102
RTVSPropertyOp27
 70
     1
  0
XRECORD
  5
29E3
102
{ACAD_REACTORS
330
29E2
102
}
330
29E2
100
AcDbXrecord
280
     1
102
RTVSPropertyOp0
 70
     0
102
RTVSPropertyOp1
 70
     0
102
RTVSPropertyOp2
 70
     0
102
RTVSPropertyOp3
 70
     0
102
RTVSPropertyOp4
 70
     0
102
RTVSPropertyOp5
 70
     0
102
RTVSPropertyOp6
 70
     0
102
RTVSPropertyOp7
 70
     0
102
RTVSPropertyOp8
 70
     0
102
RTVSPropertyOp9
 70
     0
102
RTVSPropertyOp10
 70
     0
102
RTVSPropertyOp11
 70
     0
102
RTVSPropertyOp12
 70
     0
102
RTVSPropertyOp13
 70
     0
102
RTVSPropertyOp14
 70
     2
102
RTVSPropertyOp15
 70
     0
102
RTVSPropertyOp16
 70
     0
102
RTVSPropertyOp17
 70
     0
102
RTVSPropertyOp18
 70
     0
102
RTVSPropertyOp19
 70
     0
102
RTVSPropertyOp20
 70
     0
102
RTVSPropertyOp21
 70
     0
102
RTVSPropertyOp22
 70
     0
102
RTVSPropertyOp23
 70
     0
102
RTVSPropertyOp24
 70
     0
102
RTVSPropertyOp25
 70
     0
102
RTVSPropertyOp26
 70
     0
102
RTVSPropertyOp27
 70
     0
  0
XRECORD
  5
29DD
102
{ACAD_REACTORS
330
29DC
102
}
330
29DC
100
AcDbXrecord
280
     1
102
RTVSPropertyOp0
 70
     1
102
RTVSPropertyOp1
 70
     1
102
RTVSPropertyOp2
 70
     1
102
RTVSPropertyOp3
 70
     1
102
RTVSPropertyOp4
 70
     1
102
RTVSPropertyOp5
 70
     1
102
RTVSPropertyOp6
 70
     1
102
RTVSPropertyOp7
 70
     1
102
RTVSPropertyOp8
 70
     1
102
RTVSPropertyOp9
 70
     1
102
RTVSPropertyOp10
 70
     1
102
RTVSPropertyOp11
 70
     1
102
RTVSPropertyOp12
 70
     1
102
RTVSPropertyOp13
 70
     1
102
RTVSPropertyOp14
 70
     1
102
RTVSPropertyOp15
 70
     1
102
RTVSPropertyOp16
 70
     1
102
RTVSPropertyOp17
 70
     1
102
RTVSPropertyOp18
 70
     1
102
RTVSPropertyOp19
 70
     1
102
RTVSPropertyOp20
 70
     1
102
RTVSPropertyOp21
 70
     1
102
RTVSPropertyOp22
 70
     1
102
RTVSPropertyOp23
 70
     1
102
RTVSPropertyOp24
 70
     1
102
RTVSPropertyOp25
 70
     1
102
RTVSPropertyOp26
 70
     1
102
RTVSPropertyOp27
 70
     1
  0
XRECORD
  5
29E5
102
{ACAD_REACTORS
330
29E4
102
}
330
29E4
100
AcDbXrecord
280
     1
102
RTVSPropertyOp0
 70
     0
102
RTVSPropertyOp1
 70
     0
102
RTVSPropertyOp2
 70
     0
102
RTVSPropertyOp3
 70
     0
102
RTVSPropertyOp4
 70
     0
102
RTVSPropertyOp5
 70
     0
102
RTVSPropertyOp6
 70
     0
102
RTVSPropertyOp7
 70
     0
102
RTVSPropertyOp8
 70
     0
102
RTVSPropertyOp9
 70
     0
102
RTVSPropertyOp10
 70
     0
102
RTVSPropertyOp11
 70
     0
102
RTVSPropertyOp12
 70
     0
102
RTVSPropertyOp13
 70
     0
102
RTVSPropertyOp14
 70
     2
102
RTVSPropertyOp15
 70
     0
102
RTVSPropertyOp16
 70
     0
102
RTVSPropertyOp17
 70
     0
102
RTVSPropertyOp18
 70
     0
102
RTVSPropertyOp19
 70
     0
102
RTVSPropertyOp20
 70
     0
102
RTVSPropertyOp21
 70
     0
102
RTVSPropertyOp22
 70
     0
102
RTVSPropertyOp23
 70
     0
102
RTVSPropertyOp24
 70
     0
102
RTVSPropertyOp25
 70
     0
102
RTVSPropertyOp26
 70
     0
102
RTVSPropertyOp27
 70
     0
  0
XRECORD
  5
29D5
102
{ACAD_REACTORS
330
29D4
102
}
330
29D4
100
AcDbXrecord
280
     1
102
RTVSPropertyOp0
 70
     1
102
RTVSPropertyOp1
 70
     1
102
RTVSPropertyOp2
 70
     1
102
RTVSPropertyOp3
 70
     1
102
RTVSPropertyOp4
 70
     1
102
RTVSPropertyOp5
 70
     1
102
RTVSPropertyOp6
 70
     1
102
RTVSPropertyOp7
 70
     1
102
RTVSPropertyOp8
 70
     1
102
RTVSPropertyOp9
 70
     1
102
RTVSPropertyOp10
 70
     1
102
RTVSPropertyOp11
 70
     1
102
RTVSPropertyOp12
 70
     1
102
RTVSPropertyOp13
 70
     1
102
RTVSPropertyOp14
 70
     1
102
RTVSPropertyOp15
 70
     1
102
RTVSPropertyOp16
 70
     1
102
RTVSPropertyOp17
 70
     1
102
RTVSPropertyOp18
 70
     1
102
RTVSPropertyOp19
 70
     1
102
RTVSPropertyOp20
 70
     1
102
RTVSPropertyOp21
 70
     1
102
RTVSPropertyOp22
 70
     1
102
RTVSPropertyOp23
 70
     1
102
RTVSPropertyOp24
 70
     1
102
RTVSPropertyOp25
 70
     1
102
RTVSPropertyOp26
 70
     1
102
RTVSPropertyOp27
 70
     1
  0
XRECORD
  5
1B3
102
{ACAD_REACTORS
330
1B2
102
}
330
1B2
100
AcDbXrecord
280
     1
102
RTVSPropertyOp28
 70
     1
102
RTVSPropertyOp29
 70
     1
102
RTVSPropertyOp30
 70
     1
102
RTVSPropertyOp31
 70
     1
102
RTVSPropertyOp32
 70
     1
102
RTVSPropertyOp0
 70
     1
102
RTVSPropertyOp1
 70
     1
102
RTVSPropertyOp2
 70
     1
102
RTVSPropertyOp3
 70
     1
102
RTVSPropertyOp4
 70
     1
102
RTVSPropertyOp5
 70
     1
102
RTVSPropertyOp6
 70
     1
102
RTVSPropertyOp7
 70
     1
102
RTVSPropertyOp8
 70
     1
102
RTVSPropertyOp9
 70
     1
102
RTVSPropertyOp10
 70
     1
102
RTVSPropertyOp11
 70
     1
102
RTVSPropertyOp12
 70
     1
102
RTVSPropertyOp13
 70
     1
102
RTVSPropertyOp14
 70
     1
102
RTVSPropertyOp15
 70
     1
102
RTVSPropertyOp16
 70
     1
102
RTVSPropertyOp17
 70
     1
102
RTVSPropertyOp18
 70
     1
102
RTVSPropertyOp19
 70
     1
102
RTVSPropertyOp20
 70
     1
102
RTVSPropertyOp21
 70
     1
102
RTVSPropertyOp22
 70
     1
102
RTVSPropertyOp23
 70
     1
102
RTVSPropertyOp24
 70
     1
102
RTVSPropertyOp25
 70
     1
102
RTVSPropertyOp26
 70
     1
102
RTVSPropertyOp27
 70
     1
  0
XRECORD
  5
1B6
102
{ACAD_REACTORS
330
1B5
102
}
330
1B5
100
AcDbXrecord
280
     1
102
RTVSPropertyOp28
 70
     1
102
RTVSPropertyOp29
 70
     1
102
RTVSPropertyOp30
 70
     1
102
RTVSPropertyOp31
 70
     1
102
RTVSPropertyOp32
 70
     1
102
RTVSPropertyOp0
 70
     1
102
RTVSPropertyOp1
 70
     1
102
RTVSPropertyOp2
 70
     1
102
RTVSPropertyOp3
 70
     1
102
RTVSPropertyOp4
 70
     1
102
RTVSPropertyOp5
 70
     1
102
RTVSPropertyOp6
 70
     1
102
RTVSPropertyOp7
 70
     1
102
RTVSPropertyOp8
 70
     1
102
RTVSPropertyOp9
 70
     1
102
RTVSPropertyOp10
 70
     1
102
RTVSPropertyOp11
 70
     1
102
RTVSPropertyOp12
 70
     1
102
RTVSPropertyOp13
 70
     1
102
RTVSPropertyOp14
 70
     1
102
RTVSPropertyOp15
 70
     1
102
RTVSPropertyOp16
 70
     1
102
RTVSPropertyOp17
 70
     1
102
RTVSPropertyOp18
 70
     1
102
RTVSPropertyOp19
 70
     1
102
RTVSPropertyOp20
 70
     1
102
RTVSPropertyOp21
 70
     1
102
RTVSPropertyOp22
 70
     1
102
RTVSPropertyOp23
 70
     1
102
RTVSPropertyOp24
 70
     1
102
RTVSPropertyOp25
 70
     1
102
RTVSPropertyOp26
 70
     1
102
RTVSPropertyOp27
 70
     1
  0
XRECORD
  5
1B9
102
{ACAD_REACTORS
330
1B8
102
}
330
1B8
100
AcDbXrecord
280
     1
102
RTVSPropertyOp28
 70
     1
102
RTVSPropertyOp29
 70
     1
102
RTVSPropertyOp30
 70
     1
102
RTVSPropertyOp31
 70
     1
102
RTVSPropertyOp32
 70
     1
102
RTVSPropertyOp0
 70
     1
102
RTVSPropertyOp1
 70
     1
102
RTVSPropertyOp2
 70
     1
102
RTVSPropertyOp3
 70
     1
102
RTVSPropertyOp4
 70
     1
102
RTVSPropertyOp5
 70
     1
102
RTVSPropertyOp6
 70
     1
102
RTVSPropertyOp7
 70
     1
102
RTVSPropertyOp8
 70
     1
102
RTVSPropertyOp9
 70
     1
102
RTVSPropertyOp10
 70
     1
102
RTVSPropertyOp11
 70
     1
102
RTVSPropertyOp12
 70
     1
102
RTVSPropertyOp13
 70
     1
102
RTVSPropertyOp14
 70
     1
102
RTVSPropertyOp15
 70
     1
102
RTVSPropertyOp16
 70
     1
102
RTVSPropertyOp17
 70
     1
102
RTVSPropertyOp18
 70
     1
102
RTVSPropertyOp19
 70
     1
102
RTVSPropertyOp20
 70
     1
102
RTVSPropertyOp21
 70
     1
102
RTVSPropertyOp22
 70
     1
102
RTVSPropertyOp23
 70
     1
102
RTVSPropertyOp24
 70
     1
102
RTVSPropertyOp25
 70
     1
102
RTVSPropertyOp26
 70
     1
102
RTVSPropertyOp27
 70
     1
  0
XRECORD
  5
1BC
102
{ACAD_REACTORS
330
1BB
102
}
330
1BB
100
AcDbXrecord
280
     1
102
RTVSPropertyOp28
 70
     1
102
RTVSPropertyOp29
 70
     1
102
RTVSPropertyOp30
 70
     1
102
RTVSPropertyOp31
 70
     1
102
RTVSPropertyOp32
 70
     1
102
RTVSPropertyOp0
 70
     1
102
RTVSPropertyOp1
 70
     1
102
RTVSPropertyOp2
 70
     1
102
RTVSPropertyOp3
 70
     1
102
RTVSPropertyOp4
 70
     1
102
RTVSPropertyOp5
 70
     1
102
RTVSPropertyOp6
 70
     1
102
RTVSPropertyOp7
 70
     1
102
RTVSPropertyOp8
 70
     1
102
RTVSPropertyOp9
 70
     1
102
RTVSPropertyOp10
 70
     1
102
RTVSPropertyOp11
 70
     1
102
RTVSPropertyOp12
 70
     1
102
RTVSPropertyOp13
 70
     1
102
RTVSPropertyOp14
 70
     1
102
RTVSPropertyOp15
 70
     1
102
RTVSPropertyOp16
 70
     1
102
RTVSPropertyOp17
 70
     1
102
RTVSPropertyOp18
 70
     1
102
RTVSPropertyOp19
 70
     1
102
RTVSPropertyOp20
 70
     1
102
RTVSPropertyOp21
 70
     1
102
RTVSPropertyOp22
 70
     1
102
RTVSPropertyOp23
 70
     1
102
RTVSPropertyOp24
 70
     1
102
RTVSPropertyOp25
 70
     1
102
RTVSPropertyOp26
 70
     1
102
RTVSPropertyOp27
 70
     1
  0
XRECORD
  5
29DB
102
{ACAD_REACTORS
330
29DA
102
}
330
29DA
100
AcDbXrecord
280
     1
102
RTVSPropertyOp0
 70
     1
102
RTVSPropertyOp1
 70
     1
102
RTVSPropertyOp2
 70
     1
102
RTVSPropertyOp3
 70
     1
102
RTVSPropertyOp4
 70
     1
102
RTVSPropertyOp5
 70
     1
102
RTVSPropertyOp6
 70
     1
102
RTVSPropertyOp7
 70
     1
102
RTVSPropertyOp8
 70
     1
102
RTVSPropertyOp9
 70
     1
102
RTVSPropertyOp10
 70
     1
102
RTVSPropertyOp11
 70
     1
102
RTVSPropertyOp12
 70
     1
102
RTVSPropertyOp13
 70
     1
102
RTVSPropertyOp14
 70
     1
102
RTVSPropertyOp15
 70
     1
102
RTVSPropertyOp16
 70
     1
102
RTVSPropertyOp17
 70
     1
102
RTVSPropertyOp18
 70
     1
102
RTVSPropertyOp19
 70
     1
102
RTVSPropertyOp20
 70
     1
102
RTVSPropertyOp21
 70
     1
102
RTVSPropertyOp22
 70
     1
102
RTVSPropertyOp23
 70
     1
102
RTVSPropertyOp24
 70
     1
102
RTVSPropertyOp25
 70
     1
102
RTVSPropertyOp26
 70
     1
102
RTVSPropertyOp27
 70
     1
  0
XRECORD
  5
1BF
102
{ACAD_REACTORS
330
1BE
102
}
330
1BE
100
AcDbXrecord
280
     1
102
RTVSPropertyOp28
 70
     1
102
RTVSPropertyOp29
 70
     1
102
RTVSPropertyOp30
 70
     1
102
RTVSPropertyOp31
 70
     1
102
RTVSPropertyOp32
 70
     1
102
RTVSPropertyOp0
 70
     1
102
RTVSPropertyOp1
 70
     1
102
RTVSPropertyOp2
 70
     1
102
RTVSPropertyOp3
 70
     1
102
RTVSPropertyOp4
 70
     1
102
RTVSPropertyOp5
 70
     1
102
RTVSPropertyOp6
 70
     1
102
RTVSPropertyOp7
 70
     1
102
RTVSPropertyOp8
 70
     1
102
RTVSPropertyOp9
 70
     1
102
RTVSPropertyOp10
 70
     1
102
RTVSPropertyOp11
 70
     1
102
RTVSPropertyOp12
 70
     1
102
RTVSPropertyOp13
 70
     1
102
RTVSPropertyOp14
 70
     1
102
RTVSPropertyOp15
 70
     1
102
RTVSPropertyOp16
 70
     1
102
RTVSPropertyOp17
 70
     1
102
RTVSPropertyOp18
 70
     1
102
RTVSPropertyOp19
 70
     1
102
RTVSPropertyOp20
 70
     1
102
RTVSPropertyOp21
 70
     1
102
RTVSPropertyOp22
 70
     1
102
RTVSPropertyOp23
 70
     1
102
RTVSPropertyOp24
 70
     1
102
RTVSPropertyOp25
 70
     1
102
RTVSPropertyOp26
 70
     1
102
RTVSPropertyOp27
 70
     1
  0
XRECORD
  5
1C2
102
{ACAD_REACTORS
330
1C1
102
}
330
1C1
100
AcDbXrecord
280
     1
102
RTVSPropertyOp28
 70
     1
102
RTVSPropertyOp29
 70
     1
102
RTVSPropertyOp30
 70
     1
102
RTVSPropertyOp31
 70
     1
102
RTVSPropertyOp32
 70
     1
102
RTVSPropertyOp0
 70
     1
102
RTVSPropertyOp1
 70
     1
102
RTVSPropertyOp2
 70
     1
102
RTVSPropertyOp3
 70
     1
102
RTVSPropertyOp4
 70
     1
102
RTVSPropertyOp5
 70
     1
102
RTVSPropertyOp6
 70
     1
102
RTVSPropertyOp7
 70
     1
102
RTVSPropertyOp8
 70
     1
102
RTVSPropertyOp9
 70
     1
102
RTVSPropertyOp10
 70
     1
102
RTVSPropertyOp11
 70
     1
102
RTVSPropertyOp12
 70
     1
102
RTVSPropertyOp13
 70
     1
102
RTVSPropertyOp14
 70
     1
102
RTVSPropertyOp15
 70
     1
102
RTVSPropertyOp16
 70
     1
102
RTVSPropertyOp17
 70
     1
102
RTVSPropertyOp18
 70
     1
102
RTVSPropertyOp19
 70
     1
102
RTVSPropertyOp20
 70
     1
102
RTVSPropertyOp21
 70
     1
102
RTVSPropertyOp22
 70
     1
102
RTVSPropertyOp23
 70
     1
102
RTVSPropertyOp24
 70
     1
102
RTVSPropertyOp25
 70
     1
102
RTVSPropertyOp26
 70
     1
102
RTVSPropertyOp27
 70
     1
  0
DMBASEELEMENT
  5
182
102
{ACAD_XDICTIONARY
360
186
102
}
102
{ACAD_REACTORS
330
17F
102
}
330
17F
100
AcMapDMBaseElement
 70
     1
  1
Map Base
 70
     1
330
17F
100
AcMapDMBaseElement
 70
     1
  1

 70
     2
  1

 70
     1
 40
1.797693134862314E+99
 70
     1
 70
     1
 70
     1
 70
     1
360
185
100
AcMapDMBaseElement
 70
     1
  0
DMDEFAULTSTYLE
  5
183
102
{ACAD_REACTORS
330
17F
102
}
330
17F
100
AcMapDMDefaultStyle
 70
     1
 90
        1
  1
Default
100
AcMapDMDefaultStyle
 70
     1
280
   100
 90
     0
1001
AcMapDMDisplayStyleRegapp
1070
     2
1071
        1
1000
Default
1000

  0
DICTIONARY
  5
186
330
182
100
AcDbDictionary
280
     1
281
     1
  3
AcMapDMSurrogateStyleSets
360
187
  0
DMSTYLEREFERENCE
  5
185
330
182
100
AcMapDMStyleReference
 70
     1
 70
     0
340
183
330
17F
  0
DMSURROGATESTYLESETS
  5
187
102
{ACAD_REACTORS
330
186
102
}
330
186
100
AcMapDMSurrogateStyleSets
 70
     1
  1
Map Base
 70
     1
 40
1.797693134862314E+99
 70
     1
 70
     1
 70
     1
 70
     1
330
185
 70
     0
  0
ENDSEC
  0
EOF
