  0
SECTION
  2
HEADER
  9
$ACADVER
  1
AC1018
  9
$ACADMAINTVER
 70
   104
  9
$DWGCODEPAGE
  3
ANSI_1252
  9
$LASTSAVEDBY
  1
Joseph H Fortier
  9
$INSBASE
 10
0.0
 20
0.0
 30
0.0
  9
$EXTMIN
 10
-0.8951802582263113
 20
0.0
 30
0.0
  9
$EXTMAX
 10
9.0625
 20
7.125
 30
0.0
  9
$LIMMIN
 10
0.0
 20
0.0
  9
$LIMMAX
 10
12.0
 20
9.0
  9
$ORTHOMODE
 70
     1
  9
$REGENMODE
 70
     1
  9
$FILLMODE
 70
     1
  9
$QTEXTMODE
 70
     0
  9
$MIRRTEXT
 70
     0
  9
$LTSCALE
 40
1.0
  9
$ATTMODE
 70
     1
  9
$TEXTSIZE
 40
0.09
  9
$TRACEWID
 40
0.05
  9
$TEXTSTYLE
  7
DETAIL TEXT
  9
$CLAYER
  8
0
  9
$CELTYPE
  6
ByLayer
  9
$CECOLOR
 62
   256
  9
$CELTSCALE
 40
1.0
  9
$DISPSILH
 70
     0
  9
$DIMSCALE
 40
1.0
  9
$DIMASZ
 40
0.12
  9
$DIMEXO
 40
0.0625
  9
$DIMDLI
 40
0.38
  9
$DIMRND
 40
0.0
  9
$DIMDLE
 40
0.0
  9
$DIMEXE
 40
0.18
  9
$DIMTP
 40
0.0
  9
$DIMTM
 40
0.0
  9
$DIMTXT
 40
0.09
  9
$DIMCEN
 40
0.09
  9
$DIMTSZ
 40
0.0
  9
$DIMTOL
 70
     0
  9
$DIMLIM
 70
     0
  9
$DIMTIH
 70
     1
  9
$DIMTOH
 70
     1
  9
$DIMSE1
 70
     0
  9
$DIMSE2
 70
     0
  9
$DIMTAD
 70
     0
  9
$DIMZIN
 70
     0
  9
$DIMBLK
  1

  9
$DIMASO
 70
     1
  9
$DIMSHO
 70
     1
  9
$DIMPOST
  1

  9
$DIMAPOST
  1

  9
$DIMALT
 70
     0
  9
$DIMALTD
 70
     2
  9
$DIMALTF
 40
25.4
  9
$DIMLFAC
 40
1.0
  9
$DIMTOFL
 70
     0
  9
$DIMTVP
 40
0.0
  9
$DIMTIX
 70
     0
  9
$DIMSOXD
 70
     0
  9
$DIMSAH
 70
     0
  9
$DIMBLK1
  1

  9
$DIMBLK2
  1

  9
$DIMSTYLE
  2
Netafim Detail
  9
$DIMCLRD
 70
     0
  9
$DIMCLRE
 70
     0
  9
$DIMCLRT
 70
     0
  9
$DIMTFAC
 40
1.0
  9
$DIMGAP
 40
0.09
  9
$DIMJUST
 70
     0
  9
$DIMSD1
 70
     0
  9
$DIMSD2
 70
     0
  9
$DIMTOLJ
 70
     1
  9
$DIMTZIN
 70
     0
  9
$DIMALTZ
 70
     0
  9
$DIMALTTZ
 70
     0
  9
$DIMUPT
 70
     0
  9
$DIMDEC
 70
     2
  9
$DIMTDEC
 70
     2
  9
$DIMALTU
 70
     2
  9
$DIMALTTD
 70
     2
  9
$DIMTXSTY
  7
Netafim Detail
  9
$DIMAUNIT
 70
     0
  9
$DIMADEC
 70
     0
  9
$DIMALTRND
 40
0.0
  9
$DIMAZIN
 70
     0
  9
$DIMDSEP
 70
    46
  9
$DIMATFIT
 70
     3
  9
$DIMFRAC
 70
     0
  9
$DIMLDRBLK
  1

  9
$DIMLUNIT
 70
     2
  9
$DIMLWD
 70
    -2
  9
$DIMLWE
 70
    -2
  9
$DIMTMOVE
 70
     0
  9
$LUNITS
 70
     2
  9
$LUPREC
 70
     4
  9
$SKETCHINC
 40
0.1
  9
$FILLETRAD
 40
0.0
  9
$AUNITS
 70
     0
  9
$AUPREC
 70
     0
  9
$MENU
  1
.
  9
$ELEVATION
 40
0.0
  9
$PELEVATION
 40
0.0
  9
$THICKNESS
 40
0.0
  9
$LIMCHECK
 70
     0
  9
$CHAMFERA
 40
0.0
  9
$CHAMFERB
 40
0.0
  9
$CHAMFERC
 40
0.0
  9
$CHAMFERD
 40
0.0
  9
$SKPOLY
 70
     0
  9
$TDCREATE
 40
2456012.517465637
  9
$TDUCREATE
 40
2456012.809132303
  9
$TDUPDATE
 40
2456153.547937419
  9
$TDUUPDATE
 40
2456153.839604086
  9
$TDINDWG
 40
0.4858822222
  9
$TDUSRTIMER
 40
0.4858822222
  9
$USRTIMER
 70
     1
  9
$ANGBASE
 50
0.0
  9
$ANGDIR
 70
     0
  9
$PDMODE
 70
     0
  9
$PDSIZE
 40
0.0
  9
$PLINEWID
 40
0.0
  9
$SPLFRAME
 70
     0
  9
$SPLINETYPE
 70
     6
  9
$SPLINESEGS
 70
     8
  9
$HANDSEED
  5
C1E2
  9
$SURFTAB1
 70
     6
  9
$SURFTAB2
 70
     6
  9
$SURFTYPE
 70
     6
  9
$SURFU
 70
     6
  9
$SURFV
 70
     6
  9
$UCSBASE
  2

  9
$UCSNAME
  2

  9
$UCSORG
 10
0.0
 20
0.0
 30
0.0
  9
$UCSXDIR
 10
1.0
 20
0.0
 30
0.0
  9
$UCSYDIR
 10
0.0
 20
1.0
 30
0.0
  9
$UCSORTHOREF
  2

  9
$UCSORTHOVIEW
 70
     0
  9
$UCSORGTOP
 10
0.0
 20
0.0
 30
0.0
  9
$UCSORGBOTTOM
 10
0.0
 20
0.0
 30
0.0
  9
$UCSORGLEFT
 10
0.0
 20
0.0
 30
0.0
  9
$UCSORGRIGHT
 10
0.0
 20
0.0
 30
0.0
  9
$UCSORGFRONT
 10
0.0
 20
0.0
 30
0.0
  9
$UCSORGBACK
 10
0.0
 20
0.0
 30
0.0
  9
$PUCSBASE
  2

  9
$PUCSNAME
  2

  9
$PUCSORG
 10
0.0
 20
0.0
 30
0.0
  9
$PUCSXDIR
 10
1.0
 20
0.0
 30
0.0
  9
$PUCSYDIR
 10
0.0
 20
1.0
 30
0.0
  9
$PUCSORTHOREF
  2

  9
$PUCSORTHOVIEW
 70
     0
  9
$PUCSORGTOP
 10
0.0
 20
0.0
 30
0.0
  9
$PUCSORGBOTTOM
 10
0.0
 20
0.0
 30
0.0
  9
$PUCSORGLEFT
 10
0.0
 20
0.0
 30
0.0
  9
$PUCSORGRIGHT
 10
0.0
 20
0.0
 30
0.0
  9
$PUCSORGFRONT
 10
0.0
 20
0.0
 30
0.0
  9
$PUCSORGBACK
 10
0.0
 20
0.0
 30
0.0
  9
$USERI1
 70
     0
  9
$USERI2
 70
     0
  9
$USERI3
 70
     0
  9
$USERI4
 70
     0
  9
$USERI5
 70
     0
  9
$USERR1
 40
0.0
  9
$USERR2
 40
0.0
  9
$USERR3
 40
0.0
  9
$USERR4
 40
0.0
  9
$USERR5
 40
1.0
  9
$WORLDVIEW
 70
     1
  9
$SHADEDGE
 70
     3
  9
$SHADEDIF
 70
    70
  9
$TILEMODE
 70
     1
  9
$MAXACTVP
 70
    64
  9
$PINSBASE
 10
0.0
 20
0.0
 30
0.0
  9
$PLIMCHECK
 70
     0
  9
$PEXTMIN
 10
0.0
 20
0.0
 30
0.0
  9
$PEXTMAX
 10
0.0
 20
0.0
 30
0.0
  9
$PLIMMIN
 10
0.0
 20
0.0
  9
$PLIMMAX
 10
12.0
 20
9.0
  9
$UNITMODE
 70
     0
  9
$VISRETAIN
 70
     1
  9
$PLINEGEN
 70
     0
  9
$PSLTSCALE
 70
     1
  9
$TREEDEPTH
 70
  3020
  9
$CMLSTYLE
  2
Standard
  9
$CMLJUST
 70
     0
  9
$CMLSCALE
 40
1.0
  9
$PROXYGRAPHICS
 70
     1
  9
$MEASUREMENT
 70
     0
  9
$CELWEIGHT
370
    -1
  9
$ENDCAPS
280
     0
  9
$JOINSTYLE
280
     0
  9
$LWDISPLAY
290
     0
  9
$INSUNITS
 70
     1
  9
$HYPERLINKBASE
  1

  9
$STYLESHEET
  1

  9
$XEDIT
290
     1
  9
$CEPSNTYPE
380
     0
  9
$PSTYLEMODE
290
     1
  9
$FINGERPRINTGUID
  2
{54E25747-DECD-4F46-8E40-CC13C71438EE}
  9
$VERSIONGUID
  2
{1FD6686C-5DA2-42EE-BBF0-A25B33E1BA00}
  9
$EXTNAMES
290
     1
  9
$PSVPSCALE
 40
0.0
  9
$OLESTARTUP
290
     0
  9
$SORTENTS
280
   127
  9
$INDEXCTL
280
     0
  9
$HIDETEXT
280
     1
  9
$XCLIPFRAME
290
     0
  9
$HALOGAP
280
     0
  9
$OBSCOLOR
 70
   257
  9
$OBSLTYPE
280
     0
  9
$INTERSECTIONDISPLAY
280
     0
  9
$INTERSECTIONCOLOR
 70
   257
  9
$DIMASSOC
280
     2
  9
$PROJECTNAME
  1

  0
ENDSEC
  0
SECTION
  2
CLASSES
  0
CLASS
  1
ACDBDICTIONARYWDFLT
  2
AcDbDictionaryWithDefault
  3
ObjectDBX Classes
 90
        0
 91
        1
280
     0
281
     0
  0
CLASS
  1
DICTIONARYVAR
  2
AcDbDictionaryVar
  3
ObjectDBX Classes
 90
        0
 91
       13
280
     0
281
     0
  0
CLASS
  1
TABLESTYLE
  2
AcDbTableStyle
  3
ObjectDBX Classes
 90
     4095
 91
        2
280
     0
281
     0
  0
CLASS
  1
MATERIAL
  2
AcDbMaterial
  3
ObjectDBX Classes
 90
     1153
 91
        3
280
     0
281
     0
  0
CLASS
  1
VISUALSTYLE
  2
AcDbVisualStyle
  3
ObjectDBX Classes
 90
     4095
 91
       26
280
     0
281
     0
  0
CLASS
  1
SCALE
  2
AcDbScale
  3
ObjectDBX Classes
 90
     1153
 91
       33
280
     0
281
     0
  0
CLASS
  1
MLEADERSTYLE
  2
AcDbMLeaderStyle
  3
ACDB_MLEADERSTYLE_CLASS
 90
     4095
 91
        2
280
     0
281
     0
  0
CLASS
  1
CELLSTYLEMAP
  2
AcDbCellStyleMap
  3
ObjectDBX Classes
 90
     1152
 91
        4
280
     0
281
     0
  0
CLASS
  1
EXACXREFPANELOBJECT
  2
ExAcXREFPanelObject
  3
EXAC_ESW
 90
     1025
 91
        0
280
     0
281
     0
  0
CLASS
  1
NPOCOLLECTION
  2
AcDbImpNonPersistentObjectsCollection
  3
ObjectDBX Classes
 90
     1153
 91
        0
280
     0
281
     0
  0
CLASS
  1
LAYER_INDEX
  2
AcDbLayerIndex
  3
ObjectDBX Classes
 90
        0
 91
        0
280
     0
281
     0
  0
CLASS
  1
SPATIAL_INDEX
  2
AcDbSpatialIndex
  3
ObjectDBX Classes
 90
        0
 91
        0
280
     0
281
     0
  0
CLASS
  1
IDBUFFER
  2
AcDbIdBuffer
  3
ObjectDBX Classes
 90
        0
 91
        0
280
     0
281
     0
  0
CLASS
  1
DMMAPMANAGER
  2
AcMapDMMapManager
  3
AcMapDisplayManagement
 90
     1024
 91
        1
280
     0
281
     0
  0
CLASS
  1
DMSTYLELIBRARY
  2
AcMapDMStyleLibrary
  3
AcMapDisplayManagement
 90
     1024
 91
        1
280
     0
281
     0
  0
CLASS
  1
DMSTYLECATEGORY
  2
AcMapDMStyleCategory
  3
AcMapDisplayManagement
 90
     1024
 91
        1
280
     0
281
     0
  0
CLASS
  1
DATATABLE
  2
AcDbDataTable
  3
ObjectDBX Classes
 90
        0
 91
        1
280
     0
281
     0
  0
CLASS
  1
DMMAP
  2
AcMapDMMap
  3
AcMapDisplayManagement
 90
     1024
 91
        1
280
     0
281
     0
  0
CLASS
  1
DMBASEELEMENT
  2
AcMapDMBaseElement
  3
AcMapDisplayManagement
 90
     1024
 91
        1
280
     0
281
     0
  0
CLASS
  1
DMDEFAULTSTYLE
  2
AcMapDMDefaultStyle
  3
AcMapDisplayManagement
 90
     1024
 91
        1
280
     0
281
     0
  0
CLASS
  1
DMSTYLEREFERENCE
  2
AcMapDMStyleReference
  3
AcMapDisplayManagement
 90
     1024
 91
        1
280
     0
281
     0
  0
CLASS
  1
DMSURROGATESTYLESETS
  2
AcMapDMSurrogateStyleSets
  3
AcMapDisplayManagement
 90
     1153
 91
        1
280
     0
281
     0
  0
CLASS
  1
SORTENTSTABLE
  2
AcDbSortentsTable
  3
ObjectDBX Classes
 90
        0
 91
        1
280
     0
281
     0
  0
CLASS
  1
DMSTYLIZEDENTITIESTABLE
  2
AcMapDMStylizedEntitiesTable
  3
AcMapDisplayManagement
 90
     1024
 91
        1
280
     0
281
     0
  0
CLASS
  1
MAPGWSUNDOOBJECT
  2
AcMapGWSUndoRecorder
  3
AcMapFeatureSourceManager
 90
     1025
 91
        1
280
     0
281
     0
  0
CLASS
  1
SUN
  2
AcDbSun
  3
SCENEOE
 90
     1153
 91
        1
280
     0
281
     0
  0
CLASS
  1
GEODATA
  2
AcDbGeoData
  3
ObjectDBX Classes
 90
     4095
 91
        1
280
     0
281
     0
  0
CLASS
  1
MAPRESOURCEMANAGEROBJECT
  2
AcMapResourceManager
  3
AcMapSharedComponents
 90
     1024
 91
        0
280
     0
281
     0
  0
CLASS
  1
MULTILEADER
  2
AcDbMLeader
  3
ACDB_MLEADER_CLASS
 90
     1025
 91
        8
280
     0
281
     1
  0
CLASS
  1
DIMASSOC
  2
AcDbDimAssoc
  3
"AcDbDimAssoc|Product Desc:     AcDim ARX App For Dimension|Company:          Autodesk, Inc.|WEB Address:      www.autodesk.com"
 90
        0
 91
        7
280
     0
281
     0
  0
CLASS
  1
AEC_REFEDIT_STATUS_TRACKER
  2
AecDbRefEditStatusTracker
  3
AecArchBase60|Product Desc: Autodesk Architectural Desktop 2007 |Company: Autodesk,Inc. |WEB Address: www.autodesk.com
 90
      129
 91
        0
280
     0
281
     0
  0
CLASS
  1
PLOTSETTINGS
  2
AcDbPlotSettings
  3
ObjectDBX Classes
 90
        0
 91
        1
280
     0
281
     0
  0
ENDSEC
  0
SECTION
  2
TABLES
  0
TABLE
  2
VPORT
  5
8
102
{ACAD_XDICTIONARY
360
C174
102
}
330
0
100
AcDbSymbolTable
 70
     1
  0
VPORT
  5
94
330
8
100
AcDbSymbolTableRecord
100
AcDbViewportTableRecord
  2
*Active
 70
     0
 10
0.0
 20
0.0
 11
1.0
 21
1.0
 12
4.083439677078817
 22
4.192657648982926
 13
0.0
 23
0.0
 14
0.5
 24
0.5
 15
0.5
 25
0.5
 16
0.0
 26
0.0
 36
1.0
 17
0.0
 27
0.0
 37
0.0
 40
7.175061061665395
 41
1.784580498866213
 42
50.0
 43
0.0
 44
0.0
 50
0.0
 51
0.0
 71
     0
 72
  1000
 73
     1
 74
     3
 75
     0
 76
     0
 77
     0
 78
     0
281
     0
 65
     1
110
0.0
120
0.0
130
0.0
111
1.0
121
0.0
131
0.0
112
0.0
122
1.0
132
0.0
 79
     0
146
0.0
1001
ACAD_NAV_VCDISPLAY
1070
     3
  0
ENDTAB
  0
TABLE
  2
LTYPE
  5
5
330
0
100
AcDbSymbolTable
 70
     1
  0
LTYPE
  5
14
330
5
100
AcDbSymbolTableRecord
100
AcDbLinetypeTableRecord
  2
ByBlock
 70
     0
  3

 72
    65
 73
     0
 40
0.0
  0
LTYPE
  5
15
330
5
100
AcDbSymbolTableRecord
100
AcDbLinetypeTableRecord
  2
ByLayer
 70
     0
  3

 72
    65
 73
     0
 40
0.0
  0
LTYPE
  5
16
330
5
100
AcDbSymbolTableRecord
100
AcDbLinetypeTableRecord
  2
Continuous
 70
     0
  3
Solid line
 72
    65
 73
     0
 40
0.0
  0
ENDTAB
  0
TABLE
  2
LAYER
  5
2
102
{ACAD_XDICTIONARY
360
20C
102
}
330
0
100
AcDbSymbolTable
 70
    13
  0
LAYER
  5
10
102
{ACAD_XDICTIONARY
360
E6
102
}
330
2
100
AcDbSymbolTableRecord
100
AcDbLayerTableRecord
  2
0
 70
     0
 62
     7
  6
Continuous
370
    -3
390
F
  0
LAYER
  5
19F
330
2
100
AcDbSymbolTableRecord
100
AcDbLayerTableRecord
  2
NETAFIM-LG-DETL-ANNO
 70
     0
 62
     1
  6
Continuous
370
    -3
390
F
  0
LAYER
  5
1A1
102
{ACAD_XDICTIONARY
360
1A2
102
}
330
2
100
AcDbSymbolTableRecord
100
AcDbLayerTableRecord
  2
NETAFIM-D-TEXT-025M
 70
     0
 62
     2
  6
Continuous
370
    -3
390
F
1001
RAK
1000
{DETAILS
1070
     0
1070
     1
1000
Continuous
1071
       -3
1071
        1
1005
14
1000
DETAILS}
  0
LAYER
  5
1A3
102
{ACAD_XDICTIONARY
360
1A4
102
}
330
2
100
AcDbSymbolTableRecord
100
AcDbLayerTableRecord
  2
NETAFIM-D-070M
 70
     0
 62
     6
  6
Continuous
370
    -3
390
F
1001
RAK
1000
{DETAILS
1070
     0
1070
     5
1000
Continuous
1071
       -3
1071
        1
1005
14
1000
DETAILS}
  0
LAYER
  5
1A7
102
{ACAD_XDICTIONARY
360
1A8
102
}
330
2
100
AcDbSymbolTableRecord
100
AcDbLayerTableRecord
  2
NETAFIM-D-NPLT
 70
     0
 62
     1
  6
Continuous
370
    -3
390
F
  0
LAYER
  5
1EB
330
2
100
AcDbSymbolTableRecord
100
AcDbLayerTableRecord
  2
NETAFIM-L-DETL-013M
 70
     0
 62
     1
  6
Continuous
370
    -3
390
F
  0
LAYER
  5
1EC
330
2
100
AcDbSymbolTableRecord
100
AcDbLayerTableRecord
  2
NETAFIM-L-DETL-025M
 70
     0
 62
     2
  6
Continuous
370
    -3
390
F
  0
LAYER
  5
1EF
330
2
100
AcDbSymbolTableRecord
100
AcDbLayerTableRecord
  2
NETAFIM-L-DETL-035M
 70
     0
 62
     4
  6
Continuous
370
    -3
390
F
  0
LAYER
  5
1F0
330
2
100
AcDbSymbolTableRecord
100
AcDbLayerTableRecord
  2
NETAFIM-L-DETL-PATT-025M
 70
     0
 62
     2
  6
Continuous
370
    -3
390
F
  0
LAYER
  5
1F1
330
2
100
AcDbSymbolTableRecord
100
AcDbLayerTableRecord
  2
NETAFIM-L-DETL-PATT-013M
 70
     0
 62
     1
  6
Continuous
370
    -3
390
F
  0
LAYER
  5
204
330
2
100
AcDbSymbolTableRecord
100
AcDbLayerTableRecord
  2
NETAFIM-L-DETL-TEXT
 70
     0
 62
     1
  6
Continuous
370
    -3
390
F
1001
AcAecLayerStandard
1000

1000

  0
LAYER
  5
C043
102
{ACAD_XDICTIONARY
360
C044
102
}
330
2
100
AcDbSymbolTableRecord
100
AcDbLayerTableRecord
  2
NETAFIM-L-DETL-TEXT-LEADER-025M
 70
     0
 62
     2
  6
Continuous
370
    -3
390
F
1001
AcAecLayerStandard
1000

1000

  0
LAYER
  5
C053
330
2
100
AcDbSymbolTableRecord
100
AcDbLayerTableRecord
  2
Defpoints
 70
     0
 62
     7
  6
Continuous
290
     0
370
    -3
390
F
  0
ENDTAB
  0
TABLE
  2
STYLE
  5
3
330
0
100
AcDbSymbolTable
 70
     6
  0
STYLE
  5
11
330
3
100
AcDbSymbolTableRecord
100
AcDbTextStyleTableRecord
  2
Standard
 70
     0
 40
0.0
 41
1.0
 50
0.0
 71
     0
 42
0.2
  3
arial.ttf
  4

1001
ACAD
1000
Arial
1071
       34
  0
STYLE
  5
180
330
3
100
AcDbSymbolTableRecord
100
AcDbTextStyleTableRecord
  2
Legend
 70
     0
 40
0.0
 41
1.0
 50
0.0
 71
     0
 42
0.2
  3
CALIBRI.TTF
  4

1001
ACAD
1000
Calibri
1071
      256
  0
STYLE
  5
1A9
330
3
100
AcDbSymbolTableRecord
100
AcDbTextStyleTableRecord
  2
DETAIL NUMBER
 70
     0
 40
0.0
 41
1.0
 50
0.0
 71
     0
 42
0.24
  3
swiss.ttf
  4

1001
ACAD
1000
Swis721 BT
1071
       34
  0
STYLE
  5
1AA
330
3
100
AcDbSymbolTableRecord
100
AcDbTextStyleTableRecord
  2
DETAIL TITLE
 70
     0
 40
0.0
 41
1.0
 50
0.0
 71
     0
 42
0.18
  3
swiss.ttf
  4

1001
ACAD
1000
Swis721 BT
1071
       34
  0
STYLE
  5
1AB
330
3
100
AcDbSymbolTableRecord
100
AcDbTextStyleTableRecord
  2
DETAIL TEXT
 70
     0
 40
0.0
 41
1.0
 50
0.0
 71
     0
 42
0.09
  3
ROMANS.SHX
  4

  0
STYLE
  5
C045
330
3
100
AcDbSymbolTableRecord
100
AcDbTextStyleTableRecord
  2
Netafim Detail
 70
     0
 40
0.09
 41
1.0
 50
0.0
 71
     0
 42
0.2
  3
arial.ttf
  4

1001
ACAD
1000
Arial
1071
       34
  0
ENDTAB
  0
TABLE
  2
VIEW
  5
6
330
0
100
AcDbSymbolTable
 70
     0
  0
ENDTAB
  0
TABLE
  2
UCS
  5
7
330
0
100
AcDbSymbolTable
 70
     0
  0
ENDTAB
  0
TABLE
  2
APPID
  5
9
330
0
100
AcDbSymbolTable
 70
    18
  0
APPID
  5
12
330
9
100
AcDbSymbolTableRecord
100
AcDbRegAppTableRecord
  2
ACAD
 70
     0
  0
APPID
  5
DD
330
9
100
AcDbSymbolTableRecord
100
AcDbRegAppTableRecord
  2
AcadAnnoPO
 70
     0
  0
APPID
  5
DE
330
9
100
AcDbSymbolTableRecord
100
AcDbRegAppTableRecord
  2
AcadAnnotative
 70
     0
  0
APPID
  5
DF
330
9
100
AcDbSymbolTableRecord
100
AcDbRegAppTableRecord
  2
ACAD_DSTYLE_DIMJAG
 70
     0
  0
APPID
  5
E0
330
9
100
AcDbSymbolTableRecord
100
AcDbRegAppTableRecord
  2
ACAD_DSTYLE_DIMTALN
 70
     0
  0
APPID
  5
107
330
9
100
AcDbSymbolTableRecord
100
AcDbRegAppTableRecord
  2
ACAD_MLEADERVER
 70
     0
  0
APPID
  5
184
330
9
100
AcDbSymbolTableRecord
100
AcDbRegAppTableRecord
  2
AcMapDMDisplayStyleRegapp
 70
     0
  0
APPID
  5
18E
330
9
100
AcDbSymbolTableRecord
100
AcDbRegAppTableRecord
  2
ADE
 70
     0
  0
APPID
  5
191
330
9
100
AcDbSymbolTableRecord
100
AcDbRegAppTableRecord
  2
MapGWS
 70
     0
  0
APPID
  5
194
330
9
100
AcDbSymbolTableRecord
100
AcDbRegAppTableRecord
  2
DCO15
 70
     0
  0
APPID
  5
19E
330
9
100
AcDbSymbolTableRecord
100
AcDbRegAppTableRecord
  2
LandFX
 70
     0
  0
APPID
  5
1AC
330
9
100
AcDbSymbolTableRecord
100
AcDbRegAppTableRecord
  2
RAK
 70
     0
  0
APPID
  5
1AD
330
9
100
AcDbSymbolTableRecord
100
AcDbRegAppTableRecord
  2
ACAD_EXEMPT_FROM_CAD_STANDARDS
 70
     0
  0
APPID
  5
209
330
9
100
AcDbSymbolTableRecord
100
AcDbRegAppTableRecord
  2
ACAD_PSEXT
 70
     0
  0
APPID
  5
20A
330
9
100
AcDbSymbolTableRecord
100
AcDbRegAppTableRecord
  2
AcAecLayerStandard
 70
     0
  0
APPID
  5
20B
330
9
100
AcDbSymbolTableRecord
100
AcDbRegAppTableRecord
  2
ACAD_NAV_VCDISPLAY
 70
     0
  0
APPID
  5
77E
330
9
100
AcDbSymbolTableRecord
100
AcDbRegAppTableRecord
  2
AcLayerTools
 70
     0
  0
APPID
  5
C047
330
9
100
AcDbSymbolTableRecord
100
AcDbRegAppTableRecord
  2
ACAD_DSTYLE_DIMBREAK
 70
     0
  0
ENDTAB
  0
TABLE
  2
DIMSTYLE
  5
A
330
0
100
AcDbSymbolTable
 70
     2
100
AcDbDimStyleTable
 71
     2
340
C046
340
27
  0
DIMSTYLE
105
27
330
A
100
AcDbSymbolTableRecord
100
AcDbDimStyleTableRecord
  2
Standard
 70
     0
340
11
  0
DIMSTYLE
105
C046
330
A
100
AcDbSymbolTableRecord
100
AcDbDimStyleTableRecord
  2
Netafim Detail
 70
     0
 41
0.12
140
0.09
271
     2
272
     2
340
C045
1001
ACAD_DSTYLE_DIMBREAK
1070
   391
1040
0.125
1001
ACAD_DSTYLE_DIMJAG
1070
   388
1040
1.5
1001
ACAD_DSTYLE_DIMTALN
1070
   392
1070
     0
  0
ENDTAB
  0
TABLE
  2
BLOCK_RECORD
  5
1
330
0
100
AcDbSymbolTable
 70
     1
  0
BLOCK_RECORD
  5
1F
102
{ACAD_XDICTIONARY
360
15D
102
}
330
1
100
AcDbSymbolTableRecord
100
AcDbBlockTableRecord
  2
*Model_Space
340
22
  0
BLOCK_RECORD
  5
58
330
1
100
AcDbSymbolTableRecord
100
AcDbBlockTableRecord
  2
*Paper_Space
340
59
  0
BLOCK_RECORD
  5
5D
330
1
100
AcDbSymbolTableRecord
100
AcDbBlockTableRecord
  2
*Paper_Space0
340
5E
  0
ENDTAB
  0
ENDSEC
  0
SECTION
  2
BLOCKS
  0
BLOCK
  5
20
330
1F
100
AcDbEntity
  8
0
100
AcDbBlockBegin
  2
*Model_Space
 70
     0
 10
0.0
 20
0.0
 30
0.0
  3
*Model_Space
  1

  0
ENDBLK
  5
21
330
1F
100
AcDbEntity
  8
0
100
AcDbBlockEnd
  0
BLOCK
  5
5A
330
58
100
AcDbEntity
 67
     1
  8
0
100
AcDbBlockBegin
  2
*Paper_Space
 70
     0
 10
0.0
 20
0.0
 30
0.0
  3
*Paper_Space
  1

  0
ENDBLK
  5
5B
330
58
100
AcDbEntity
 67
     1
  8
0
100
AcDbBlockEnd
  0
BLOCK
  5
5F
330
5D
100
AcDbEntity
 67
     1
  8
0
100
AcDbBlockBegin
  2
*Paper_Space0
 70
     0
 10
0.0
 20
0.0
 30
0.0
  3
*Paper_Space0
  1

  0
ENDBLK
  5
60
330
5D
100
AcDbEntity
 67
     1
  8
0
100
AcDbBlockEnd
  0
ENDSEC
  0
SECTION
  2
ENTITIES
  0
LWPOLYLINE
  5
865E
330
1F
100
AcDbEntity
  8
NETAFIM-L-DETL-035M
100
AcDbPolyline
 90
        4
 70
     1
 43
0.0
 10
3.913753664737491
 20
5.333324309343364
 10
5.705353664737486
 20
5.333324309343364
 10
5.678253664737489
 20
5.145824309343364
 10
3.946953664737492
 20
5.145824309343364
  0
LWPOLYLINE
  5
865F
102
{ACAD_REACTORS
330
C076
102
}
330
1F
100
AcDbEntity
  8
NETAFIM-L-DETL-035M
100
AcDbPolyline
 90
       10
 70
     1
 43
0.0
 10
3.87905366473749
 20
5.333324309343364
 10
3.837353664737491
 20
5.333324309343364
 10
3.665453664737491
 20
3.203124309343365
 10
3.634253664737492
 20
3.203124309343365
 10
3.634253664737492
 20
3.177124309343365
 10
3.712353664737491
 20
3.177124309343365
 10
3.873753664737492
 20
5.093724309343365
 10
3.946753664737492
 20
5.093724309343365
 10
3.946753664737492
 20
5.130224309343365
 10
3.905053664737486
 20
5.130224309343365
  0
LWPOLYLINE
  5
8660
102
{ACAD_REACTORS
330
BED2
330
C07F
102
}
330
1F
100
AcDbEntity
  8
NETAFIM-L-DETL-025M
100
AcDbPolyline
 90
        4
 70
     1
 43
0.0
 10
3.469253664737493
 20
3.152824309343364
 10
4.06655366473749
 20
3.152824309343364
 10
4.06655366473749
 20
2.708324309343365
 10
3.469253664737493
 20
2.708324309343365
  0
LWPOLYLINE
  5
8661
102
{ACAD_REACTORS
330
BED2
102
}
330
1F
100
AcDbEntity
  8
NETAFIM-L-DETL-025M
100
AcDbPolyline
 90
        4
 70
     1
 43
0.0
 10
5.56655366473749
 20
3.152824309343364
 10
6.163753664737491
 20
3.152824309343364
 10
6.163753664737491
 20
2.708324309343365
 10
5.56655366473749
 20
2.708324309343365
  0
LWPOLYLINE
  5
867E
330
1F
100
AcDbEntity
  8
NETAFIM-L-DETL-PATT-025M
100
AcDbPolyline
 90
        2
 70
     1
 43
0.0
 10
7.162414020718138
 20
4.856882920176708
 42
1.0
 10
7.172724827617848
 20
4.856882920176708
 42
1.0
  0
LWPOLYLINE
  5
867F
330
1F
100
AcDbEntity
  8
NETAFIM-L-DETL-PATT-025M
100
AcDbPolyline
 90
        2
 70
     1
 43
0.0
 10
6.997441110322775
 20
4.918443742277339
 42
1.0
 10
7.007751917222485
 20
4.918443742277339
 42
1.0
  0
LWPOLYLINE
  5
8680
330
1F
100
AcDbEntity
  8
NETAFIM-L-DETL-PATT-025M
100
AcDbPolyline
 90
        2
 70
     1
 43
0.0
 10
6.18379714232504
 20
5.05248257660483
 42
1.0
 10
6.194107949224751
 20
5.05248257660483
 42
1.0
  0
LWPOLYLINE
  5
8681
330
1F
100
AcDbEntity
  8
NETAFIM-L-DETL-PATT-025M
100
AcDbPolyline
 90
        2
 70
     1
 43
0.0
 10
6.420035923938989
 20
5.05248257660483
 42
1.0
 10
6.430346730838699
 20
5.05248257660483
 42
1.0
  0
LWPOLYLINE
  5
8682
330
1F
100
AcDbEntity
  8
NETAFIM-L-DETL-PATT-025M
100
AcDbPolyline
 90
        2
 70
     1
 43
0.0
 10
6.18379714232504
 20
4.824131349798044
 42
1.0
 10
6.194107949224751
 20
4.824131349798044
 42
1.0
  0
LWPOLYLINE
  5
8683
330
1F
100
AcDbEntity
  8
NETAFIM-L-DETL-PATT-025M
100
AcDbPolyline
 90
        2
 70
     1
 43
0.0
 10
6.007906906977041
 20
5.132736210795584
 42
1.0
 10
6.018217713876751
 20
5.132736210795584
 42
1.0
  0
LWPOLYLINE
  5
8684
330
1F
100
AcDbEntity
  8
NETAFIM-L-DETL-PATT-025M
100
AcDbPolyline
 90
        2
 70
     1
 43
0.0
 10
6.168027672949008
 20
4.724360362255637
 42
1.0
 10
6.178338479848719
 20
4.724360362255637
 42
1.0
  0
LWPOLYLINE
  5
8685
330
1F
100
AcDbEntity
  8
NETAFIM-L-DETL-PATT-025M
100
AcDbPolyline
 90
        2
 70
     1
 43
0.0
 10
6.033987183252776
 20
4.540890917078872
 42
1.0
 10
6.044297990152486
 20
4.540890917078872
 42
1.0
  0
LWPOLYLINE
  5
8686
330
1F
100
AcDbEntity
  8
NETAFIM-L-DETL-PATT-025M
100
AcDbPolyline
 90
        2
 70
     1
 43
0.0
 10
6.162569010472694
 20
4.317998285335196
 42
1.0
 10
6.172879817372404
 20
4.317998285335196
 42
1.0
  0
LWPOLYLINE
  5
8687
330
1F
100
AcDbEntity
  8
NETAFIM-L-DETL-PATT-025M
100
AcDbPolyline
 90
        2
 70
     1
 43
0.0
 10
6.887054824690579
 20
4.273419758986459
 42
1.0
 10
6.89736563159029
 20
4.273419758986459
 42
1.0
  0
LWPOLYLINE
  5
8688
330
1F
100
AcDbEntity
  8
NETAFIM-L-DETL-PATT-025M
100
AcDbPolyline
 90
        2
 70
     1
 43
0.0
 10
7.180912821332327
 20
4.475387776321547
 42
1.0
 10
7.191223628232037
 20
4.475387776321547
 42
1.0
  0
LWPOLYLINE
  5
8689
330
1F
100
AcDbEntity
  8
NETAFIM-L-DETL-PATT-025M
100
AcDbPolyline
 90
        2
 70
     1
 43
0.0
 10
7.091754667552478
 20
4.637932607089723
 42
1.0
 10
7.102065474452189
 20
4.637932607089723
 42
1.0
  0
LWPOLYLINE
  5
868A
330
1F
100
AcDbEntity
  8
NETAFIM-L-DETL-PATT-025M
100
AcDbPolyline
 90
        2
 70
     1
 43
0.0
 10
7.228221229460409
 20
4.27584580123673
 42
1.0
 10
7.238532036360119
 20
4.27584580123673
 42
1.0
  0
LWPOLYLINE
  5
868B
330
1F
100
AcDbEntity
  8
NETAFIM-L-DETL-PATT-025M
100
AcDbPolyline
 90
        2
 70
     1
 43
0.0
 10
7.146947810368573
 20
3.94014220485544
 42
1.0
 10
7.157258617268283
 20
3.94014220485544
 42
1.0
  0
LWPOLYLINE
  5
868C
330
1F
100
AcDbEntity
  8
NETAFIM-L-DETL-PATT-025M
100
AcDbPolyline
 90
        2
 70
     1
 43
0.0
 10
6.326632143788671
 20
2.786862370132724
 42
1.0
 10
6.336942950688381
 20
2.786862370132724
 42
1.0
  0
LWPOLYLINE
  5
868D
330
1F
100
AcDbEntity
  8
NETAFIM-L-DETL-PATT-025M
100
AcDbPolyline
 90
        2
 70
     1
 43
0.0
 10
6.069165230322376
 20
2.509080532476661
 42
1.0
 10
6.079476037222086
 20
2.509080532476661
 42
1.0
  0
LWPOLYLINE
  5
868E
330
1F
100
AcDbEntity
  8
NETAFIM-L-DETL-PATT-025M
100
AcDbPolyline
 90
        2
 70
     1
 43
0.0
 10
6.089483585095337
 20
2.200063400848356
 42
1.0
 10
6.099794391995047
 20
2.200063400848356
 42
1.0
  0
LWPOLYLINE
  5
8693
330
1F
100
AcDbEntity
  8
NETAFIM-L-DETL-PATT-025M
100
AcDbPolyline
 90
        2
 70
     1
 43
0.0
 10
5.883570706127592
 20
2.303170196484885
 42
1.0
 10
5.893881513027302
 20
2.303170196484885
 42
1.0
  0
LWPOLYLINE
  5
86B5
330
1F
100
AcDbEntity
  8
NETAFIM-L-DETL-PATT-025M
100
AcDbPolyline
 90
        2
 70
     1
 43
0.0
 10
3.586686839703872
 20
2.220684759975662
 42
1.0
 10
3.596997646603583
 20
2.220684759975662
 42
1.0
  0
LWPOLYLINE
  5
86B6
330
1F
100
AcDbEntity
  8
NETAFIM-L-DETL-PATT-025M
100
AcDbPolyline
 90
        2
 70
     1
 43
0.0
 10
3.648551681102141
 20
2.498769852913008
 42
1.0
 10
3.658862488001851
 20
2.498769852913008
 42
1.0
  0
LWPOLYLINE
  5
86B7
330
1F
100
AcDbEntity
  8
NETAFIM-L-DETL-PATT-025M
100
AcDbPolyline
 90
        2
 70
     1
 43
0.0
 10
3.349841540036997
 20
2.519391212040315
 42
1.0
 10
3.360152346936708
 20
2.519391212040315
 42
1.0
  0
LWPOLYLINE
  5
86B8
330
1F
100
AcDbEntity
  8
NETAFIM-L-DETL-PATT-025M
100
AcDbPolyline
 90
        2
 70
     1
 43
0.0
 10
3.094945421441785
 20
2.673748150213826
 42
1.0
 10
3.105256228341495
 20
2.673748150213826
 42
1.0
  0
LWPOLYLINE
  5
86B9
330
1F
100
AcDbEntity
  8
NETAFIM-L-DETL-PATT-025M
100
AcDbPolyline
 90
        2
 70
     1
 43
0.0
 10
3.166817810713297
 20
2.920901204460215
 42
1.0
 10
3.177128617613007
 20
2.920901204460215
 42
1.0
  0
LWPOLYLINE
  5
86BA
330
1F
100
AcDbEntity
  8
NETAFIM-L-DETL-PATT-025M
100
AcDbPolyline
 90
        2
 70
     1
 43
0.0
 10
2.899040090347284
 20
3.003083385688154
 42
1.0
 10
2.909350897246994
 20
3.003083385688154
 42
1.0
  0
LWPOLYLINE
  5
86BB
330
1F
100
AcDbEntity
  8
NETAFIM-L-DETL-PATT-025M
100
AcDbPolyline
 90
        2
 70
     1
 43
0.0
 10
2.868107669648154
 20
2.786862370132724
 42
1.0
 10
2.878418476547864
 20
2.786862370132724
 42
1.0
  0
LWPOLYLINE
  5
86BC
330
1F
100
AcDbEntity
  8
NETAFIM-L-DETL-PATT-025M
100
AcDbPolyline
 90
        2
 70
     1
 43
0.0
 10
3.03065914551086
 20
3.879545072399732
 42
1.0
 10
3.04096995241057
 20
3.879545072399732
 42
1.0
  0
LWPOLYLINE
  5
86BD
330
1F
100
AcDbEntity
  8
NETAFIM-L-DETL-PATT-025M
100
AcDbPolyline
 90
        2
 70
     1
 43
0.0
 10
3.380773960736128
 20
3.723921189300011
 42
1.0
 10
3.391084767635838
 20
3.723921189300011
 42
1.0
  0
LWPOLYLINE
  5
86BF
330
1F
100
AcDbEntity
  8
NETAFIM-L-DETL-PATT-025M
100
AcDbPolyline
 90
        2
 70
     1
 43
0.0
 10
3.246733471039895
 20
4.104809822592606
 42
1.0
 10
3.257044277939606
 20
4.104809822592606
 42
1.0
  0
LWPOLYLINE
  5
86C0
330
1F
100
AcDbEntity
  8
NETAFIM-L-DETL-PATT-025M
100
AcDbPolyline
 90
        2
 70
     1
 43
0.0
 10
3.576376032804162
 20
4.228537977356442
 42
1.0
 10
3.586686839703872
 20
4.228537977356442
 42
1.0
  0
LWPOLYLINE
  5
86C2
330
1F
100
AcDbEntity
  8
NETAFIM-L-DETL-PATT-025M
100
AcDbPolyline
 90
        2
 70
     1
 43
0.0
 10
3.236422664140185
 20
3.950452884419096
 42
1.0
 10
3.246733471039895
 20
3.950452884419096
 42
1.0
  0
LWPOLYLINE
  5
86C3
330
1F
100
AcDbEntity
  8
NETAFIM-L-DETL-PATT-025M
100
AcDbPolyline
 90
        2
 70
     1
 43
0.0
 10
3.077425900470977
 20
3.672367791481747
 42
1.0
 10
3.087736707370687
 20
3.672367791481747
 42
1.0
  0
LWPOLYLINE
  5
86C4
330
1F
100
AcDbEntity
  8
NETAFIM-L-DETL-PATT-025M
100
AcDbPolyline
 90
        2
 70
     1
 43
0.0
 10
3.504503643532657
 20
3.60049628981746
 42
1.0
 10
3.514814450432368
 20
3.60049628981746
 42
1.0
  0
LWPOLYLINE
  5
86C5
330
1F
100
AcDbEntity
  8
NETAFIM-L-DETL-PATT-025M
100
AcDbPolyline
 90
        2
 70
     1
 43
0.0
 10
3.586686839703872
 20
4.413826954220912
 42
1.0
 10
3.596997646603583
 20
4.413826954220912
 42
1.0
  0
LWPOLYLINE
  5
86C6
330
1F
100
AcDbEntity
  8
NETAFIM-L-DETL-PATT-025M
100
AcDbPolyline
 90
        2
 70
     1
 43
0.0
 10
3.720727329400112
 20
4.578494571958074
 42
1.0
 10
3.731038136299822
 20
4.578494571958074
 42
1.0
  0
LWPOLYLINE
  5
86C7
330
1F
100
AcDbEntity
  8
NETAFIM-L-DETL-PATT-025M
100
AcDbPolyline
 90
        2
 70
     1
 43
0.0
 10
3.586686839703872
 20
4.722540830567933
 42
1.0
 10
3.596997646603583
 20
4.722540830567933
 42
1.0
  0
LWPOLYLINE
  5
86C8
330
1F
100
AcDbEntity
  8
NETAFIM-L-DETL-PATT-025M
100
AcDbPolyline
 90
        2
 70
     1
 43
0.0
 10
3.216104309367224
 20
4.691608791876976
 42
1.0
 10
3.226415116266935
 20
4.691608791876976
 42
1.0
  0
LWPOLYLINE
  5
86C9
330
1F
100
AcDbEntity
  8
NETAFIM-L-DETL-PATT-025M
100
AcDbPolyline
 90
        2
 70
     1
 43
0.0
 10
3.524821998305611
 20
4.599115931085382
 42
1.0
 10
3.535132805205321
 20
4.599115931085382
 42
1.0
  0
LWPOLYLINE
  5
86CA
330
1F
100
AcDbEntity
  8
NETAFIM-L-DETL-PATT-025M
100
AcDbPolyline
 90
        2
 70
     1
 43
0.0
 10
3.545443612105032
 20
4.691608791876976
 42
1.0
 10
3.555754419004742
 20
4.691608791876976
 42
1.0
  0
LWPOLYLINE
  5
86CB
330
1F
100
AcDbEntity
  8
NETAFIM-L-DETL-PATT-025M
100
AcDbPolyline
 90
        2
 70
     1
 43
0.0
 10
3.277665891739026
 20
4.55787321283077
 42
1.0
 10
3.287976698638736
 20
4.55787321283077
 42
1.0
  0
LWPOLYLINE
  5
86CC
330
1F
100
AcDbEntity
  8
NETAFIM-L-DETL-PATT-025M
100
AcDbPolyline
 90
        2
 70
     1
 43
0.0
 10
3.329219926237577
 20
4.670987432749669
 42
1.0
 10
3.339530733137287
 20
4.670987432749669
 42
1.0
  0
LWPOLYLINE
  5
86CD
330
1F
100
AcDbEntity
  8
NETAFIM-L-DETL-PATT-025M
100
AcDbPolyline
 90
        2
 70
     1
 43
0.0
 10
3.380773960736128
 20
5.072800680450853
 42
1.0
 10
3.391084767635838
 20
5.072800680450853
 42
1.0
  0
LWPOLYLINE
  5
86CE
330
1F
100
AcDbEntity
  8
NETAFIM-L-DETL-PATT-025M
100
AcDbPolyline
 90
        2
 70
     1
 43
0.0
 10
3.62793006730272
 20
5.124050822987832
 42
1.0
 10
3.638240874202431
 20
5.124050822987832
 42
1.0
  0
LWPOLYLINE
  5
86CF
330
1F
100
AcDbEntity
  8
NETAFIM-L-DETL-PATT-025M
100
AcDbPolyline
 90
        2
 70
     1
 43
0.0
 10
3.700105715600692
 20
5.11374014342418
 42
1.0
 10
3.710416522500402
 20
5.11374014342418
 42
1.0
  0
LWPOLYLINE
  5
86D0
330
1F
100
AcDbEntity
  8
NETAFIM-L-DETL-PATT-025M
100
AcDbPolyline
 90
        2
 70
     1
 43
0.0
 10
3.411706381435266
 20
5.010936603068934
 42
1.0
 10
3.422017188334976
 20
5.010936603068934
 42
1.0
  0
LWPOLYLINE
  5
86D1
330
1F
100
AcDbEntity
  8
NETAFIM-L-DETL-PATT-025M
100
AcDbPolyline
 90
        2
 70
     1
 43
0.0
 10
3.576376032804162
 20
5.041868641759894
 42
1.0
 10
3.586686839703872
 20
5.041868641759894
 42
1.0
  0
LWPOLYLINE
  5
86D2
330
1F
100
AcDbEntity
  8
NETAFIM-L-DETL-035M
100
AcDbPolyline
 90
        7
 70
     0
 43
0.0
 10
5.745353664737493
 20
5.333324309343364
 10
5.786953664737488
 20
5.333324309343364
 10
5.958853664737489
 20
3.203124309343365
 10
5.990153664737491
 20
3.203124309343365
 10
5.990153664737491
 20
3.177124309343365
 10
5.911953664737488
 20
3.177124309343365
 10
5.87400243808247
 20
3.627789247428879
  0
LWPOLYLINE
  5
86D3
330
1F
100
AcDbEntity
  8
NETAFIM-L-DETL-035M
100
AcDbPolyline
 90
        6
 70
     0
 43
0.0
 10
5.87400243808247
 20
3.627789247428879
 10
5.750553664737488
 20
5.093724309343365
 10
5.677653664737491
 20
5.093724309343365
 10
5.677653664737491
 20
5.130224309343365
 10
5.719253664737486
 20
5.130224309343365
 10
5.745353664737493
 20
5.333324309343364
  0
LWPOLYLINE
  5
89AF
330
1F
100
AcDbEntity
  8
NETAFIM-L-DETL-PATT-025M
100
AcDbPolyline
 90
        2
 70
     1
 43
0.0
 10
6.281234562830604
 20
3.025739342425091
 42
1.0
 10
6.291545369730314
 20
3.025739342425091
 42
1.0
  0
LWPOLYLINE
  5
89B0
330
1F
100
AcDbEntity
  8
NETAFIM-L-DETL-PATT-025M
100
AcDbPolyline
 90
        2
 70
     1
 43
0.0
 10
6.427718158449444
 20
3.028165384675362
 42
1.0
 10
6.438028965349154
 20
3.028165384675362
 42
1.0
  0
LWPOLYLINE
  5
89B1
330
1F
100
AcDbEntity
  8
NETAFIM-L-DETL-PATT-025M
100
AcDbPolyline
 90
        2
 70
     1
 43
0.0
 10
6.485934405692503
 20
3.390252190528354
 42
1.0
 10
6.496245212592214
 20
3.390252190528354
 42
1.0
  0
LWPOLYLINE
  5
89B2
330
1F
100
AcDbEntity
  8
NETAFIM-L-DETL-PATT-025M
100
AcDbPolyline
 90
        2
 70
     1
 43
0.0
 10
6.605381217733437
 20
2.628242940687537
 42
1.0
 10
6.615692024633148
 20
2.628242940687537
 42
1.0
  0
LWPOLYLINE
  5
89E2
330
1F
100
AcDbEntity
  8
NETAFIM-L-DETL-035M
  6
Continuous
100
AcDbPolyline
 90
        6
 70
     0
 43
0.0
 10
5.794691369750289
 20
5.237437984629803
 10
5.90945366473749
 20
5.236124309343363
 10
6.322353664737491
 20
5.250024309343363
 10
6.61385366473749
 20
5.263924309343362
 10
6.97815366473749
 20
5.222224309343364
 10
7.233153664737486
 20
5.222224309343364
  0
LWPOLYLINE
  5
89E3
102
{ACAD_REACTORS
330
C070
102
}
330
1F
100
AcDbEntity
  8
NETAFIM-L-DETL-035M
  6
Continuous
100
AcDbPolyline
 90
        6
 70
     0
 43
0.0
 10
2.848842469321979
 20
5.208324309343364
 10
2.885653664737489
 20
5.236124309343363
 10
3.152853664737492
 20
5.236124309343363
 10
3.492853664737488
 20
5.208324309343364
 10
3.808553664737488
 20
5.236124309343363
 10
3.829509950532248
 20
5.236124309343367
  0
LWPOLYLINE
  5
B704
330
1F
100
AcDbEntity
  8
NETAFIM-L-DETL-PATT-025M
100
AcDbPolyline
 90
        2
 70
     1
 43
0.0
 10
6.699602784104236
 20
4.89694281702669
 42
1.0
 10
6.709913591003946
 20
4.89694281702669
 42
1.0
  0
LWPOLYLINE
  5
B705
330
1F
100
AcDbEntity
  8
NETAFIM-L-DETL-PATT-025M
100
AcDbPolyline
 90
        2
 70
     1
 43
0.0
 10
6.753289016669562
 20
5.038381243844405
 42
1.0
 10
6.763599823569272
 20
5.038381243844405
 42
1.0
  0
LWPOLYLINE
  5
B706
330
1F
100
AcDbEntity
  8
NETAFIM-L-DETL-PATT-025M
100
AcDbPolyline
 90
        2
 70
     1
 43
0.0
 10
6.392127013833608
 20
4.770135921265612
 42
1.0
 10
6.402437820733318
 20
4.770135921265612
 42
1.0
  0
LWPOLYLINE
  5
B707
330
1F
100
AcDbEntity
  8
NETAFIM-L-DETL-PATT-025M
100
AcDbPolyline
 90
        2
 70
     1
 43
0.0
 10
5.977278778432328
 20
4.106838399066326
 42
1.0
 10
5.987589585332038
 20
4.106838399066326
 42
1.0
  0
LWPOLYLINE
  5
B708
330
1F
100
AcDbEntity
  8
NETAFIM-L-DETL-PATT-025M
100
AcDbPolyline
 90
        2
 70
     1
 43
0.0
 10
6.113934680478671
 20
3.750803702953952
 42
1.0
 10
6.124245487378381
 20
3.750803702953952
 42
1.0
  0
LWPOLYLINE
  5
B70A
330
1F
100
AcDbEntity
  8
NETAFIM-L-DETL-PATT-025M
100
AcDbPolyline
 90
        2
 70
     1
 43
0.0
 10
6.133456946866061
 20
4.043434960545475
 42
1.0
 10
6.143767753765771
 20
4.043434960545475
 42
1.0
  0
LWPOLYLINE
  5
B70B
330
1F
100
AcDbEntity
  8
NETAFIM-L-DETL-PATT-025M
100
AcDbPolyline
 90
        2
 70
     1
 43
0.0
 10
6.763050149863254
 20
3.960522770270564
 42
1.0
 10
6.773360956762964
 20
3.960522770270564
 42
1.0
  0
LINE
  5
B9D1
330
1F
100
AcDbEntity
  8
NETAFIM-L-DETL-013M
100
AcDbLine
 10
4.258053664737488
 20
4.059324309343363
 30
0.0
 11
4.249053664737488
 21
3.746224309343364
 31
0.0
  0
LINE
  5
B9D2
330
1F
100
AcDbEntity
  8
NETAFIM-L-DETL-013M
100
AcDbLine
 10
4.428453664737489
 20
4.069424309343364
 30
0.0
 11
4.419453664737488
 21
3.736124309343363
 31
0.0
  0
LWPOLYLINE
  5
B9D6
330
1F
100
AcDbEntity
  8
NETAFIM-L-DETL-025M
100
AcDbPolyline
 90
        4
 70
     1
 43
0.0
 10
4.72486000211601
 20
4.69360015467712
 10
4.977360002116007
 20
4.69360015467712
 10
4.977360002116007
 20
4.648600154677122
 10
4.72486000211601
 20
4.648600154677122
  0
LINE
  5
B9D7
330
1F
100
AcDbEntity
  8
NETAFIM-L-DETL-013M
100
AcDbLine
 10
4.771060002116009
 20
4.490891446121395
 30
0.0
 11
4.771060002116009
 21
4.611124309343363
 31
0.0
  0
LINE
  5
B9DB
330
1F
100
AcDbEntity
  8
NETAFIM-L-DETL-013M
100
AcDbLine
 10
4.933160002116011
 20
4.488590872507128
 30
0.0
 11
4.933160002116011
 21
4.611124309343363
 31
0.0
  0
LWPOLYLINE
  5
B9DC
330
1F
100
AcDbEntity
  8
NETAFIM-L-DETL-025M
100
AcDbPolyline
 90
        4
 70
     1
 43
0.0
 10
4.658632349726048
 20
4.340224309343366
 10
5.047532349726047
 20
4.340224309343366
 10
5.047532349726047
 20
4.284724309343364
 10
4.658632349726048
 20
4.284724309343364
  0
LINE
  5
B9DD
330
1F
100
AcDbEntity
  8
NETAFIM-L-DETL-013M
100
AcDbLine
 10
4.701675058057908
 20
4.251726595956146
 30
0.0
 11
5.009884360645308
 21
4.278724008385932
 31
0.0
  0
LINE
  5
B9DE
330
1F
100
AcDbEntity
  8
NETAFIM-L-DETL-013M
100
AcDbLine
 10
4.693232349726045
 20
4.222224309343364
 30
0.0
 11
4.997323406971908
 21
4.248404733846932
 31
0.0
  0
LINE
  5
B9F5
330
1F
100
AcDbEntity
  8
NETAFIM-L-DETL-013M
100
AcDbLine
 10
5.303183439039422
 20
4.059324309343363
 30
0.0
 11
5.312983439039427
 21
3.74859740351377
 31
0.0
  0
LINE
  5
B9F6
330
1F
100
AcDbEntity
  8
NETAFIM-L-DETL-013M
100
AcDbLine
 10
5.196983439039428
 20
4.069424309343364
 30
0.0
 11
5.201883439039427
 21
3.73662930934336
 31
0.0
  0
LWPOLYLINE
  5
B9F7
330
1F
100
AcDbEntity
  8
NETAFIM-L-DETL-035M
100
AcDbPolyline
 90
        2
 70
     0
 43
0.0
 10
6.457279600531741
 20
3.902935465919277
 42
190.9104715449504
 10
6.455909778482677
 20
3.903060053711364
 42
190.9104715449504
  0
LWPOLYLINE
  5
B9F8
330
1F
100
AcDbEntity
  8
NETAFIM-L-DETL-035M
100
AcDbPolyline
 90
        2
 70
     0
 43
0.0
 10
3.382824691293194
 20
3.902935465919277
 42
190.9104715449504
 10
3.381454869244137
 20
3.903060053711364
 42
190.9104715449504
  0
LWPOLYLINE
  5
B9F9
330
1F
100
AcDbEntity
  8
NETAFIM-L-DETL-035M
100
AcDbPolyline
 90
        2
 70
     0
 43
0.0
 10
3.388085895653205
 20
3.902724309343355
 42
1.0
 10
3.388085895653198
 20
3.771424309343366
 42
190.9104715449504
  0
LWPOLYLINE
  5
B9FA
330
1F
100
AcDbEntity
  8
NETAFIM-L-DETL-035M
100
AcDbPolyline
 90
        2
 70
     0
 43
0.0
 10
6.462540804891737
 20
3.771424309343366
 42
1.0
 10
6.462540804891752
 20
3.902724309343355
 42
190.9104715449504
  0
LWPOLYLINE
  5
B9FB
330
1F
100
AcDbEntity
  8
NETAFIM-L-DETL-035M
100
AcDbPolyline
 90
        2
 70
     0
 43
0.0
 10
6.462540804891737
 20
4.034024309343365
 10
5.891802819746409
 20
4.034024309343365
  0
LWPOLYLINE
  5
B9FC
330
1F
100
AcDbEntity
  8
NETAFIM-L-DETL-035M
100
AcDbPolyline
 90
        2
 70
     0
 43
0.0
 10
5.912993759564265
 20
3.771424309343366
 10
6.462540804891737
 20
3.771424309343366
  0
LWPOLYLINE
  5
B9FD
330
1F
100
AcDbEntity
  8
NETAFIM-L-DETL-035M
100
AcDbPolyline
 90
        2
 70
     0
 43
0.0
 10
3.711313569910714
 20
3.771424309343366
 10
3.388085895653198
 20
3.771424309343366
  0
LWPOLYLINE
  5
B9FE
330
1F
100
AcDbEntity
  8
NETAFIM-L-DETL-035M
100
AcDbPolyline
 90
        2
 70
     0
 43
0.0
 10
3.388085895653198
 20
4.034024309343365
 10
3.73250450972857
 20
4.034024309343365
  0
LWPOLYLINE
  5
B9FF
330
1F
100
AcDbEntity
  8
NETAFIM-L-DETL-035M
100
AcDbPolyline
 90
       14
 70
     0
 43
0.0
 10
3.784514605987624
 20
4.034024309343365
 10
4.186353664737488
 20
4.034024309343365
 10
4.258053664737488
 20
4.059324309343363
 10
4.311753664737487
 20
4.034024309343365
 10
4.428453664737489
 20
4.069424309343364
 10
4.509253664737485
 20
4.034024309343365
 10
4.581053664737488
 20
4.034024309343365
 10
4.581053664737488
 20
3.776524309343365
 10
4.509253664737485
 20
3.776524309343365
 10
4.419453664737488
 20
3.736124309343363
 10
4.320753664737488
 20
3.771424309343366
 10
4.249053664737488
 20
3.746224309343364
 10
4.177453664737484
 20
3.771424309343366
 10
3.7624006333277
 20
3.771424309343366
  0
LWPOLYLINE
  5
BA01
330
1F
100
AcDbEntity
  8
NETAFIM-L-DETL-025M
100
AcDbPolyline
 90
        2
 70
     0
 43
0.0
 10
4.727360002116007
 20
4.495030055969024
 10
4.727360002116007
 20
4.611124309343363
  0
LWPOLYLINE
  5
BA02
102
{ACAD_REACTORS
330
C073
102
}
330
1F
100
AcDbEntity
  8
NETAFIM-L-DETL-025M
100
AcDbPolyline
 90
        3
 70
     0
 43
0.0
 10
4.727360002116007
 20
4.611124309343363
 10
4.977360002116007
 20
4.611124309343363
 10
4.977360002116007
 20
4.497807653645054
  0
LWPOLYLINE
  5
BA03
330
1F
100
AcDbEntity
  8
NETAFIM-L-DETL-013M
100
AcDbPolyline
 90
        2
 70
     0
 43
0.0
 10
4.85379917758545
 20
4.501535719816821
 10
4.85379917758545
 20
4.408347465602787
  0
LWPOLYLINE
  5
BA58
102
{ACAD_REACTORS
330
C079
102
}
330
1F
100
AcDbEntity
  8
NETAFIM-L-DETL-013M
100
AcDbPolyline
 90
        4
 70
     0
 43
0.0
 10
4.70357328180696
 20
4.197153147019083
 10
4.692658495249936
 20
4.222778940433006
 10
4.701675058057908
 20
4.251726595956146
 10
4.695183647052374
 20
4.284724309343364
  0
LWPOLYLINE
  5
BA59
330
1F
100
AcDbEntity
  8
NETAFIM-L-DETL-013M
100
AcDbPolyline
 90
        4
 70
     0
 43
0.0
 10
4.988610314188328
 20
4.197024309343365
 10
5.00918730540345
 20
4.222304388703118
 10
4.997323406971908
 20
4.248404733846932
 10
5.01237022165283
 20
4.284724309343364
  0
LINE
  5
BA5C
330
1F
100
AcDbEntity
  8
NETAFIM-L-DETL-013M
100
AcDbLine
 10
4.639945581030552
 20
3.903880930268751
 30
0.0
 11
5.038043166671911
 21
3.903880930268751
 31
0.0
  0
LWPOLYLINE
  5
BA5E
330
1F
100
AcDbEntity
  8
NETAFIM-L-DETL-035M
100
AcDbPolyline
 90
       14
 70
     0
 43
0.0
 10
5.839743355351565
 20
4.034024309343365
 10
5.347783439039424
 20
4.034024309343365
 10
5.303183439039422
 20
4.059324309343363
 10
5.269683439039425
 20
4.034024309343365
 10
5.196983439039428
 20
4.069424309343364
 10
5.146583439039424
 20
4.034024309343365
 10
5.101883439039426
 20
4.034024309343365
 10
5.101883439039426
 20
3.776524309343365
 10
5.146583439039424
 20
3.776524309343365
 10
5.202583439039422
 20
3.736124309343363
 10
5.264083439039424
 20
3.771424309343366
 10
5.308783439039423
 20
3.746224309343364
 10
5.353383439039426
 20
3.771424309343366
 10
5.861869874890352
 20
3.771424309343366
  0
LINE
  5
BA5F
330
1F
100
AcDbEntity
  8
NETAFIM-L-DETL-013M
100
AcDbLine
 10
4.777448078540473
 20
4.340224309343366
 30
0.0
 11
4.777448078540473
 21
4.284724309343364
 31
0.0
  0
LINE
  5
BA60
330
1F
100
AcDbEntity
  8
NETAFIM-L-DETL-013M
100
AcDbLine
 10
4.922727431656092
 20
4.340224309343366
 30
0.0
 11
4.922727431656092
 21
4.284724309343364
 31
0.0
  0
LWPOLYLINE
  5
BA61
330
1F
100
AcDbEntity
  8
NETAFIM-L-DETL-013M
100
AcDbPolyline
 90
        2
 70
     0
 43
0.0
 10
4.930910203523751
 20
4.487987850677178
 10
4.930910203523751
 20
4.408347465602787
  0
LWPOLYLINE
  5
BA62
330
1F
100
AcDbEntity
  8
NETAFIM-L-DETL-013M
100
AcDbPolyline
 90
        2
 70
     0
 43
0.0
 10
4.761735062967105
 20
4.487987850677175
 10
4.761735062967105
 20
4.408347465602787
  0
ARC
  5
BA63
330
1F
100
AcDbEntity
  8
NETAFIM-L-DETL-013M
100
AcDbCircle
 10
4.930910203523751
 20
4.487987850677178
 30
0.0
 40
0.0
100
AcDbArc
 50
323.3276912176868
 51
0.0
  0
LWPOLYLINE
  5
BA64
330
1F
100
AcDbEntity
  8
NETAFIM-L-DETL-013M
100
AcDbPolyline
 90
        4
 70
     0
 43
0.0
 10
4.950449633540202
 20
4.648600154677122
 10
4.950449633540202
 20
4.611124309343363
 10
4.755949633540197
 20
4.611124309343363
 10
4.755949633540197
 20
4.648600154677122
  0
LWPOLYLINE
  5
BA65
330
1F
100
AcDbEntity
  8
NETAFIM-L-DETL-025M
100
AcDbPolyline
 90
        6
 70
     1
 43
0.0
 10
4.692118338005698
 20
4.501990555745202
 10
4.692118338005698
 20
4.408347465602787
 10
5.014183409972858
 20
4.408347465602787
 10
5.014183409972858
 20
4.501804783500755
 42
0.0501489367034664
 10
4.930910203523751
 20
4.487987850677178
 42
0.1613929359343234
 10
4.761735062967098
 20
4.487987850677175
 42
0.0035349705835974
  0
LWPOLYLINE
  5
BA69
330
1F
100
AcDbEntity
  8
NETAFIM-L-DETL-013M
100
AcDbPolyline
 90
        2
 70
     0
 43
0.0
 10
5.00918730540345
 20
4.222304388703118
 10
4.70357328180696
 20
4.197153147019083
  0
LWPOLYLINE
  5
BA6B
330
1F
100
AcDbEntity
  8
NETAFIM-L-DETL-025M
100
AcDbPolyline
 90
        6
 70
     0
 43
0.0
 10
4.581053664737488
 20
3.992824309343365
 10
4.632253664737483
 20
3.992824309343365
 10
4.632253664737483
 20
4.197024309343365
 10
5.050653664737488
 20
4.197024309343365
 10
5.050653664737488
 20
3.992824309343365
 10
5.101883439039426
 20
3.992824309343365
  0
CIRCLE
  5
BC38
330
1F
100
AcDbEntity
  8
NETAFIM-L-DETL-025M
100
AcDbCircle
 10
4.9385234157047
 20
3.902521025973204
 30
0.0
 40
0.0995290418534679
  0
CIRCLE
  5
BC39
330
1F
100
AcDbEntity
  8
NETAFIM-L-DETL-025M
100
AcDbCircle
 10
4.739465331997763
 20
3.902521025973204
 30
0.0
 40
0.0995290418534679
  0
LINE
  5
BCEA
330
1F
100
AcDbEntity
  8
NETAFIM-L-DETL-PATT-013M
100
AcDbLine
 10
5.502301714737484
 20
2.501701009343364
 30
0.0
 11
5.469163364737489
 21
2.501701009343364
 31
0.0
  0
LINE
  5
BCEB
330
1F
100
AcDbEntity
  8
NETAFIM-L-DETL-PATT-013M
100
AcDbLine
 10
5.15230171473749
 20
2.501701009343364
 30
0.0
 11
5.119163364737488
 21
2.501701009343364
 31
0.0
  0
LINE
  5
BCEC
330
1F
100
AcDbEntity
  8
NETAFIM-L-DETL-PATT-013M
100
AcDbLine
 10
4.802301714737488
 20
2.501701009343364
 30
0.0
 11
4.769163364737487
 21
2.501701009343364
 31
0.0
  0
LINE
  5
BCED
330
1F
100
AcDbEntity
  8
NETAFIM-L-DETL-PATT-013M
100
AcDbLine
 10
5.502301714737484
 20
2.851701009343366
 30
0.0
 11
5.469163364737489
 21
2.851701009343366
 31
0.0
  0
LINE
  5
BCEE
330
1F
100
AcDbEntity
  8
NETAFIM-L-DETL-PATT-013M
100
AcDbLine
 10
5.15230171473749
 20
2.851701009343366
 30
0.0
 11
5.119163364737488
 21
2.851701009343366
 31
0.0
  0
LINE
  5
BCEF
330
1F
100
AcDbEntity
  8
NETAFIM-L-DETL-PATT-013M
100
AcDbLine
 10
4.802301714737488
 20
2.851701009343366
 30
0.0
 11
4.769163364737487
 21
2.851701009343366
 31
0.0
  0
LINE
  5
BCF0
330
1F
100
AcDbEntity
  8
NETAFIM-L-DETL-PATT-013M
100
AcDbLine
 10
4.452301714737487
 20
2.851701009343366
 30
0.0
 11
4.419163364737485
 21
2.851701009343366
 31
0.0
  0
LINE
  5
BCF1
330
1F
100
AcDbEntity
  8
NETAFIM-L-DETL-PATT-013M
100
AcDbLine
 10
4.102301714737485
 20
2.851701009343366
 30
0.0
 11
4.069163364737491
 21
2.851701009343366
 31
0.0
  0
LINE
  5
BCF2
330
1F
100
AcDbEntity
  8
NETAFIM-L-DETL-PATT-013M
100
AcDbLine
 10
5.175737958423709
 20
2.478267606721204
 30
0.0
 11
5.152305606421379
 21
2.501699958723539
 31
0.0
  0
LINE
  5
BCF3
330
1F
100
AcDbEntity
  8
NETAFIM-L-DETL-PATT-013M
100
AcDbLine
 10
4.825738097603952
 20
2.828267467540965
 30
0.0
 11
4.802305745601621
 21
2.851699819543298
 31
0.0
  0
LINE
  5
BCF4
330
1F
100
AcDbEntity
  8
NETAFIM-L-DETL-PATT-013M
100
AcDbLine
 10
4.825737850116581
 20
2.478267606721204
 30
0.0
 11
4.802305498114243
 21
2.501699958723535
 31
0.0
  0
LINE
  5
BCF5
330
1F
100
AcDbEntity
  8
NETAFIM-L-DETL-PATT-013M
100
AcDbLine
 10
4.475737989296817
 20
2.828267467540963
 30
0.0
 11
4.452305637294486
 21
2.851699819543296
 31
0.0
  0
LINE
  5
BCF6
330
1F
100
AcDbEntity
  8
NETAFIM-L-DETL-PATT-013M
100
AcDbLine
 10
4.125737880989682
 20
2.828267467540963
 30
0.0
 11
4.102305528987351
 21
2.851699819543296
 31
0.0
  0
LINE
  5
BCF7
330
1F
100
AcDbEntity
  8
NETAFIM-L-DETL-PATT-013M
100
AcDbLine
 10
5.513475934734813
 20
2.490529738717234
 30
0.0
 11
5.502305714728514
 21
2.501699958723535
 31
0.0
  0
LINE
  5
BCF8
330
1F
100
AcDbEntity
  8
NETAFIM-L-DETL-PATT-013M
100
AcDbLine
 10
5.175738205911088
 20
2.828267467540961
 30
0.0
 11
5.15230585390875
 21
2.851699819543296
 31
0.0
  0
LINE
  5
BCF9
330
1F
100
AcDbEntity
  8
NETAFIM-L-DETL-PATT-013M
100
AcDbLine
 10
5.525738314218216
 20
2.828267467540963
 30
0.0
 11
5.502305962215885
 21
2.851699819543296
 31
0.0
  0
LINE
  5
BCFA
330
1F
100
AcDbEntity
  8
NETAFIM-L-DETL-PATT-013M
100
AcDbLine
 10
4.825734214737487
 20
2.445130509343365
 30
0.0
 11
4.825734214737487
 21
2.478268859343365
 31
0.0
  0
LINE
  5
BCFB
330
1F
100
AcDbEntity
  8
NETAFIM-L-DETL-PATT-013M
100
AcDbLine
 10
4.825734214737487
 20
2.795130509343365
 30
0.0
 11
4.825734214737487
 21
2.828268859343364
 31
0.0
  0
LINE
  5
BCFC
330
1F
100
AcDbEntity
  8
NETAFIM-L-DETL-PATT-013M
100
AcDbLine
 10
4.475734214737485
 20
2.795130509343365
 30
0.0
 11
4.475734214737485
 21
2.828268859343364
 31
0.0
  0
LINE
  5
BCFD
330
1F
100
AcDbEntity
  8
NETAFIM-L-DETL-PATT-013M
100
AcDbLine
 10
4.125734214737484
 20
2.795130509343365
 30
0.0
 11
4.125734214737484
 21
2.828268859343364
 31
0.0
  0
LINE
  5
BCFE
330
1F
100
AcDbEntity
  8
NETAFIM-L-DETL-PATT-013M
100
AcDbLine
 10
4.125734214737484
 20
3.145130509343364
 30
0.0
 11
4.125734214737484
 21
3.153461417502808
 31
0.0
  0
LINE
  5
BCFF
330
1F
100
AcDbEntity
  8
NETAFIM-L-DETL-PATT-013M
100
AcDbLine
 10
5.175734214737488
 20
2.453636558281233
 30
0.0
 11
5.175734214737488
 21
2.478268859343365
 31
0.0
  0
LINE
  5
BD00
330
1F
100
AcDbEntity
  8
NETAFIM-L-DETL-PATT-013M
100
AcDbLine
 10
5.175734214737488
 20
2.795130509343365
 30
0.0
 11
5.175734214737488
 21
2.828268859343364
 31
0.0
  0
LINE
  5
BD01
330
1F
100
AcDbEntity
  8
NETAFIM-L-DETL-PATT-013M
100
AcDbLine
 10
5.525734214737489
 20
2.795130509343365
 30
0.0
 11
5.525734214737489
 21
2.828268859343364
 31
0.0
  0
LINE
  5
BD02
330
1F
100
AcDbEntity
  8
NETAFIM-L-DETL-PATT-013M
100
AcDbLine
 10
4.802299905394363
 20
2.771695875078843
 30
0.0
 11
4.825732257396701
 21
2.795128227081176
 31
0.0
  0
LINE
  5
BD03
330
1F
100
AcDbEntity
  8
NETAFIM-L-DETL-PATT-013M
100
AcDbLine
 10
5.15229976621412
 20
3.121695735898602
 30
0.0
 11
5.161895242367876
 21
3.131291212052357
 31
0.0
  0
LINE
  5
BD04
330
1F
100
AcDbEntity
  8
NETAFIM-L-DETL-PATT-013M
100
AcDbLine
 10
4.452300044574606
 20
2.771696122566216
 30
0.0
 11
4.475732396576937
 21
2.79512847456855
 31
0.0
  0
LINE
  5
BD05
330
1F
100
AcDbEntity
  8
NETAFIM-L-DETL-PATT-013M
100
AcDbLine
 10
4.102300183754842
 20
2.77169637005359
 30
0.0
 11
4.12573253575718
 21
2.795128722055923
 31
0.0
  0
LINE
  5
BD06
330
1F
100
AcDbEntity
  8
NETAFIM-L-DETL-PATT-013M
100
AcDbLine
 10
4.452300044574606
 20
3.121696230873349
 30
0.0
 11
4.463421362735189
 21
3.132817549033934
 31
0.0
  0
LINE
  5
BD07
330
1F
100
AcDbEntity
  8
NETAFIM-L-DETL-PATT-013M
100
AcDbLine
 10
4.102300183754842
 20
3.121696478360722
 30
0.0
 11
4.12573253575718
 21
3.145128830363057
 31
0.0
  0
LINE
  5
BD08
330
1F
100
AcDbEntity
  8
NETAFIM-L-DETL-PATT-013M
100
AcDbLine
 10
4.819359767929505
 20
2.438755629306851
 30
0.0
 11
4.825732257396694
 21
2.445128118774044
 31
0.0
  0
LINE
  5
BD09
330
1F
100
AcDbEntity
  8
NETAFIM-L-DETL-PATT-013M
100
AcDbLine
 10
5.15229976621412
 20
2.77169562759147
 30
0.0
 11
5.175732118216458
 21
2.795127979593803
 31
0.0
  0
LINE
  5
BD0A
330
1F
100
AcDbEntity
  8
NETAFIM-L-DETL-PATT-013M
100
AcDbLine
 10
5.502299627033885
 20
2.771695380104095
 30
0.0
 11
5.525731979036216
 21
2.79512773210643
 31
0.0
  0
LINE
  5
BD0B
330
1F
100
AcDbEntity
  8
NETAFIM-L-DETL-PATT-013M
100
AcDbLine
 10
4.069163364737484
 20
2.771698009343364
 30
0.0
 11
4.102301714737485
 21
2.771698009343364
 31
0.0
  0
LINE
  5
BD0C
330
1F
100
AcDbEntity
  8
NETAFIM-L-DETL-PATT-013M
100
AcDbLine
 10
4.419163364737485
 20
2.771698009343364
 30
0.0
 11
4.452301714737487
 21
2.771698009343364
 31
0.0
  0
LINE
  5
BD0D
330
1F
100
AcDbEntity
  8
NETAFIM-L-DETL-PATT-013M
100
AcDbLine
 10
4.769163364737487
 20
2.771698009343364
 30
0.0
 11
4.802301714737488
 21
2.771698009343364
 31
0.0
  0
LINE
  5
BD0E
330
1F
100
AcDbEntity
  8
NETAFIM-L-DETL-PATT-013M
100
AcDbLine
 10
5.119163364737488
 20
2.771698009343364
 30
0.0
 11
5.152301714737482
 21
2.771698009343364
 31
0.0
  0
LINE
  5
BD0F
330
1F
100
AcDbEntity
  8
NETAFIM-L-DETL-PATT-013M
100
AcDbLine
 10
5.469163364737482
 20
2.771698009343364
 30
0.0
 11
5.502301714737484
 21
2.771698009343364
 31
0.0
  0
LINE
  5
BD10
330
1F
100
AcDbEntity
  8
NETAFIM-L-DETL-PATT-013M
100
AcDbLine
 10
4.069163364737484
 20
3.121698009343366
 30
0.0
 11
4.102301714737485
 21
3.121698009343366
 31
0.0
  0
LINE
  5
BD11
330
1F
100
AcDbEntity
  8
NETAFIM-L-DETL-PATT-013M
100
AcDbLine
 10
4.419163364737485
 20
3.121698009343366
 30
0.0
 11
4.452301714737487
 21
3.121698009343366
 31
0.0
  0
LINE
  5
BD12
330
1F
100
AcDbEntity
  8
NETAFIM-L-DETL-PATT-013M
100
AcDbLine
 10
5.119163364737488
 20
3.121698009343366
 30
0.0
 11
5.152301714737482
 21
3.121698009343366
 31
0.0
  0
LINE
  5
BD13
330
1F
100
AcDbEntity
  8
NETAFIM-L-DETL-PATT-013M
100
AcDbLine
 10
4.404083842567722
 20
3.136780022577192
 30
0.0
 11
4.419167238786528
 21
3.12169662635839
 31
0.0
  0
LINE
  5
BD14
330
1F
100
AcDbEntity
  8
NETAFIM-L-DETL-PATT-013M
100
AcDbLine
 10
4.745734747603954
 20
2.795129117540963
 30
0.0
 11
4.769167099606285
 21
2.771696765538629
 31
0.0
  0
LINE
  5
BD15
330
1F
100
AcDbEntity
  8
NETAFIM-L-DETL-PATT-013M
100
AcDbLine
 10
5.095734855911082
 20
2.795129117540963
 30
0.0
 11
5.11916720791342
 21
2.771696765538629
 31
0.0
  0
LINE
  5
BD16
330
1F
100
AcDbEntity
  8
NETAFIM-L-DETL-PATT-013M
100
AcDbLine
 10
5.09857433713509
 20
3.142289744624087
 30
0.0
 11
5.119167455400791
 21
3.12169662635839
 31
0.0
  0
LINE
  5
BD17
330
1F
100
AcDbEntity
  8
NETAFIM-L-DETL-PATT-013M
100
AcDbLine
 10
5.445734964218218
 20
2.795129117540962
 30
0.0
 11
5.469167316220548
 21
2.771696765538629
 31
0.0
  0
LINE
  5
BD19
330
1F
100
AcDbEntity
  8
NETAFIM-L-DETL-PATT-013M
100
AcDbLine
 10
4.395734639296819
 20
2.795129117540963
 30
0.0
 11
4.41916699129915
 21
2.771696765538631
 31
0.0
  0
LINE
  5
BD1A
330
1F
100
AcDbEntity
  8
NETAFIM-L-DETL-PATT-013M
100
AcDbLine
 10
4.745734500116576
 20
2.445129256721203
 30
0.0
 11
4.746740337280542
 21
2.444123419557237
 31
0.0
  0
LINE
  5
BD1C
330
1F
100
AcDbEntity
  8
NETAFIM-L-DETL-PATT-013M
100
AcDbLine
 10
4.745730864737488
 20
2.828268859343364
 30
0.0
 11
4.745730864737488
 21
2.795130509343365
 31
0.0
  0
LINE
  5
BD1D
330
1F
100
AcDbEntity
  8
NETAFIM-L-DETL-PATT-013M
100
AcDbLine
 10
4.745730864737488
 20
2.478268859343365
 30
0.0
 11
4.745730864737488
 21
2.445130509343365
 31
0.0
  0
LINE
  5
BD1E
330
1F
100
AcDbEntity
  8
NETAFIM-L-DETL-PATT-013M
100
AcDbLine
 10
5.095730864737483
 20
2.828268859343364
 30
0.0
 11
5.095730864737483
 21
2.795130509343365
 31
0.0
  0
LINE
  5
BD1F
330
1F
100
AcDbEntity
  8
NETAFIM-L-DETL-PATT-013M
100
AcDbLine
 10
5.095730864737483
 20
2.478268859343365
 30
0.0
 11
5.095730864737483
 21
2.449724158704143
 31
0.0
  0
LINE
  5
BD20
330
1F
100
AcDbEntity
  8
NETAFIM-L-DETL-PATT-013M
100
AcDbLine
 10
5.445730864737484
 20
2.828268859343364
 30
0.0
 11
5.445730864737484
 21
2.795130509343365
 31
0.0
  0
LINE
  5
BD21
330
1F
100
AcDbEntity
  8
NETAFIM-L-DETL-PATT-013M
100
AcDbLine
 10
5.445730864737484
 20
2.478268859343365
 30
0.0
 11
5.445730864737484
 21
2.476600752804087
 31
0.0
  0
LINE
  5
BD22
330
1F
100
AcDbEntity
  8
NETAFIM-L-DETL-PATT-013M
100
AcDbLine
 10
4.395730864737487
 20
2.828268859343364
 30
0.0
 11
4.395730864737487
 21
2.795130509343365
 31
0.0
  0
LINE
  5
BD25
330
1F
100
AcDbEntity
  8
NETAFIM-L-DETL-PATT-013M
100
AcDbLine
 10
4.769161555394362
 20
2.851698875078843
 30
0.0
 11
4.745729203392031
 21
2.82826652307651
 31
0.0
  0
LINE
  5
BD26
330
1F
100
AcDbEntity
  8
NETAFIM-L-DETL-PATT-013M
100
AcDbLine
 10
5.119161416214126
 20
2.851698627591468
 30
0.0
 11
5.095729064211788
 21
2.828266275589137
 31
0.0
  0
LINE
  5
BD27
330
1F
100
AcDbEntity
  8
NETAFIM-L-DETL-PATT-013M
100
AcDbLine
 10
4.769161555394362
 20
2.501698766771709
 30
0.0
 11
4.745729203392031
 21
2.478266414769376
 31
0.0
  0
LINE
  5
BD28
330
1F
100
AcDbEntity
  8
NETAFIM-L-DETL-PATT-013M
100
AcDbLine
 10
5.469161277033883
 20
2.851698380104097
 30
0.0
 11
5.445728925031552
 21
2.828266028101762
 31
0.0
  0
LINE
  5
BD29
330
1F
100
AcDbEntity
  8
NETAFIM-L-DETL-PATT-013M
100
AcDbLine
 10
5.119161416214126
 20
2.501698519284336
 30
0.0
 11
5.095729064211788
 21
2.478266167282002
 31
0.0
  0
LINE
  5
BD2A
330
1F
100
AcDbEntity
  8
NETAFIM-L-DETL-PATT-013M
100
AcDbLine
 10
5.469161277033883
 20
2.501698271796962
 30
0.0
 11
5.445728925031552
 21
2.478265919794631
 31
0.0
  0
LINE
  5
BD2B
330
1F
100
AcDbEntity
  8
NETAFIM-L-DETL-PATT-013M
100
AcDbLine
 10
4.419161694574604
 20
2.851699122566217
 30
0.0
 11
4.395729342572273
 21
2.828266770563883
 31
0.0
  0
LINE
  5
BD2D
330
1F
100
AcDbEntity
  8
NETAFIM-L-DETL-PATT-013M
100
AcDbLine
 10
5.423900314737487
 20
2.796577059343364
 30
0.0
 11
5.385912364737485
 21
2.796577059343364
 31
0.0
  0
LINE
  5
BD2E
330
1F
100
AcDbEntity
  8
NETAFIM-L-DETL-PATT-013M
100
AcDbLine
 10
5.073900314737485
 20
2.796577059343364
 30
0.0
 11
5.035912364737484
 21
2.796577059343364
 31
0.0
  0
LINE
  5
BD2F
330
1F
100
AcDbEntity
  8
NETAFIM-L-DETL-PATT-013M
100
AcDbLine
 10
4.723900314737484
 20
2.796577059343364
 30
0.0
 11
4.68591236473749
 21
2.796577059343364
 31
0.0
  0
LINE
  5
BD30
330
1F
100
AcDbEntity
  8
NETAFIM-L-DETL-PATT-013M
100
AcDbLine
 10
4.37390031473749
 20
2.796577059343364
 30
0.0
 11
4.335912364737488
 21
2.796577059343364
 31
0.0
  0
LINE
  5
BD32
330
1F
100
AcDbEntity
  8
NETAFIM-L-DETL-PATT-013M
100
AcDbLine
 10
4.723900314737484
 20
2.446577059343366
 30
0.0
 11
4.713545686227746
 21
2.446577059343366
 31
0.0
  0
LINE
  5
BD34
330
1F
100
AcDbEntity
  8
NETAFIM-L-DETL-PATT-013M
100
AcDbLine
 10
4.750763172730216
 20
2.769716692414697
 30
0.0
 11
4.723901635681841
 21
2.796578229463073
 31
0.0
  0
LINE
  5
BD35
330
1F
100
AcDbEntity
  8
NETAFIM-L-DETL-PATT-013M
100
AcDbLine
 10
4.400763064423081
 20
3.119716800721829
 30
0.0
 11
4.382388515375339
 21
3.138091349769575
 31
0.0
  0
LINE
  5
BD36
330
1F
100
AcDbEntity
  8
NETAFIM-L-DETL-PATT-013M
100
AcDbLine
 10
4.724729357837141
 20
2.445750399000645
 30
0.0
 11
4.723901635681841
 21
2.446578121155938
 31
0.0
  0
LINE
  5
BD37
330
1F
100
AcDbEntity
  8
NETAFIM-L-DETL-PATT-013M
100
AcDbLine
 10
4.400763064423081
 20
2.769716692414697
 30
0.0
 11
4.373901527374705
 21
2.796578229463073
 31
0.0
  0
LINE
  5
BD3A
330
1F
100
AcDbEntity
  8
NETAFIM-L-DETL-PATT-013M
100
AcDbLine
 10
5.100763281037352
 20
2.769716692414697
 30
0.0
 11
5.073901743988976
 21
2.796578229463073
 31
0.0
  0
LINE
  5
BD3B
330
1F
100
AcDbEntity
  8
NETAFIM-L-DETL-PATT-013M
100
AcDbLine
 10
5.45076338934448
 20
2.769716692414697
 30
0.0
 11
5.423901852296104
 21
2.796578229463073
 31
0.0
  0
LINE
  5
BD3C
330
1F
100
AcDbEntity
  8
NETAFIM-L-DETL-PATT-013M
100
AcDbLine
 10
5.100763281037352
 20
3.119716800721829
 30
0.0
 11
5.074879216101876
 21
3.145600865657301
 31
0.0
  0
LINE
  5
BD3D
330
1F
100
AcDbEntity
  8
NETAFIM-L-DETL-PATT-013M
100
AcDbLine
 10
4.750761764737482
 20
2.731727659343364
 30
0.0
 11
4.750761764737482
 21
2.769715609343365
 31
0.0
  0
LINE
  5
BD3E
330
1F
100
AcDbEntity
  8
NETAFIM-L-DETL-PATT-013M
100
AcDbLine
 10
4.750761764737482
 20
3.081727659343365
 30
0.0
 11
4.750761764737482
 21
3.113629373700189
 31
0.0
  0
LINE
  5
BD3F
330
1F
100
AcDbEntity
  8
NETAFIM-L-DETL-PATT-013M
100
AcDbLine
 10
4.400761764737488
 20
2.731727659343364
 30
0.0
 11
4.400761764737488
 21
2.769715609343365
 31
0.0
  0
LINE
  5
BD40
330
1F
100
AcDbEntity
  8
NETAFIM-L-DETL-PATT-013M
100
AcDbLine
 10
4.400761764737488
 20
3.081727659343365
 30
0.0
 11
4.400761764737488
 21
3.119715609343363
 31
0.0
  0
LINE
  5
BD43
330
1F
100
AcDbEntity
  8
NETAFIM-L-DETL-PATT-013M
100
AcDbLine
 10
5.100761764737484
 20
2.731727659343364
 30
0.0
 11
5.100761764737484
 21
2.769715609343365
 31
0.0
  0
LINE
  5
BD44
330
1F
100
AcDbEntity
  8
NETAFIM-L-DETL-PATT-013M
100
AcDbLine
 10
5.100761764737484
 20
3.081727659343365
 30
0.0
 11
5.100761764737484
 21
3.119715609343363
 31
0.0
  0
LINE
  5
BD45
330
1F
100
AcDbEntity
  8
NETAFIM-L-DETL-PATT-013M
100
AcDbLine
 10
5.450761764737485
 20
2.731727659343364
 30
0.0
 11
5.450761764737485
 21
2.769715609343365
 31
0.0
  0
LINE
  5
BD46
330
1F
100
AcDbEntity
  8
NETAFIM-L-DETL-PATT-013M
100
AcDbLine
 10
5.450761764737485
 20
3.081727659343365
 30
0.0
 11
5.450761764737485
 21
3.100278383206963
 31
0.0
  0
LINE
  5
BD47
330
1F
100
AcDbEntity
  8
NETAFIM-L-DETL-PATT-013M
100
AcDbLine
 10
4.723901722730218
 20
2.704867292414697
 30
0.0
 11
4.750763259778594
 21
2.731728829463073
 31
0.0
  0
LINE
  5
BD48
330
1F
100
AcDbEntity
  8
NETAFIM-L-DETL-PATT-013M
100
AcDbLine
 10
5.073901831037353
 20
3.054867400721831
 30
0.0
 11
5.100763368085729
 21
3.081728937770205
 31
0.0
  0
LINE
  5
BD49
330
1F
100
AcDbEntity
  8
NETAFIM-L-DETL-PATT-013M
100
AcDbLine
 10
4.373901614423083
 20
2.704867292414697
 30
0.0
 11
4.400763151471458
 21
2.731728829463073
 31
0.0
  0
LINE
  5
BD4A
330
1F
100
AcDbEntity
  8
NETAFIM-L-DETL-PATT-013M
100
AcDbLine
 10
4.723901722730218
 20
3.054867400721831
 30
0.0
 11
4.750763259778594
 21
3.081728937770205
 31
0.0
  0
LINE
  5
BD4C
330
1F
100
AcDbEntity
  8
NETAFIM-L-DETL-PATT-013M
100
AcDbLine
 10
4.373901614423083
 20
3.054867400721831
 30
0.0
 11
4.400763151471458
 21
3.081728937770205
 31
0.0
  0
LINE
  5
BD4E
330
1F
100
AcDbEntity
  8
NETAFIM-L-DETL-PATT-013M
100
AcDbLine
 10
5.073901831037353
 20
2.704867292414697
 30
0.0
 11
5.100763368085729
 21
2.731728829463073
 31
0.0
  0
LINE
  5
BD4F
330
1F
100
AcDbEntity
  8
NETAFIM-L-DETL-PATT-013M
100
AcDbLine
 10
5.423901939344482
 20
3.054867400721829
 30
0.0
 11
5.450763476392857
 21
3.081728937770205
 31
0.0
  0
LINE
  5
BD50
330
1F
100
AcDbEntity
  8
NETAFIM-L-DETL-PATT-013M
100
AcDbLine
 10
5.423901939344482
 20
2.704867292414697
 30
0.0
 11
5.450763476392857
 21
2.731728829463073
 31
0.0
  0
LINE
  5
BD52
330
1F
100
AcDbEntity
  8
NETAFIM-L-DETL-PATT-013M
100
AcDbLine
 10
4.335912364737488
 20
2.704866209343365
 30
0.0
 11
4.373900314737483
 21
2.704866209343365
 31
0.0
  0
LINE
  5
BD53
330
1F
100
AcDbEntity
  8
NETAFIM-L-DETL-PATT-013M
100
AcDbLine
 10
4.685912364737482
 20
2.704866209343365
 30
0.0
 11
4.723900314737484
 21
2.704866209343365
 31
0.0
  0
LINE
  5
BD54
330
1F
100
AcDbEntity
  8
NETAFIM-L-DETL-PATT-013M
100
AcDbLine
 10
5.035912364737484
 20
2.704866209343365
 30
0.0
 11
5.073900314737485
 21
2.704866209343365
 31
0.0
  0
LINE
  5
BD55
330
1F
100
AcDbEntity
  8
NETAFIM-L-DETL-PATT-013M
100
AcDbLine
 10
5.385912364737485
 20
2.704866209343365
 30
0.0
 11
5.423900314737487
 21
2.704866209343365
 31
0.0
  0
LINE
  5
BD57
330
1F
100
AcDbEntity
  8
NETAFIM-L-DETL-PATT-013M
100
AcDbLine
 10
4.335912364737488
 20
3.054866209343365
 30
0.0
 11
4.373900314737483
 21
3.054866209343365
 31
0.0
  0
LINE
  5
BD58
330
1F
100
AcDbEntity
  8
NETAFIM-L-DETL-PATT-013M
100
AcDbLine
 10
4.685912364737482
 20
3.054866209343365
 30
0.0
 11
4.723900314737484
 21
3.054866209343365
 31
0.0
  0
LINE
  5
BD59
330
1F
100
AcDbEntity
  8
NETAFIM-L-DETL-PATT-013M
100
AcDbLine
 10
5.035912364737484
 20
3.054866209343365
 30
0.0
 11
5.073900314737485
 21
3.054866209343365
 31
0.0
  0
LINE
  5
BD5A
330
1F
100
AcDbEntity
  8
NETAFIM-L-DETL-PATT-013M
100
AcDbLine
 10
5.385912364737485
 20
3.054866209343365
 30
0.0
 11
5.423900314737487
 21
3.054866209343365
 31
0.0
  0
LINE
  5
BD5B
330
1F
100
AcDbEntity
  8
NETAFIM-L-DETL-PATT-013M
100
AcDbLine
 10
4.309052214423083
 20
3.081728850721831
 30
0.0
 11
4.335913751471458
 21
3.054867313673455
 31
0.0
  0
LINE
  5
BD5C
330
1F
100
AcDbEntity
  8
NETAFIM-L-DETL-PATT-013M
100
AcDbLine
 10
4.659052322730218
 20
2.731728742414696
 30
0.0
 11
4.685913859778594
 21
2.704867205366322
 31
0.0
  0
LINE
  5
BD5D
330
1F
100
AcDbEntity
  8
NETAFIM-L-DETL-PATT-013M
100
AcDbLine
 10
4.659052322730218
 20
3.081728850721831
 30
0.0
 11
4.685913859778594
 21
3.054867313673455
 31
0.0
  0
LINE
  5
BD5E
330
1F
100
AcDbEntity
  8
NETAFIM-L-DETL-PATT-013M
100
AcDbLine
 10
5.009052431037353
 20
2.731728742414698
 30
0.0
 11
5.035913968085729
 21
2.704867205366322
 31
0.0
  0
LINE
  5
BD5F
330
1F
100
AcDbEntity
  8
NETAFIM-L-DETL-PATT-013M
100
AcDbLine
 10
5.009052431037353
 20
3.081728850721831
 30
0.0
 11
5.035913968085729
 21
3.054867313673455
 31
0.0
  0
LINE
  5
BD60
330
1F
100
AcDbEntity
  8
NETAFIM-L-DETL-PATT-013M
100
AcDbLine
 10
5.359052539344482
 20
2.731728742414699
 30
0.0
 11
5.385914076392857
 21
2.704867205366324
 31
0.0
  0
LINE
  5
BD61
330
1F
100
AcDbEntity
  8
NETAFIM-L-DETL-PATT-013M
100
AcDbLine
 10
5.359052539344482
 20
3.081728850721831
 30
0.0
 11
5.385914076392857
 21
3.054867313673455
 31
0.0
  0
LINE
  5
BD65
330
1F
100
AcDbEntity
  8
NETAFIM-L-DETL-PATT-013M
100
AcDbLine
 10
4.309052214423083
 20
2.731728742414696
 30
0.0
 11
4.335913751471458
 21
2.70486720536632
 31
0.0
  0
LINE
  5
BD66
330
1F
100
AcDbEntity
  8
NETAFIM-L-DETL-PATT-013M
100
AcDbLine
 10
4.659050914737484
 20
3.119715609343363
 30
0.0
 11
4.659050914737484
 21
3.081727659343365
 31
0.0
  0
LINE
  5
BD67
330
1F
100
AcDbEntity
  8
NETAFIM-L-DETL-PATT-013M
100
AcDbLine
 10
4.659050914737484
 20
2.769715609343365
 30
0.0
 11
4.659050914737484
 21
2.731727659343364
 31
0.0
  0
LINE
  5
BD68
330
1F
100
AcDbEntity
  8
NETAFIM-L-DETL-PATT-013M
100
AcDbLine
 10
5.009050914737485
 20
3.119715609343363
 30
0.0
 11
5.009050914737485
 21
3.081727659343365
 31
0.0
  0
LINE
  5
BD69
330
1F
100
AcDbEntity
  8
NETAFIM-L-DETL-PATT-013M
100
AcDbLine
 10
5.009050914737485
 20
2.769715609343365
 30
0.0
 11
5.009050914737485
 21
2.731727659343364
 31
0.0
  0
LINE
  5
BD6A
330
1F
100
AcDbEntity
  8
NETAFIM-L-DETL-PATT-013M
100
AcDbLine
 10
5.359050914737487
 20
3.097187044418455
 30
0.0
 11
5.359050914737487
 21
3.081727659343365
 31
0.0
  0
LINE
  5
BD6B
330
1F
100
AcDbEntity
  8
NETAFIM-L-DETL-PATT-013M
100
AcDbLine
 10
5.359050914737487
 20
2.769715609343365
 30
0.0
 11
5.359050914737487
 21
2.731727659343364
 31
0.0
  0
LINE
  5
BD6E
330
1F
100
AcDbEntity
  8
NETAFIM-L-DETL-PATT-013M
100
AcDbLine
 10
4.30905091473749
 20
3.119715609343363
 30
0.0
 11
4.30905091473749
 21
3.081727659343365
 31
0.0
  0
LINE
  5
BD6F
330
1F
100
AcDbEntity
  8
NETAFIM-L-DETL-PATT-013M
100
AcDbLine
 10
4.30905091473749
 20
2.769715609343365
 30
0.0
 11
4.30905091473749
 21
2.731727659343364
 31
0.0
  0
LINE
  5
BD70
330
1F
100
AcDbEntity
  8
NETAFIM-L-DETL-PATT-013M
100
AcDbLine
 10
5.028474361243709
 20
3.139138730928189
 30
0.0
 11
5.009052343988976
 21
3.119716713673455
 31
0.0
  0
LINE
  5
BD71
330
1F
100
AcDbEntity
  8
NETAFIM-L-DETL-PATT-013M
100
AcDbLine
 10
4.685913772730216
 20
2.796578142414696
 30
0.0
 11
4.659052235681841
 21
2.769716605366322
 31
0.0
  0
LINE
  5
BD72
330
1F
100
AcDbEntity
  8
NETAFIM-L-DETL-PATT-013M
100
AcDbLine
 10
5.035913881037352
 20
2.796578142414696
 30
0.0
 11
5.009052343988976
 21
2.769716605366322
 31
0.0
  0
LINE
  5
BD74
330
1F
100
AcDbEntity
  8
NETAFIM-L-DETL-PATT-013M
100
AcDbLine
 10
5.385913989344487
 20
2.796578142414698
 30
0.0
 11
5.359052452296111
 21
2.769716605366324
 31
0.0
  0
LINE
  5
BD76
330
1F
100
AcDbEntity
  8
NETAFIM-L-DETL-PATT-013M
100
AcDbLine
 10
4.659086815845114
 20
3.119751293836729
 30
0.0
 11
4.659052235681841
 21
3.119716713673455
 31
0.0
  0
LINE
  5
BD77
330
1F
100
AcDbEntity
  8
NETAFIM-L-DETL-PATT-013M
100
AcDbLine
 10
4.335913664423081
 20
2.796578142414698
 30
0.0
 11
4.309052127374705
 21
2.769716605366322
 31
0.0
  0
LINE
  5
BD78
330
1F
100
AcDbEntity
  8
NETAFIM-L-DETL-PATT-013M
100
AcDbLine
 10
4.330532242051916
 20
3.141196828350659
 30
0.0
 11
4.309052127374712
 21
3.119716713673455
 31
0.0
  0
LINE
  5
BD7B
330
1F
100
AcDbEntity
  8
NETAFIM-L-DETL-PATT-013M
100
AcDbLine
 10
5.264563864737489
 20
2.771372859343366
 30
0.0
 11
5.239508064737485
 21
2.771372859343366
 31
0.0
  0
LINE
  5
BD7C
330
1F
100
AcDbEntity
  8
NETAFIM-L-DETL-PATT-013M
100
AcDbLine
 10
4.914563864737488
 20
2.771372859343366
 30
0.0
 11
4.889508064737491
 21
2.771372859343366
 31
0.0
  0
LINE
  5
BD7D
330
1F
100
AcDbEntity
  8
NETAFIM-L-DETL-PATT-013M
100
AcDbLine
 10
4.564563864737486
 20
2.771372859343366
 30
0.0
 11
4.539508064737489
 21
2.771372859343366
 31
0.0
  0
LINE
  5
BD7E
330
1F
100
AcDbEntity
  8
NETAFIM-L-DETL-PATT-013M
100
AcDbLine
 10
4.214563864737492
 20
2.771372859343366
 30
0.0
 11
4.189508064737488
 21
2.771372859343366
 31
0.0
  0
LINE
  5
BD7F
330
1F
100
AcDbEntity
  8
NETAFIM-L-DETL-PATT-013M
100
AcDbLine
 10
4.564563864737486
 20
3.121372859343364
 30
0.0
 11
4.539508064737489
 21
3.121372859343364
 31
0.0
  0
LINE
  5
BD80
330
1F
100
AcDbEntity
  8
NETAFIM-L-DETL-PATT-013M
100
AcDbLine
 10
4.214563864737485
 20
3.121372859343364
 30
0.0
 11
4.189508064737488
 21
3.121372859343364
 31
0.0
  0
LINE
  5
BD81
330
1F
100
AcDbEntity
  8
NETAFIM-L-DETL-PATT-013M
100
AcDbLine
 10
4.914563864737488
 20
3.121372859343364
 30
0.0
 11
4.90089690783521
 21
3.121372859343364
 31
0.0
  0
LINE
  5
BD82
330
1F
100
AcDbEntity
  8
NETAFIM-L-DETL-PATT-013M
100
AcDbLine
 10
4.932285205911085
 20
2.753654117540965
 30
0.0
 11
4.914568079823034
 21
2.771371243629018
 31
0.0
  0
LINE
  5
BD83
330
1F
100
AcDbEntity
  8
NETAFIM-L-DETL-PATT-013M
100
AcDbLine
 10
4.582285345091328
 20
3.103653978360724
 30
0.0
 11
4.56456821900327
 21
3.121371104448777
 31
0.0
  0
LINE
  5
BD84
330
1F
100
AcDbEntity
  8
NETAFIM-L-DETL-PATT-013M
100
AcDbLine
 10
4.58228509760395
 20
2.753654117540963
 30
0.0
 11
4.564567971515899
 21
2.771371243629016
 31
0.0
  0
LINE
  5
BD85
330
1F
100
AcDbEntity
  8
NETAFIM-L-DETL-PATT-013M
100
AcDbLine
 10
4.232285236784193
 20
3.103653978360722
 30
0.0
 11
4.214568110696141
 21
3.121371104448777
 31
0.0
  0
LINE
  5
BD86
330
1F
100
AcDbEntity
  8
NETAFIM-L-DETL-PATT-013M
100
AcDbLine
 10
4.232284989296822
 20
2.753654117540963
 30
0.0
 11
4.214567863208763
 21
2.771371243629016
 31
0.0
  0
LINE
  5
BD87
330
1F
100
AcDbEntity
  8
NETAFIM-L-DETL-PATT-013M
100
AcDbLine
 10
5.282285314218221
 20
2.753654117540963
 30
0.0
 11
5.264568188130162
 21
2.771371243629016
 31
0.0
  0
LINE
  5
BD88
330
1F
100
AcDbEntity
  8
NETAFIM-L-DETL-PATT-013M
100
AcDbLine
 10
4.932285453398456
 20
3.103653978360722
 30
0.0
 11
4.914568327310405
 21
3.121371104448777
 31
0.0
  0
LINE
  5
BD8A
330
1F
100
AcDbEntity
  8
NETAFIM-L-DETL-PATT-013M
100
AcDbLine
 10
5.282285561705592
 20
3.103653978360722
 30
0.0
 11
5.27414568223785
 21
3.111793857828467
 31
0.0
  0
LINE
  5
BD8C
330
1F
100
AcDbEntity
  8
NETAFIM-L-DETL-PATT-013M
100
AcDbLine
 10
4.582281214737484
 20
2.728599709343366
 30
0.0
 11
4.582281214737484
 21
2.753655509343365
 31
0.0
  0
LINE
  5
BD8D
330
1F
100
AcDbEntity
  8
NETAFIM-L-DETL-PATT-013M
100
AcDbLine
 10
4.582281214737484
 20
3.078599709343365
 30
0.0
 11
4.582281214737484
 21
3.103655509343366
 31
0.0
  0
LINE
  5
BD8E
330
1F
100
AcDbEntity
  8
NETAFIM-L-DETL-PATT-013M
100
AcDbLine
 10
4.23228121473749
 20
2.728599709343366
 30
0.0
 11
4.23228121473749
 21
2.753655509343365
 31
0.0
  0
LINE
  5
BD8F
330
1F
100
AcDbEntity
  8
NETAFIM-L-DETL-PATT-013M
100
AcDbLine
 10
4.23228121473749
 20
3.078599709343365
 30
0.0
 11
4.23228121473749
 21
3.103655509343366
 31
0.0
  0
LINE
  5
BD90
330
1F
100
AcDbEntity
  8
NETAFIM-L-DETL-PATT-013M
100
AcDbLine
 10
4.932281214737486
 20
2.728599709343366
 30
0.0
 11
4.932281214737486
 21
2.753655509343365
 31
0.0
  0
LINE
  5
BD91
330
1F
100
AcDbEntity
  8
NETAFIM-L-DETL-PATT-013M
100
AcDbLine
 10
4.932281214737486
 20
3.078599709343365
 30
0.0
 11
4.932281214737486
 21
3.103655509343366
 31
0.0
  0
LINE
  5
BD92
330
1F
100
AcDbEntity
  8
NETAFIM-L-DETL-PATT-013M
100
AcDbLine
 10
5.282281214737487
 20
2.728599709343366
 30
0.0
 11
5.282281214737487
 21
2.753655509343365
 31
0.0
  0
LINE
  5
BD93
330
1F
100
AcDbEntity
  8
NETAFIM-L-DETL-PATT-013M
100
AcDbLine
 10
5.282281214737487
 20
3.078599709343365
 30
0.0
 11
5.282281214737487
 21
3.103655509343366
 31
0.0
  0
LINE
  5
BD96
330
1F
100
AcDbEntity
  8
NETAFIM-L-DETL-PATT-013M
100
AcDbLine
 10
4.564562055394368
 20
2.710880575078843
 30
0.0
 11
4.582279181482419
 21
2.728597701166898
 31
0.0
  0
LINE
  5
BD97
330
1F
100
AcDbEntity
  8
NETAFIM-L-DETL-PATT-013M
100
AcDbLine
 10
4.914561916214125
 20
3.060880435898604
 30
0.0
 11
4.932279042302177
 21
3.078597561986657
 31
0.0
  0
LINE
  5
BD98
330
1F
100
AcDbEntity
  8
NETAFIM-L-DETL-PATT-013M
100
AcDbLine
 10
4.214562194574604
 20
2.710880822566218
 30
0.0
 11
4.232279320662662
 21
2.728597948654271
 31
0.0
  0
LINE
  5
BD99
330
1F
100
AcDbEntity
  8
NETAFIM-L-DETL-PATT-013M
100
AcDbLine
 10
4.564562055394368
 20
3.060880683385977
 30
0.0
 11
4.582279181482419
 21
3.07859780947403
 31
0.0
  0
LINE
  5
BD9A
330
1F
100
AcDbEntity
  8
NETAFIM-L-DETL-PATT-013M
100
AcDbLine
 10
4.214562194574604
 20
3.06088093087335
 30
0.0
 11
4.232279320662655
 21
3.078598056961404
 31
0.0
  0
LINE
  5
BD9B
330
1F
100
AcDbEntity
  8
NETAFIM-L-DETL-PATT-013M
100
AcDbLine
 10
4.914561916214125
 20
2.71088032759147
 30
0.0
 11
4.932279042302177
 21
2.728597453679523
 31
0.0
  0
LINE
  5
BD9C
330
1F
100
AcDbEntity
  8
NETAFIM-L-DETL-PATT-013M
100
AcDbLine
 10
5.264561777033883
 20
3.060880188411229
 30
0.0
 11
5.282278903121941
 21
3.078597314499284
 31
0.0
  0
LINE
  5
BD9D
330
1F
100
AcDbEntity
  8
NETAFIM-L-DETL-PATT-013M
100
AcDbLine
 10
5.264561777033883
 20
2.710880080104097
 30
0.0
 11
5.282278903121941
 21
2.728597206192152
 31
0.0
  0
LINE
  5
BDA0
330
1F
100
AcDbEntity
  8
NETAFIM-L-DETL-PATT-013M
100
AcDbLine
 10
4.189508064737488
 20
2.710882709343365
 30
0.0
 11
4.214563864737485
 21
2.710882709343365
 31
0.0
  0
LINE
  5
BDA1
330
1F
100
AcDbEntity
  8
NETAFIM-L-DETL-PATT-013M
100
AcDbLine
 10
4.539508064737489
 20
2.710882709343365
 30
0.0
 11
4.564563864737486
 21
2.710882709343365
 31
0.0
  0
LINE
  5
BDA2
330
1F
100
AcDbEntity
  8
NETAFIM-L-DETL-PATT-013M
100
AcDbLine
 10
4.889508064737484
 20
2.710882709343365
 30
0.0
 11
4.914563864737488
 21
2.710882709343365
 31
0.0
  0
LINE
  5
BDA3
330
1F
100
AcDbEntity
  8
NETAFIM-L-DETL-PATT-013M
100
AcDbLine
 10
5.239508064737485
 20
2.710882709343365
 30
0.0
 11
5.264563864737489
 21
2.710882709343365
 31
0.0
  0
LINE
  5
BDA5
330
1F
100
AcDbEntity
  8
NETAFIM-L-DETL-PATT-013M
100
AcDbLine
 10
4.189508064737488
 20
3.060882709343364
 30
0.0
 11
4.214563864737485
 21
3.060882709343364
 31
0.0
  0
LINE
  5
BDA6
330
1F
100
AcDbEntity
  8
NETAFIM-L-DETL-PATT-013M
100
AcDbLine
 10
4.539508064737489
 20
3.060882709343364
 30
0.0
 11
4.564563864737486
 21
3.060882709343364
 31
0.0
  0
LINE
  5
BDA7
330
1F
100
AcDbEntity
  8
NETAFIM-L-DETL-PATT-013M
100
AcDbLine
 10
4.889508064737484
 20
3.060882709343364
 30
0.0
 11
4.914563864737488
 21
3.060882709343364
 31
0.0
  0
LINE
  5
BDA8
330
1F
100
AcDbEntity
  8
NETAFIM-L-DETL-PATT-013M
100
AcDbLine
 10
5.239508064737485
 20
3.060882709343364
 30
0.0
 11
5.264563864737489
 21
3.060882709343364
 31
0.0
  0
LINE
  5
BDAA
330
1F
100
AcDbEntity
  8
NETAFIM-L-DETL-PATT-013M
100
AcDbLine
 10
4.521795195091321
 20
3.078598178360723
 30
0.0
 11
4.53951232117938
 21
3.06088105227267
 31
0.0
  0
LINE
  5
BDAB
330
1F
100
AcDbEntity
  8
NETAFIM-L-DETL-PATT-013M
100
AcDbLine
 10
4.871795055911086
 20
2.728598317540964
 30
0.0
 11
4.889512181999137
 21
2.71088119145291
 31
0.0
  0
LINE
  5
BDAC
330
1F
100
AcDbEntity
  8
NETAFIM-L-DETL-PATT-013M
100
AcDbLine
 10
4.871795303398457
 20
3.078598178360723
 30
0.0
 11
4.889512429486515
 21
3.06088105227267
 31
0.0
  0
LINE
  5
BDAD
330
1F
100
AcDbEntity
  8
NETAFIM-L-DETL-PATT-013M
100
AcDbLine
 10
5.221795164218221
 20
2.728598317540964
 30
0.0
 11
5.239512290306272
 21
2.71088119145291
 31
0.0
  0
LINE
  5
BDAE
330
1F
100
AcDbEntity
  8
NETAFIM-L-DETL-PATT-013M
100
AcDbLine
 10
5.221795411705592
 20
3.078598178360723
 30
0.0
 11
5.239512537793643
 21
3.06088105227267
 31
0.0
  0
LINE
  5
BDB1
330
1F
100
AcDbEntity
  8
NETAFIM-L-DETL-PATT-013M
100
AcDbLine
 10
4.171795086784193
 20
3.078598178360723
 30
0.0
 11
4.189512212872244
 21
3.06088105227267
 31
0.0
  0
LINE
  5
BDB2
330
1F
100
AcDbEntity
  8
NETAFIM-L-DETL-PATT-013M
100
AcDbLine
 10
4.52179494760395
 20
2.728598317540964
 30
0.0
 11
4.539512073692002
 21
2.71088119145291
 31
0.0
  0
LINE
  5
BDB3
330
1F
100
AcDbEntity
  8
NETAFIM-L-DETL-PATT-013M
100
AcDbLine
 10
4.171794839296815
 20
2.728598317540963
 30
0.0
 11
4.189511965384873
 21
2.71088119145291
 31
0.0
  0
LINE
  5
BDB4
330
1F
100
AcDbEntity
  8
NETAFIM-L-DETL-PATT-013M
100
AcDbLine
 10
4.871791064737486
 20
3.103655509343366
 30
0.0
 11
4.871791064737486
 21
3.078599709343365
 31
0.0
  0
LINE
  5
BDB5
330
1F
100
AcDbEntity
  8
NETAFIM-L-DETL-PATT-013M
100
AcDbLine
 10
4.871791064737486
 20
2.753655509343365
 30
0.0
 11
4.871791064737486
 21
2.728599709343366
 31
0.0
  0
LINE
  5
BDB6
330
1F
100
AcDbEntity
  8
NETAFIM-L-DETL-PATT-013M
100
AcDbLine
 10
5.221791064737487
 20
3.103655509343366
 30
0.0
 11
5.221791064737487
 21
3.078599709343365
 31
0.0
  0
LINE
  5
BDB7
330
1F
100
AcDbEntity
  8
NETAFIM-L-DETL-PATT-013M
100
AcDbLine
 10
5.221791064737487
 20
2.753655509343365
 30
0.0
 11
5.221791064737487
 21
2.728599709343366
 31
0.0
  0
LINE
  5
BDBA
330
1F
100
AcDbEntity
  8
NETAFIM-L-DETL-PATT-013M
100
AcDbLine
 10
4.521791064737485
 20
3.103655509343366
 30
0.0
 11
4.521791064737485
 21
3.078599709343365
 31
0.0
  0
LINE
  5
BDBB
330
1F
100
AcDbEntity
  8
NETAFIM-L-DETL-PATT-013M
100
AcDbLine
 10
4.521791064737485
 20
2.753655509343365
 30
0.0
 11
4.521791064737485
 21
2.728599709343366
 31
0.0
  0
LINE
  5
BDBC
330
1F
100
AcDbEntity
  8
NETAFIM-L-DETL-PATT-013M
100
AcDbLine
 10
4.171791064737483
 20
3.103655509343366
 30
0.0
 11
4.171791064737483
 21
3.078599709343365
 31
0.0
  0
LINE
  5
BDBD
330
1F
100
AcDbEntity
  8
NETAFIM-L-DETL-PATT-013M
100
AcDbLine
 10
4.171791064737483
 20
2.753655509343365
 30
0.0
 11
4.171791064737483
 21
2.728599709343366
 31
0.0
  0
LINE
  5
BDBE
330
1F
100
AcDbEntity
  8
NETAFIM-L-DETL-PATT-013M
100
AcDbLine
 10
4.887665897745904
 20
3.119530367430383
 30
0.0
 11
4.87178899012607
 21
3.103653459810549
 31
0.0
  0
LINE
  5
BDBF
330
1F
100
AcDbEntity
  8
NETAFIM-L-DETL-PATT-013M
100
AcDbLine
 10
4.539506255394364
 20
2.771370725078843
 30
0.0
 11
4.521789129306313
 21
2.753653598990788
 31
0.0
  0
LINE
  5
BDC0
330
1F
100
AcDbEntity
  8
NETAFIM-L-DETL-PATT-013M
100
AcDbLine
 10
5.236473049173518
 20
3.118337410550867
 30
0.0
 11
5.221788850945827
 21
3.103653212323174
 31
0.0
  0
LINE
  5
BDC1
330
1F
100
AcDbEntity
  8
NETAFIM-L-DETL-PATT-013M
100
AcDbLine
 10
4.889506116214121
 20
2.771370477591468
 30
0.0
 11
4.87178899012607
 21
2.753653351503415
 31
0.0
  0
LINE
  5
BDC3
330
1F
100
AcDbEntity
  8
NETAFIM-L-DETL-PATT-013M
100
AcDbLine
 10
5.239505977033886
 20
2.771370230104097
 30
0.0
 11
5.221788850945827
 21
2.753653104016042
 31
0.0
  0
LINE
  5
BDC5
330
1F
100
AcDbEntity
  8
NETAFIM-L-DETL-PATT-013M
100
AcDbLine
 10
4.539506255394364
 20
3.121370833385976
 30
0.0
 11
4.521789129306313
 21
3.103653707297923
 31
0.0
  0
LINE
  5
BDC6
330
1F
100
AcDbEntity
  8
NETAFIM-L-DETL-PATT-013M
100
AcDbLine
 10
4.189506394574607
 20
2.771370972566217
 30
0.0
 11
4.171789268486548
 21
2.753653846478163
 31
0.0
  0
LINE
  5
BDC7
330
1F
100
AcDbEntity
  8
NETAFIM-L-DETL-PATT-013M
100
AcDbLine
 10
4.189506394574607
 20
3.121371080873349
 30
0.0
 11
4.171789268486548
 21
3.103653954785294
 31
0.0
  0
LINE
  5
BDC8
330
1F
100
AcDbEntity
  8
NETAFIM-L-DETL-PATT-013M
100
AcDbLine
 10
4.68278896473749
 20
2.464609059343364
 30
0.0
 11
4.68278896473749
 21
2.514726959343364
 31
0.0
  0
LINE
  5
BDC9
330
1F
100
AcDbEntity
  8
NETAFIM-L-DETL-PATT-013M
100
AcDbLine
 10
4.68278896473749
 20
2.814609059343365
 30
0.0
 11
4.68278896473749
 21
2.864726959343365
 31
0.0
  0
LINE
  5
BDCA
330
1F
100
AcDbEntity
  8
NETAFIM-L-DETL-PATT-013M
100
AcDbLine
 10
4.332788964737488
 20
2.814609059343365
 30
0.0
 11
4.332788964737488
 21
2.864726959343365
 31
0.0
  0
LINE
  5
BDCC
330
1F
100
AcDbEntity
  8
NETAFIM-L-DETL-PATT-013M
100
AcDbLine
 10
5.032788964737484
 20
2.464609059343364
 30
0.0
 11
5.032788964737484
 21
2.514726959343364
 31
0.0
  0
LINE
  5
BDCD
330
1F
100
AcDbEntity
  8
NETAFIM-L-DETL-PATT-013M
100
AcDbLine
 10
5.032788964737484
 20
2.814609059343365
 30
0.0
 11
5.032788964737484
 21
2.864726959343365
 31
0.0
  0
LINE
  5
BDCE
330
1F
100
AcDbEntity
  8
NETAFIM-L-DETL-PATT-013M
100
AcDbLine
 10
5.382788964737486
 20
2.471247315880932
 30
0.0
 11
5.382788964737486
 21
2.514726959343364
 31
0.0
  0
LINE
  5
BDCF
330
1F
100
AcDbEntity
  8
NETAFIM-L-DETL-PATT-013M
100
AcDbLine
 10
5.382788964737486
 20
2.814609059343365
 30
0.0
 11
5.382788964737486
 21
2.864726959343365
 31
0.0
  0
LINE
  5
BDD0
330
1F
100
AcDbEntity
  8
NETAFIM-L-DETL-PATT-013M
100
AcDbLine
 10
4.647351822730222
 20
2.779171592414699
 30
0.0
 11
4.682790529679046
 21
2.814610299363526
 31
0.0
  0
LINE
  5
BDD1
330
1F
100
AcDbEntity
  8
NETAFIM-L-DETL-PATT-013M
100
AcDbLine
 10
4.99735193103735
 20
3.129171700721831
 30
0.0
 11
5.003896333926228
 21
3.135716103610708
 31
0.0
  0
LINE
  5
BDD2
330
1F
100
AcDbEntity
  8
NETAFIM-L-DETL-PATT-013M
100
AcDbLine
 10
4.297351714423086
 20
2.779171592414699
 30
0.0
 11
4.332790421371917
 21
2.814610299363526
 31
0.0
  0
LINE
  5
BDD3
330
1F
100
AcDbEntity
  8
NETAFIM-L-DETL-PATT-013M
100
AcDbLine
 10
4.297351714423086
 20
3.129171700721831
 30
0.0
 11
4.310572175884949
 21
3.142392162183694
 31
0.0
  0
LINE
  5
BDD4
330
1F
100
AcDbEntity
  8
NETAFIM-L-DETL-PATT-013M
100
AcDbLine
 10
4.668115451952864
 20
2.449935113330213
 30
0.0
 11
4.682790529679046
 21
2.464610191056395
 31
0.0
  0
LINE
  5
BDD5
330
1F
100
AcDbEntity
  8
NETAFIM-L-DETL-PATT-013M
100
AcDbLine
 10
4.99735193103735
 20
2.779171592414699
 30
0.0
 11
5.032790637986181
 21
2.814610299363526
 31
0.0
  0
LINE
  5
BDD6
330
1F
100
AcDbEntity
  8
NETAFIM-L-DETL-PATT-013M
100
AcDbLine
 10
5.014182528364337
 20
2.446002081434548
 30
0.0
 11
5.032790637986181
 21
2.464610191056395
 31
0.0
  0
LINE
  5
BDD7
330
1F
100
AcDbEntity
  8
NETAFIM-L-DETL-PATT-013M
100
AcDbLine
 10
5.347352039344485
 20
2.779171592414699
 30
0.0
 11
5.382790746293316
 21
2.814610299363526
 31
0.0
  0
LINE
  5
BDD9
330
1F
100
AcDbEntity
  8
NETAFIM-L-DETL-PATT-013M
100
AcDbLine
 10
4.247232514737483
 20
2.779170509343365
 30
0.0
 11
4.297350414737486
 21
2.779170509343365
 31
0.0
  0
LINE
  5
BDDA
330
1F
100
AcDbEntity
  8
NETAFIM-L-DETL-PATT-013M
100
AcDbLine
 10
4.597232514737484
 20
2.779170509343365
 30
0.0
 11
4.647350414737488
 21
2.779170509343365
 31
0.0
  0
LINE
  5
BDDB
330
1F
100
AcDbEntity
  8
NETAFIM-L-DETL-PATT-013M
100
AcDbLine
 10
4.947232514737486
 20
2.779170509343365
 30
0.0
 11
4.997350414737489
 21
2.779170509343365
 31
0.0
  0
LINE
  5
BDDC
330
1F
100
AcDbEntity
  8
NETAFIM-L-DETL-PATT-013M
100
AcDbLine
 10
5.297232514737487
 20
2.779170509343365
 30
0.0
 11
5.347350414737483
 21
2.779170509343365
 31
0.0
  0
LINE
  5
BDDE
330
1F
100
AcDbEntity
  8
NETAFIM-L-DETL-PATT-013M
100
AcDbLine
 10
4.247232514737483
 20
3.129170509343365
 30
0.0
 11
4.297350414737486
 21
3.129170509343365
 31
0.0
  0
LINE
  5
BDDF
330
1F
100
AcDbEntity
  8
NETAFIM-L-DETL-PATT-013M
100
AcDbLine
 10
4.956892152696745
 20
3.129170509343365
 30
0.0
 11
4.997350414737489
 21
3.129170509343365
 31
0.0
  0
LINE
  5
BDE0
330
1F
100
AcDbEntity
  8
NETAFIM-L-DETL-PATT-013M
100
AcDbLine
 10
4.229136100482875
 20
3.147269064662038
 30
0.0
 11
4.247233621371911
 21
3.129171543773002
 31
0.0
  0
LINE
  5
BDE1
330
1F
100
AcDbEntity
  8
NETAFIM-L-DETL-PATT-013M
100
AcDbLine
 10
4.561795022730215
 20
2.814610142414697
 30
0.0
 11
4.597233729679047
 21
2.77917143546587
 31
0.0
  0
LINE
  5
BDE2
330
1F
100
AcDbEntity
  8
NETAFIM-L-DETL-PATT-013M
100
AcDbLine
 10
4.911795131037351
 20
2.464610034107566
 30
0.0
 11
4.934060079768961
 21
2.442345085375959
 31
0.0
  0
LINE
  5
BDE3
330
1F
100
AcDbEntity
  8
NETAFIM-L-DETL-PATT-013M
100
AcDbLine
 10
4.911795131037351
 20
2.814610142414697
 30
0.0
 11
4.947233837986182
 21
2.77917143546587
 31
0.0
  0
LINE
  5
BDE4
330
1F
100
AcDbEntity
  8
NETAFIM-L-DETL-PATT-013M
100
AcDbLine
 10
5.261795239344486
 20
2.464610034107566
 30
0.0
 11
5.265162513915463
 21
2.461242759536586
 31
0.0
  0
LINE
  5
BDE5
330
1F
100
AcDbEntity
  8
NETAFIM-L-DETL-PATT-013M
100
AcDbLine
 10
5.261795239344486
 20
2.814610142414697
 30
0.0
 11
5.29723394629331
 21
2.77917143546587
 31
0.0
  0
LINE
  5
BDE7
330
1F
100
AcDbEntity
  8
NETAFIM-L-DETL-PATT-013M
100
AcDbLine
 10
4.21179491442308
 20
2.814610142414697
 30
0.0
 11
4.247233621371911
 21
2.779171435465868
 31
0.0
  0
LINE
  5
BDE8
330
1F
100
AcDbEntity
  8
NETAFIM-L-DETL-PATT-013M
100
AcDbLine
 10
4.561795022730215
 20
2.464610034107566
 30
0.0
 11
4.569155120199035
 21
2.457249936638745
 31
0.0
  0
LINE
  5
BDE9
330
1F
100
AcDbEntity
  8
NETAFIM-L-DETL-PATT-013M
100
AcDbLine
 10
4.561793614737489
 20
2.864726959343365
 30
0.0
 11
4.561793614737489
 21
2.814609059343365
 31
0.0
  0
LINE
  5
BDEA
330
1F
100
AcDbEntity
  8
NETAFIM-L-DETL-PATT-013M
100
AcDbLine
 10
4.561793614737489
 20
2.514726959343364
 30
0.0
 11
4.561793614737489
 21
2.464609059343364
 31
0.0
  0
LINE
  5
BDEB
330
1F
100
AcDbEntity
  8
NETAFIM-L-DETL-PATT-013M
100
AcDbLine
 10
4.911793614737483
 20
2.864726959343365
 30
0.0
 11
4.911793614737483
 21
2.814609059343365
 31
0.0
  0
LINE
  5
BDEC
330
1F
100
AcDbEntity
  8
NETAFIM-L-DETL-PATT-013M
100
AcDbLine
 10
4.911793614737483
 20
2.514726959343364
 30
0.0
 11
4.911793614737483
 21
2.464609059343364
 31
0.0
  0
LINE
  5
BDED
330
1F
100
AcDbEntity
  8
NETAFIM-L-DETL-PATT-013M
100
AcDbLine
 10
5.261793614737484
 20
2.864726959343365
 30
0.0
 11
5.261793614737484
 21
2.814609059343365
 31
0.0
  0
LINE
  5
BDEE
330
1F
100
AcDbEntity
  8
NETAFIM-L-DETL-PATT-013M
100
AcDbLine
 10
5.261793614737484
 20
2.514726959343364
 30
0.0
 11
5.261793614737484
 21
2.464609059343364
 31
0.0
  0
LINE
  5
BDF0
330
1F
100
AcDbEntity
  8
NETAFIM-L-DETL-PATT-013M
100
AcDbLine
 10
5.611793614737486
 20
2.514726959343364
 30
0.0
 11
5.611793614737486
 21
2.512853359775871
 31
0.0
  0
LINE
  5
BDF1
330
1F
100
AcDbEntity
  8
NETAFIM-L-DETL-PATT-013M
100
AcDbLine
 10
4.211793614737487
 20
2.864726959343365
 30
0.0
 11
4.211793614737487
 21
2.814609059343365
 31
0.0
  0
LINE
  5
BDF2
330
1F
100
AcDbEntity
  8
NETAFIM-L-DETL-PATT-013M
100
AcDbLine
 10
4.947234031037353
 20
2.900166942414698
 30
0.0
 11
4.911795324088522
 21
2.864728235465869
 31
0.0
  0
LINE
  5
BDF3
330
1F
100
AcDbEntity
  8
NETAFIM-L-DETL-PATT-013M
100
AcDbLine
 10
4.597233922730218
 20
2.550166834107565
 30
0.0
 11
4.561795215781387
 21
2.514728127158735
 31
0.0
  0
LINE
  5
BDF4
330
1F
100
AcDbEntity
  8
NETAFIM-L-DETL-PATT-013M
100
AcDbLine
 10
5.297234139344489
 20
2.900166942414698
 30
0.0
 11
5.261795432395658
 21
2.864728235465869
 31
0.0
  0
LINE
  5
BDF5
330
1F
100
AcDbEntity
  8
NETAFIM-L-DETL-PATT-013M
100
AcDbLine
 10
4.947234031037353
 20
2.550166834107565
 30
0.0
 11
4.911795324088522
 21
2.514728127158735
 31
0.0
  0
LINE
  5
BDF7
330
1F
100
AcDbEntity
  8
NETAFIM-L-DETL-PATT-013M
100
AcDbLine
 10
5.297234139344489
 20
2.550166834107565
 30
0.0
 11
5.261795432395658
 21
2.514728127158737
 31
0.0
  0
LINE
  5
BDF8
330
1F
100
AcDbEntity
  8
NETAFIM-L-DETL-PATT-013M
100
AcDbLine
 10
5.647234247651617
 20
2.550166834107565
 30
0.0
 11
5.611795540702786
 21
2.514728127158735
 31
0.0
  0
LINE
  5
BDF9
330
1F
100
AcDbEntity
  8
NETAFIM-L-DETL-PATT-013M
100
AcDbLine
 10
4.597233922730218
 20
2.900166942414696
 30
0.0
 11
4.561795215781387
 21
2.864728235465869
 31
0.0
  0
LINE
  5
BDFA
330
1F
100
AcDbEntity
  8
NETAFIM-L-DETL-PATT-013M
100
AcDbLine
 10
4.247233814423083
 20
2.900166942414698
 30
0.0
 11
4.211795107474259
 21
2.864728235465869
 31
0.0
  0
LINE
  5
BDFB
330
1F
100
AcDbEntity
  8
NETAFIM-L-DETL-PATT-013M
100
AcDbLine
 10
5.697350414737485
 20
2.550165859343365
 30
0.0
 11
5.647232514737488
 21
2.550165859343365
 31
0.0
  0
LINE
  5
BDFC
330
1F
100
AcDbEntity
  8
NETAFIM-L-DETL-PATT-013M
100
AcDbLine
 10
5.347350414737483
 20
2.550165859343365
 30
0.0
 11
5.297232514737487
 21
2.550165859343365
 31
0.0
  0
LINE
  5
BDFD
330
1F
100
AcDbEntity
  8
NETAFIM-L-DETL-PATT-013M
100
AcDbLine
 10
4.997350414737489
 20
2.550165859343365
 30
0.0
 11
4.947232514737486
 21
2.550165859343365
 31
0.0
  0
LINE
  5
BDFE
330
1F
100
AcDbEntity
  8
NETAFIM-L-DETL-PATT-013M
100
AcDbLine
 10
4.647350414737488
 20
2.550165859343365
 30
0.0
 11
4.597232514737484
 21
2.550165859343365
 31
0.0
  0
LINE
  5
BE00
330
1F
100
AcDbEntity
  8
NETAFIM-L-DETL-PATT-013M
100
AcDbLine
 10
5.347350414737483
 20
2.900165859343364
 30
0.0
 11
5.297232514737487
 21
2.900165859343364
 31
0.0
  0
LINE
  5
BE01
330
1F
100
AcDbEntity
  8
NETAFIM-L-DETL-PATT-013M
100
AcDbLine
 10
4.997350414737489
 20
2.900165859343364
 30
0.0
 11
4.947232514737486
 21
2.900165859343364
 31
0.0
  0
LINE
  5
BE02
330
1F
100
AcDbEntity
  8
NETAFIM-L-DETL-PATT-013M
100
AcDbLine
 10
4.647350414737488
 20
2.900165859343364
 30
0.0
 11
4.597232514737484
 21
2.900165859343364
 31
0.0
  0
LINE
  5
BE03
330
1F
100
AcDbEntity
  8
NETAFIM-L-DETL-PATT-013M
100
AcDbLine
 10
4.297350414737486
 20
2.900165859343364
 30
0.0
 11
4.24723251473749
 21
2.900165859343364
 31
0.0
  0
LINE
  5
BE04
330
1F
100
AcDbEntity
  8
NETAFIM-L-DETL-PATT-013M
100
AcDbLine
 10
5.032790481037352
 20
2.514727934107566
 30
0.0
 11
4.997351774088521
 21
2.550166641056393
 31
0.0
  0
LINE
  5
BE05
330
1F
100
AcDbEntity
  8
NETAFIM-L-DETL-PATT-013M
100
AcDbLine
 10
4.682790372730217
 20
2.864728042414697
 30
0.0
 11
4.647351665781386
 21
2.900166749363529
 31
0.0
  0
LINE
  5
BE06
330
1F
100
AcDbEntity
  8
NETAFIM-L-DETL-PATT-013M
100
AcDbLine
 10
4.682790372730217
 20
2.514727934107566
 30
0.0
 11
4.647351665781386
 21
2.550166641056393
 31
0.0
  0
LINE
  5
BE07
330
1F
100
AcDbEntity
  8
NETAFIM-L-DETL-PATT-013M
100
AcDbLine
 10
4.332790264423081
 20
2.864728042414697
 30
0.0
 11
4.297351557474257
 21
2.900166749363527
 31
0.0
  0
LINE
  5
BE09
330
1F
100
AcDbEntity
  8
NETAFIM-L-DETL-PATT-013M
100
AcDbLine
 10
5.382790589344487
 20
2.514727934107566
 30
0.0
 11
5.347351882395656
 21
2.550166641056393
 31
0.0
  0
LINE
  5
BE0A
330
1F
100
AcDbEntity
  8
NETAFIM-L-DETL-PATT-013M
100
AcDbLine
 10
5.032790481037352
 20
2.864728042414697
 30
0.0
 11
4.997351774088521
 21
2.900166749363529
 31
0.0
  0
LINE
  5
BE0B
330
1F
100
AcDbEntity
  8
NETAFIM-L-DETL-PATT-013M
100
AcDbLine
 10
5.711928942956085
 20
2.535589688803095
 30
0.0
 11
5.697351990702784
 21
2.550166641056393
 31
0.0
  0
LINE
  5
BE0C
330
1F
100
AcDbEntity
  8
NETAFIM-L-DETL-PATT-013M
100
AcDbLine
 10
5.38279058934448
 20
2.864728042414697
 30
0.0
 11
5.347351882395656
 21
2.900166749363527
 31
0.0
  0
LINE
  5
BE0E
330
1F
100
AcDbEntity
  8
NETAFIM-L-DETL-PATT-013M
100
AcDbLine
 10
4.818908864737487
 20
2.579369159343365
 30
0.0
 11
4.818908864737487
 21
2.643229109343365
 31
0.0
  0
LINE
  5
BE0F
330
1F
100
AcDbEntity
  8
NETAFIM-L-DETL-PATT-013M
100
AcDbLine
 10
4.818908864737487
 20
2.929369159343365
 30
0.0
 11
4.818908864737487
 21
2.993229109343364
 31
0.0
  0
LINE
  5
BE10
330
1F
100
AcDbEntity
  8
NETAFIM-L-DETL-PATT-013M
100
AcDbLine
 10
4.468908864737485
 20
2.579369159343365
 30
0.0
 11
4.468908864737485
 21
2.643229109343365
 31
0.0
  0
LINE
  5
BE11
330
1F
100
AcDbEntity
  8
NETAFIM-L-DETL-PATT-013M
100
AcDbLine
 10
4.468908864737485
 20
2.929369159343365
 30
0.0
 11
4.468908864737485
 21
2.993229109343364
 31
0.0
  0
LINE
  5
BE12
330
1F
100
AcDbEntity
  8
NETAFIM-L-DETL-PATT-013M
100
AcDbLine
 10
4.118908864737484
 20
2.621961001735203
 30
0.0
 11
4.118908864737484
 21
2.643229109343365
 31
0.0
  0
LINE
  5
BE13
330
1F
100
AcDbEntity
  8
NETAFIM-L-DETL-PATT-013M
100
AcDbLine
 10
4.118908864737484
 20
2.929369159343365
 30
0.0
 11
4.118908864737484
 21
2.993229109343364
 31
0.0
  0
LINE
  5
BE14
330
1F
100
AcDbEntity
  8
NETAFIM-L-DETL-PATT-013M
100
AcDbLine
 10
5.168908864737488
 20
2.579369159343365
 30
0.0
 11
5.168908864737488
 21
2.643229109343365
 31
0.0
  0
LINE
  5
BE15
330
1F
100
AcDbEntity
  8
NETAFIM-L-DETL-PATT-013M
100
AcDbLine
 10
5.168908864737488
 20
2.929369159343365
 30
0.0
 11
5.168908864737488
 21
2.993229109343364
 31
0.0
  0
LINE
  5
BE16
330
1F
100
AcDbEntity
  8
NETAFIM-L-DETL-PATT-013M
100
AcDbLine
 10
5.51890886473749
 20
2.579369159343365
 30
0.0
 11
5.51890886473749
 21
2.643229109343365
 31
0.0
  0
LINE
  5
BE17
330
1F
100
AcDbEntity
  8
NETAFIM-L-DETL-PATT-013M
100
AcDbLine
 10
5.51890886473749
 20
2.929369159343365
 30
0.0
 11
5.51890886473749
 21
2.993229109343364
 31
0.0
  0
LINE
  5
BE18
330
1F
100
AcDbEntity
  8
NETAFIM-L-DETL-PATT-013M
100
AcDbLine
 10
4.437103317626579
 20
2.547563287311059
 30
0.0
 11
4.468910018114321
 21
2.579369987798799
 31
0.0
  0
LINE
  5
BE19
330
1F
100
AcDbEntity
  8
NETAFIM-L-DETL-PATT-013M
100
AcDbLine
 10
4.773754322730219
 20
2.884214292414697
 30
0.0
 11
4.81891012642145
 21
2.929370096105931
 31
0.0
  0
LINE
  5
BE1A
330
1F
100
AcDbEntity
  8
NETAFIM-L-DETL-PATT-013M
100
AcDbLine
 10
4.423754214423084
 20
2.884214292414697
 30
0.0
 11
4.468910018114321
 21
2.929370096105931
 31
0.0
  0
LINE
  5
BE1B
330
1F
100
AcDbEntity
  8
NETAFIM-L-DETL-PATT-013M
100
AcDbLine
 10
4.073754106115949
 20
2.884214292414697
 30
0.0
 11
4.118909909807186
 21
2.929370096105931
 31
0.0
  0
LINE
  5
BE1C
330
1F
100
AcDbEntity
  8
NETAFIM-L-DETL-PATT-013M
100
AcDbLine
 10
4.773754322730219
 20
2.534214184107566
 30
0.0
 11
4.81891012642145
 21
2.579369987798799
 31
0.0
  0
LINE
  5
BE1D
330
1F
100
AcDbEntity
  8
NETAFIM-L-DETL-PATT-013M
100
AcDbLine
 10
5.123754431037355
 20
2.884214292414697
 30
0.0
 11
5.168910234728585
 21
2.929370096105931
 31
0.0
  0
LINE
  5
BE1E
330
1F
100
AcDbEntity
  8
NETAFIM-L-DETL-PATT-013M
100
AcDbLine
 10
5.123754431037355
 20
2.534214184107566
 30
0.0
 11
5.168910234728585
 21
2.579369987798799
 31
0.0
  0
LINE
  5
BE1F
330
1F
100
AcDbEntity
  8
NETAFIM-L-DETL-PATT-013M
100
AcDbLine
 10
5.47375453934449
 20
2.884214292414697
 30
0.0
 11
5.51891034303572
 21
2.929370096105931
 31
0.0
  0
LINE
  5
BE20
330
1F
100
AcDbEntity
  8
NETAFIM-L-DETL-PATT-013M
100
AcDbLine
 10
5.473754539344483
 20
2.534214184107566
 30
0.0
 11
5.51891034303572
 21
2.579369987798799
 31
0.0
  0
LINE
  5
BE21
330
1F
100
AcDbEntity
  8
NETAFIM-L-DETL-PATT-013M
100
AcDbLine
 10
4.709892964737484
 20
2.534213209343364
 30
0.0
 11
4.773752914737485
 21
2.534213209343364
 31
0.0
  0
LINE
  5
BE22
330
1F
100
AcDbEntity
  8
NETAFIM-L-DETL-PATT-013M
100
AcDbLine
 10
5.059892964737485
 20
2.534213209343364
 30
0.0
 11
5.123752914737487
 21
2.534213209343364
 31
0.0
  0
LINE
  5
BE23
330
1F
100
AcDbEntity
  8
NETAFIM-L-DETL-PATT-013M
100
AcDbLine
 10
5.409892964737487
 20
2.534213209343364
 30
0.0
 11
5.473752914737488
 21
2.534213209343364
 31
0.0
  0
LINE
  5
BE24
330
1F
100
AcDbEntity
  8
NETAFIM-L-DETL-PATT-013M
100
AcDbLine
 10
4.06655366473749
 20
2.884213209343365
 30
0.0
 11
4.07375291473749
 21
2.884213209343365
 31
0.0
  0
LINE
  5
BE25
330
1F
100
AcDbEntity
  8
NETAFIM-L-DETL-PATT-013M
100
AcDbLine
 10
4.35989296473749
 20
2.884213209343365
 30
0.0
 11
4.423752914737484
 21
2.884213209343365
 31
0.0
  0
LINE
  5
BE26
330
1F
100
AcDbEntity
  8
NETAFIM-L-DETL-PATT-013M
100
AcDbLine
 10
4.709892964737484
 20
2.884213209343365
 30
0.0
 11
4.773752914737485
 21
2.884213209343365
 31
0.0
  0
LINE
  5
BE27
330
1F
100
AcDbEntity
  8
NETAFIM-L-DETL-PATT-013M
100
AcDbLine
 10
5.059892964737485
 20
2.884213209343365
 30
0.0
 11
5.123752914737487
 21
2.884213209343365
 31
0.0
  0
LINE
  5
BE28
330
1F
100
AcDbEntity
  8
NETAFIM-L-DETL-PATT-013M
100
AcDbLine
 10
5.409892964737487
 20
2.884213209343365
 30
0.0
 11
5.473752914737488
 21
2.884213209343365
 31
0.0
  0
LINE
  5
BE29
330
1F
100
AcDbEntity
  8
NETAFIM-L-DETL-PATT-013M
100
AcDbLine
 10
4.664738772730217
 20
2.929370242414699
 30
0.0
 11
4.709894576421454
 21
2.884214438723465
 31
0.0
  0
LINE
  5
BE2A
330
1F
100
AcDbEntity
  8
NETAFIM-L-DETL-PATT-013M
100
AcDbLine
 10
5.014738881037352
 20
2.579370134107565
 30
0.0
 11
5.059894684728583
 21
2.534214330416332
 31
0.0
  0
LINE
  5
BE2B
330
1F
100
AcDbEntity
  8
NETAFIM-L-DETL-PATT-013M
100
AcDbLine
 10
5.014738881037352
 20
2.929370242414699
 30
0.0
 11
5.059894684728583
 21
2.884214438723465
 31
0.0
  0
LINE
  5
BE2C
330
1F
100
AcDbEntity
  8
NETAFIM-L-DETL-PATT-013M
100
AcDbLine
 10
5.364738989344481
 20
2.579370134107564
 30
0.0
 11
5.409894793035718
 21
2.53421433041633
 31
0.0
  0
LINE
  5
BE2D
330
1F
100
AcDbEntity
  8
NETAFIM-L-DETL-PATT-013M
100
AcDbLine
 10
5.364738989344481
 20
2.929370242414699
 30
0.0
 11
5.409894793035718
 21
2.884214438723465
 31
0.0
  0
LINE
  5
BE2E
330
1F
100
AcDbEntity
  8
NETAFIM-L-DETL-PATT-013M
100
AcDbLine
 10
5.714739097651616
 20
2.579370134107564
 30
0.0
 11
5.74989835858436
 21
2.544210873174823
 31
0.0
  0
LINE
  5
BE30
330
1F
100
AcDbEntity
  8
NETAFIM-L-DETL-PATT-013M
100
AcDbLine
 10
4.314738664423082
 20
2.929370242414697
 30
0.0
 11
4.359894468114319
 21
2.884214438723463
 31
0.0
  0
LINE
  5
BE31
102
{ACAD_REACTORS
330
C082
102
}
330
1F
100
AcDbEntity
  8
NETAFIM-L-DETL-PATT-013M
100
AcDbLine
 10
4.664738772730217
 20
2.579370134107564
 30
0.0
 11
4.709894576421454
 21
2.53421433041633
 31
0.0
  0
LINE
  5
BE33
330
1F
100
AcDbEntity
  8
NETAFIM-L-DETL-PATT-013M
100
AcDbLine
 10
4.664737364737483
 20
2.993228759343364
 30
0.0
 11
4.664737364737483
 21
2.929368809343364
 31
0.0
  0
LINE
  5
BE34
330
1F
100
AcDbEntity
  8
NETAFIM-L-DETL-PATT-013M
100
AcDbLine
 10
4.664737364737483
 20
2.643228759343366
 30
0.0
 11
4.664737364737483
 21
2.579368809343365
 31
0.0
  0
LINE
  5
BE35
330
1F
100
AcDbEntity
  8
NETAFIM-L-DETL-PATT-013M
100
AcDbLine
 10
5.014737364737484
 20
2.993228759343364
 30
0.0
 11
5.014737364737484
 21
2.929368809343364
 31
0.0
  0
LINE
  5
BE36
330
1F
100
AcDbEntity
  8
NETAFIM-L-DETL-PATT-013M
100
AcDbLine
 10
5.014737364737484
 20
2.643228759343366
 30
0.0
 11
5.014737364737484
 21
2.579368809343365
 31
0.0
  0
LINE
  5
BE37
330
1F
100
AcDbEntity
  8
NETAFIM-L-DETL-PATT-013M
100
AcDbLine
 10
5.364737364737486
 20
2.993228759343364
 30
0.0
 11
5.364737364737486
 21
2.929368809343364
 31
0.0
  0
LINE
  5
BE38
330
1F
100
AcDbEntity
  8
NETAFIM-L-DETL-PATT-013M
100
AcDbLine
 10
5.364737364737486
 20
2.643228759343366
 30
0.0
 11
5.364737364737486
 21
2.579368809343365
 31
0.0
  0
LINE
  5
BE39
330
1F
100
AcDbEntity
  8
NETAFIM-L-DETL-PATT-013M
100
AcDbLine
 10
5.714737364737487
 20
2.643228759343366
 30
0.0
 11
5.714737364737487
 21
2.579368809343365
 31
0.0
  0
LINE
  5
BE3B
330
1F
100
AcDbEntity
  8
NETAFIM-L-DETL-PATT-013M
100
AcDbLine
 10
4.314737364737489
 20
2.993228759343364
 30
0.0
 11
4.314737364737489
 21
2.929368809343364
 31
0.0
  0
LINE
  5
BE3C
330
1F
100
AcDbEntity
  8
NETAFIM-L-DETL-PATT-013M
100
AcDbLine
 10
4.314737364737489
 20
2.643228759343366
 30
0.0
 11
4.314737364737489
 21
2.590116626759424
 31
0.0
  0
LINE
  5
BE3D
330
1F
100
AcDbEntity
  8
NETAFIM-L-DETL-PATT-013M
100
AcDbLine
 10
5.059894481037353
 20
3.038385792414698
 30
0.0
 11
5.014738677346116
 21
2.993229988723464
 31
0.0
  0
LINE
  5
BE3E
330
1F
100
AcDbEntity
  8
NETAFIM-L-DETL-PATT-013M
100
AcDbLine
 10
4.709894372730218
 20
2.688385684107566
 30
0.0
 11
4.664738569038988
 21
2.643229880416332
 31
0.0
  0
LINE
  5
BE3F
330
1F
100
AcDbEntity
  8
NETAFIM-L-DETL-PATT-013M
100
AcDbLine
 10
5.409894589344489
 20
3.038385792414698
 30
0.0
 11
5.364738785653251
 21
2.993229988723464
 31
0.0
  0
LINE
  5
BE40
330
1F
100
AcDbEntity
  8
NETAFIM-L-DETL-PATT-013M
100
AcDbLine
 10
5.059894481037353
 20
2.688385684107566
 30
0.0
 11
5.014738677346116
 21
2.643229880416332
 31
0.0
  0
LINE
  5
BE42
330
1F
100
AcDbEntity
  8
NETAFIM-L-DETL-PATT-013M
100
AcDbLine
 10
5.409894589344482
 20
2.688385684107566
 30
0.0
 11
5.364738785653251
 21
2.643229880416332
 31
0.0
  0
LINE
  5
BE43
330
1F
100
AcDbEntity
  8
NETAFIM-L-DETL-PATT-013M
100
AcDbLine
 10
5.753248756577669
 20
2.681739743033614
 30
0.0
 11
5.714738893960387
 21
2.643229880416332
 31
0.0
  0
LINE
  5
BE44
330
1F
100
AcDbEntity
  8
NETAFIM-L-DETL-PATT-013M
100
AcDbLine
 10
4.709894372730218
 20
3.038385792414698
 30
0.0
 11
4.664738569038988
 21
2.993229988723464
 31
0.0
  0
LINE
  5
BE45
330
1F
100
AcDbEntity
  8
NETAFIM-L-DETL-PATT-013M
100
AcDbLine
 10
4.359894264423083
 20
2.688385684107566
 30
0.0
 11
4.314738460731852
 21
2.643229880416332
 31
0.0
  0
LINE
  5
BE46
330
1F
100
AcDbEntity
  8
NETAFIM-L-DETL-PATT-013M
100
AcDbLine
 10
4.359894264423083
 20
3.038385792414698
 30
0.0
 11
4.314738460731852
 21
2.993229988723464
 31
0.0
  0
LINE
  5
BE49
330
1F
100
AcDbEntity
  8
NETAFIM-L-DETL-PATT-013M
100
AcDbLine
 10
5.473752914737488
 20
2.688384709343364
 30
0.0
 11
5.409892964737487
 21
2.688384709343364
 31
0.0
  0
LINE
  5
BE4A
330
1F
100
AcDbEntity
  8
NETAFIM-L-DETL-PATT-013M
100
AcDbLine
 10
5.123752914737487
 20
2.688384709343364
 30
0.0
 11
5.059892964737485
 21
2.688384709343364
 31
0.0
  0
LINE
  5
BE4B
330
1F
100
AcDbEntity
  8
NETAFIM-L-DETL-PATT-013M
100
AcDbLine
 10
4.773752914737485
 20
2.688384709343364
 30
0.0
 11
4.709892964737484
 21
2.688384709343364
 31
0.0
  0
LINE
  5
BE4C
330
1F
100
AcDbEntity
  8
NETAFIM-L-DETL-PATT-013M
100
AcDbLine
 10
4.423752914737484
 20
2.688384709343364
 30
0.0
 11
4.359892964737483
 21
2.688384709343364
 31
0.0
  0
LINE
  5
BE4D
330
1F
100
AcDbEntity
  8
NETAFIM-L-DETL-PATT-013M
100
AcDbLine
 10
4.073752914737482
 20
2.688384709343364
 30
0.0
 11
4.009892964737481
 21
2.688384709343364
 31
0.0
  0
LINE
  5
BE4E
330
1F
100
AcDbEntity
  8
NETAFIM-L-DETL-PATT-013M
100
AcDbLine
 10
5.473752914737488
 20
3.038384709343366
 30
0.0
 11
5.409892964737487
 21
3.038384709343366
 31
0.0
  0
LINE
  5
BE4F
330
1F
100
AcDbEntity
  8
NETAFIM-L-DETL-PATT-013M
100
AcDbLine
 10
5.123752914737487
 20
3.038384709343366
 30
0.0
 11
5.059892964737485
 21
3.038384709343366
 31
0.0
  0
LINE
  5
BE50
330
1F
100
AcDbEntity
  8
NETAFIM-L-DETL-PATT-013M
100
AcDbLine
 10
4.773752914737485
 20
3.038384709343366
 30
0.0
 11
4.709892964737484
 21
3.038384709343366
 31
0.0
  0
LINE
  5
BE51
330
1F
100
AcDbEntity
  8
NETAFIM-L-DETL-PATT-013M
100
AcDbLine
 10
4.423752914737484
 20
3.038384709343366
 30
0.0
 11
4.359892964737483
 21
3.038384709343366
 31
0.0
  0
LINE
  5
BE52
330
1F
100
AcDbEntity
  8
NETAFIM-L-DETL-PATT-013M
100
AcDbLine
 10
4.073752914737482
 20
3.038384709343366
 30
0.0
 11
4.06655366473749
 21
3.038384709343366
 31
0.0
  0
LINE
  5
BE53
330
1F
100
AcDbEntity
  8
NETAFIM-L-DETL-PATT-013M
100
AcDbLine
 10
4.818910272730214
 20
2.643229734107564
 30
0.0
 11
4.773754469038983
 21
2.688385537798798
 31
0.0
  0
LINE
  5
BE54
330
1F
100
AcDbEntity
  8
NETAFIM-L-DETL-PATT-013M
100
AcDbLine
 10
4.468910164423085
 20
2.993229842414698
 30
0.0
 11
4.423754360731848
 21
3.038385646105932
 31
0.0
  0
LINE
  5
BE55
330
1F
100
AcDbEntity
  8
NETAFIM-L-DETL-PATT-013M
100
AcDbLine
 10
4.468910164423085
 20
2.643229734107564
 30
0.0
 11
4.423754360731848
 21
2.688385537798798
 31
0.0
  0
LINE
  5
BE56
330
1F
100
AcDbEntity
  8
NETAFIM-L-DETL-PATT-013M
100
AcDbLine
 10
4.11891005611595
 20
2.993229842414698
 30
0.0
 11
4.073754252424713
 21
3.038385646105932
 31
0.0
  0
LINE
  5
BE57
330
1F
100
AcDbEntity
  8
NETAFIM-L-DETL-PATT-013M
100
AcDbLine
 10
4.11891005611595
 20
2.643229734107564
 30
0.0
 11
4.073754252424713
 21
2.688385537798798
 31
0.0
  0
LINE
  5
BE58
330
1F
100
AcDbEntity
  8
NETAFIM-L-DETL-PATT-013M
100
AcDbLine
 10
5.168910381037349
 20
2.643229734107564
 30
0.0
 11
5.123754577346119
 21
2.688385537798798
 31
0.0
  0
LINE
  5
BE59
330
1F
100
AcDbEntity
  8
NETAFIM-L-DETL-PATT-013M
100
AcDbLine
 10
4.818910272730214
 20
2.993229842414698
 30
0.0
 11
4.773754469038983
 21
3.038385646105932
 31
0.0
  0
LINE
  5
BE5A
330
1F
100
AcDbEntity
  8
NETAFIM-L-DETL-PATT-013M
100
AcDbLine
 10
5.518910489344484
 20
2.643229734107564
 30
0.0
 11
5.473754685653247
 21
2.688385537798798
 31
0.0
  0
LINE
  5
BE5B
330
1F
100
AcDbEntity
  8
NETAFIM-L-DETL-PATT-013M
100
AcDbLine
 10
5.168910381037349
 20
2.993229842414696
 30
0.0
 11
5.123754577346119
 21
3.03838564610593
 31
0.0
  0
LINE
  5
BE5C
330
1F
100
AcDbEntity
  8
NETAFIM-L-DETL-PATT-013M
100
AcDbLine
 10
5.518910489344484
 20
2.993229842414698
 30
0.0
 11
5.473754685653247
 21
3.038385646105932
 31
0.0
  0
LINE
  5
BE5D
330
1F
100
AcDbEntity
  8
NETAFIM-L-DETL-PATT-013M
100
AcDbLine
 10
4.606191114737484
 20
2.598792759343365
 30
0.0
 11
4.606191114737484
 21
2.631935309343366
 31
0.0
  0
LINE
  5
BE5E
330
1F
100
AcDbEntity
  8
NETAFIM-L-DETL-PATT-013M
100
AcDbLine
 10
4.606191114737484
 20
2.948792759343365
 30
0.0
 11
4.606191114737484
 21
2.981935309343364
 31
0.0
  0
LINE
  5
BE5F
330
1F
100
AcDbEntity
  8
NETAFIM-L-DETL-PATT-013M
100
AcDbLine
 10
4.256191114737482
 20
2.606989515575972
 30
0.0
 11
4.256191114737482
 21
2.631935309343366
 31
0.0
  0
LINE
  5
BE60
330
1F
100
AcDbEntity
  8
NETAFIM-L-DETL-PATT-013M
100
AcDbLine
 10
4.256191114737482
 20
2.948792759343365
 30
0.0
 11
4.256191114737482
 21
2.981935309343364
 31
0.0
  0
LINE
  5
BE61
330
1F
100
AcDbEntity
  8
NETAFIM-L-DETL-PATT-013M
100
AcDbLine
 10
4.956191114737485
 20
2.598792759343365
 30
0.0
 11
4.956191114737485
 21
2.631935309343366
 31
0.0
  0
LINE
  5
BE62
330
1F
100
AcDbEntity
  8
NETAFIM-L-DETL-PATT-013M
100
AcDbLine
 10
4.956191114737485
 20
2.948792759343365
 30
0.0
 11
4.956191114737485
 21
2.981935309343364
 31
0.0
  0
LINE
  5
BE63
330
1F
100
AcDbEntity
  8
NETAFIM-L-DETL-PATT-013M
100
AcDbLine
 10
5.306191114737487
 20
2.598792759343365
 30
0.0
 11
5.306191114737487
 21
2.631935309343366
 31
0.0
  0
LINE
  5
BE64
330
1F
100
AcDbEntity
  8
NETAFIM-L-DETL-PATT-013M
100
AcDbLine
 10
5.306191114737487
 20
2.948792759343365
 30
0.0
 11
5.306191114737487
 21
2.981935309343364
 31
0.0
  0
LINE
  5
BE65
330
1F
100
AcDbEntity
  8
NETAFIM-L-DETL-PATT-013M
100
AcDbLine
 10
5.656191114737488
 20
2.598792759343365
 30
0.0
 11
5.656191114737488
 21
2.631935309343366
 31
0.0
  0
LINE
  5
BE67
330
1F
100
AcDbEntity
  8
NETAFIM-L-DETL-PATT-013M
100
AcDbLine
 10
4.582757222730215
 20
2.575358784107565
 30
0.0
 11
4.606192544581034
 21
2.598794105958378
 31
0.0
  0
LINE
  5
BE68
330
1F
100
AcDbEntity
  8
NETAFIM-L-DETL-PATT-013M
100
AcDbLine
 10
4.93275733103735
 20
2.925358892414696
 30
0.0
 11
4.956192652888169
 21
2.948794214265512
 31
0.0
  0
LINE
  5
BE69
330
1F
100
AcDbEntity
  8
NETAFIM-L-DETL-PATT-013M
100
AcDbLine
 10
4.582757222730215
 20
2.925358892414696
 30
0.0
 11
4.606192544581034
 21
2.948794214265512
 31
0.0
  0
LINE
  5
BE6A
330
1F
100
AcDbEntity
  8
NETAFIM-L-DETL-PATT-013M
100
AcDbLine
 10
4.232757114423087
 20
2.925358892414696
 30
0.0
 11
4.256192436273899
 21
2.948794214265512
 31
0.0
  0
LINE
  5
BE6B
330
1F
100
AcDbEntity
  8
NETAFIM-L-DETL-PATT-013M
100
AcDbLine
 10
4.93275733103735
 20
2.575358784107565
 30
0.0
 11
4.956192652888169
 21
2.59879410595838
 31
0.0
  0
LINE
  5
BE6C
330
1F
100
AcDbEntity
  8
NETAFIM-L-DETL-PATT-013M
100
AcDbLine
 10
5.282757439344486
 20
2.925358892414698
 30
0.0
 11
5.306192761195298
 21
2.948794214265512
 31
0.0
  0
LINE
  5
BE6D
330
1F
100
AcDbEntity
  8
NETAFIM-L-DETL-PATT-013M
100
AcDbLine
 10
5.282757439344486
 20
2.575358784107565
 30
0.0
 11
5.306192761195298
 21
2.598794105958378
 31
0.0
  0
LINE
  5
BE6F
330
1F
100
AcDbEntity
  8
NETAFIM-L-DETL-PATT-013M
100
AcDbLine
 10
5.632757547651621
 20
2.575358784107565
 30
0.0
 11
5.656192869502433
 21
2.598794105958378
 31
0.0
  0
LINE
  5
BE70
330
1F
100
AcDbEntity
  8
NETAFIM-L-DETL-PATT-013M
100
AcDbLine
 10
4.549613614737488
 20
2.575357809343365
 30
0.0
 11
4.582756164737489
 21
2.575357809343365
 31
0.0
  0
LINE
  5
BE71
330
1F
100
AcDbEntity
  8
NETAFIM-L-DETL-PATT-013M
100
AcDbLine
 10
4.899613614737482
 20
2.575357809343365
 30
0.0
 11
4.932756164737483
 21
2.575357809343365
 31
0.0
  0
LINE
  5
BE72
330
1F
100
AcDbEntity
  8
NETAFIM-L-DETL-PATT-013M
100
AcDbLine
 10
5.249613614737484
 20
2.575357809343365
 30
0.0
 11
5.282756164737484
 21
2.575357809343365
 31
0.0
  0
LINE
  5
BE73
330
1F
100
AcDbEntity
  8
NETAFIM-L-DETL-PATT-013M
100
AcDbLine
 10
5.599613614737485
 20
2.575357809343365
 30
0.0
 11
5.632756164737486
 21
2.575357809343365
 31
0.0
  0
LINE
  5
BE74
330
1F
100
AcDbEntity
  8
NETAFIM-L-DETL-PATT-013M
100
AcDbLine
 10
4.199613614737486
 20
2.925357809343364
 30
0.0
 11
4.232756164737487
 21
2.925357809343364
 31
0.0
  0
LINE
  5
BE75
330
1F
100
AcDbEntity
  8
NETAFIM-L-DETL-PATT-013M
100
AcDbLine
 10
4.549613614737488
 20
2.925357809343364
 30
0.0
 11
4.582756164737489
 21
2.925357809343364
 31
0.0
  0
LINE
  5
BE76
330
1F
100
AcDbEntity
  8
NETAFIM-L-DETL-PATT-013M
100
AcDbLine
 10
4.899613614737482
 20
2.925357809343364
 30
0.0
 11
4.932756164737483
 21
2.925357809343364
 31
0.0
  0
LINE
  5
BE77
330
1F
100
AcDbEntity
  8
NETAFIM-L-DETL-PATT-013M
100
AcDbLine
 10
5.249613614737484
 20
2.925357809343364
 30
0.0
 11
5.282756164737484
 21
2.925357809343364
 31
0.0
  0
LINE
  5
BE79
330
1F
100
AcDbEntity
  8
NETAFIM-L-DETL-PATT-013M
100
AcDbLine
 10
4.526179722730219
 20
2.948793842414697
 30
0.0
 11
4.549615044581031
 21
2.925358520563883
 31
0.0
  0
LINE
  5
BE7A
330
1F
100
AcDbEntity
  8
NETAFIM-L-DETL-PATT-013M
100
AcDbLine
 10
4.876179831037347
 20
2.598793734107563
 30
0.0
 11
4.899615152888166
 21
2.57535841225675
 31
0.0
  0
LINE
  5
BE7B
330
1F
100
AcDbEntity
  8
NETAFIM-L-DETL-PATT-013M
100
AcDbLine
 10
4.876179831037354
 20
2.948793842414697
 30
0.0
 11
4.899615152888166
 21
2.925358520563883
 31
0.0
  0
LINE
  5
BE7C
330
1F
100
AcDbEntity
  8
NETAFIM-L-DETL-PATT-013M
100
AcDbLine
 10
5.226179939344483
 20
2.598793734107563
 30
0.0
 11
5.249615261195302
 21
2.57535841225675
 31
0.0
  0
LINE
  5
BE7D
330
1F
100
AcDbEntity
  8
NETAFIM-L-DETL-PATT-013M
100
AcDbLine
 10
5.226179939344483
 20
2.948793842414697
 30
0.0
 11
5.249615261195295
 21
2.925358520563883
 31
0.0
  0
LINE
  5
BE7E
330
1F
100
AcDbEntity
  8
NETAFIM-L-DETL-PATT-013M
100
AcDbLine
 10
5.576180047651618
 20
2.598793734107563
 30
0.0
 11
5.59961536950243
 21
2.57535841225675
 31
0.0
  0
LINE
  5
BE80
330
1F
100
AcDbEntity
  8
NETAFIM-L-DETL-PATT-013M
100
AcDbLine
 10
4.176179614423084
 20
2.948793842414697
 30
0.0
 11
4.199614936273896
 21
2.925358520563883
 31
0.0
  0
LINE
  5
BE81
330
1F
100
AcDbEntity
  8
NETAFIM-L-DETL-PATT-013M
100
AcDbLine
 10
4.526179722730219
 20
2.598793734107563
 30
0.0
 11
4.549615044581031
 21
2.57535841225675
 31
0.0
  0
LINE
  5
BE82
330
1F
100
AcDbEntity
  8
NETAFIM-L-DETL-PATT-013M
100
AcDbLine
 10
4.876178314737487
 20
2.981935309343364
 30
0.0
 11
4.876178314737487
 21
2.948792759343365
 31
0.0
  0
LINE
  5
BE83
330
1F
100
AcDbEntity
  8
NETAFIM-L-DETL-PATT-013M
100
AcDbLine
 10
4.876178314737487
 20
2.631935309343364
 30
0.0
 11
4.876178314737487
 21
2.598792759343365
 31
0.0
  0
LINE
  5
BE84
330
1F
100
AcDbEntity
  8
NETAFIM-L-DETL-PATT-013M
100
AcDbLine
 10
5.226178314737488
 20
2.981935309343364
 30
0.0
 11
5.226178314737488
 21
2.948792759343365
 31
0.0
  0
LINE
  5
BE85
330
1F
100
AcDbEntity
  8
NETAFIM-L-DETL-PATT-013M
100
AcDbLine
 10
5.226178314737488
 20
2.631935309343364
 30
0.0
 11
5.226178314737488
 21
2.598792759343365
 31
0.0
  0
LINE
  5
BE87
330
1F
100
AcDbEntity
  8
NETAFIM-L-DETL-PATT-013M
100
AcDbLine
 10
5.576178314737482
 20
2.631935309343364
 30
0.0
 11
5.576178314737482
 21
2.598792759343365
 31
0.0
  0
LINE
  5
BE88
330
1F
100
AcDbEntity
  8
NETAFIM-L-DETL-PATT-013M
100
AcDbLine
 10
4.526178314737485
 20
2.981935309343364
 30
0.0
 11
4.526178314737485
 21
2.948792759343365
 31
0.0
  0
LINE
  5
BE89
330
1F
100
AcDbEntity
  8
NETAFIM-L-DETL-PATT-013M
100
AcDbLine
 10
4.526178314737485
 20
2.631935309343364
 30
0.0
 11
4.526178314737485
 21
2.598792759343365
 31
0.0
  0
LINE
  5
BE8A
330
1F
100
AcDbEntity
  8
NETAFIM-L-DETL-PATT-013M
100
AcDbLine
 10
4.176178314737484
 20
2.981935309343364
 30
0.0
 11
4.176178314737484
 21
2.948792759343365
 31
0.0
  0
LINE
  5
BE8B
330
1F
100
AcDbEntity
  8
NETAFIM-L-DETL-PATT-013M
100
AcDbLine
 10
4.176178314737484
 20
2.631935309343364
 30
0.0
 11
4.176178314737484
 21
2.616226869065852
 31
0.0
  0
LINE
  5
BE8C
330
1F
100
AcDbEntity
  8
NETAFIM-L-DETL-PATT-013M
100
AcDbLine
 10
4.89961513103735
 20
3.005371692414699
 30
0.0
 11
4.876179809186538
 21
2.981936370563883
 31
0.0
  0
LINE
  5
BE8D
330
1F
100
AcDbEntity
  8
NETAFIM-L-DETL-PATT-013M
100
AcDbLine
 10
4.549615022730215
 20
2.655371584107563
 30
0.0
 11
4.526179700879403
 21
2.631936262256751
 31
0.0
  0
LINE
  5
BE8E
330
1F
100
AcDbEntity
  8
NETAFIM-L-DETL-PATT-013M
100
AcDbLine
 10
5.249615239344485
 20
3.005371692414699
 30
0.0
 11
5.226179917493674
 21
2.981936370563883
 31
0.0
  0
LINE
  5
BE8F
330
1F
100
AcDbEntity
  8
NETAFIM-L-DETL-PATT-013M
100
AcDbLine
 10
4.89961513103735
 20
2.655371584107565
 30
0.0
 11
4.876179809186538
 21
2.631936262256751
 31
0.0
  0
LINE
  5
BE91
330
1F
100
AcDbEntity
  8
NETAFIM-L-DETL-PATT-013M
100
AcDbLine
 10
5.249615239344485
 20
2.655371584107565
 30
0.0
 11
5.226179917493674
 21
2.631936262256751
 31
0.0
  0
LINE
  5
BE92
330
1F
100
AcDbEntity
  8
NETAFIM-L-DETL-PATT-013M
100
AcDbLine
 10
5.599615347651621
 20
2.655371584107565
 30
0.0
 11
5.576180025800802
 21
2.631936262256751
 31
0.0
  0
LINE
  5
BE93
330
1F
100
AcDbEntity
  8
NETAFIM-L-DETL-PATT-013M
100
AcDbLine
 10
4.549615022730215
 20
3.005371692414699
 30
0.0
 11
4.526179700879403
 21
2.981936370563883
 31
0.0
  0
LINE
  5
BE94
330
1F
100
AcDbEntity
  8
NETAFIM-L-DETL-PATT-013M
100
AcDbLine
 10
4.199614914423086
 20
2.655371584107563
 30
0.0
 11
4.176179592572268
 21
2.631936262256751
 31
0.0
  0
LINE
  5
BE95
330
1F
100
AcDbEntity
  8
NETAFIM-L-DETL-PATT-013M
100
AcDbLine
 10
4.199614914423086
 20
3.005371692414699
 30
0.0
 11
4.176179592572268
 21
2.981936370563883
 31
0.0
  0
LINE
  5
BE96
330
1F
100
AcDbEntity
  8
NETAFIM-L-DETL-PATT-013M
100
AcDbLine
 10
5.632755814737485
 20
2.655370609343365
 30
0.0
 11
5.599613264737484
 21
2.655370609343365
 31
0.0
  0
LINE
  5
BE97
330
1F
100
AcDbEntity
  8
NETAFIM-L-DETL-PATT-013M
100
AcDbLine
 10
5.282755814737484
 20
2.655370609343365
 30
0.0
 11
5.249613264737483
 21
2.655370609343365
 31
0.0
  0
LINE
  5
BE98
330
1F
100
AcDbEntity
  8
NETAFIM-L-DETL-PATT-013M
100
AcDbLine
 10
4.93275581473749
 20
2.655370609343365
 30
0.0
 11
4.899613264737489
 21
2.655370609343365
 31
0.0
  0
LINE
  5
BE99
330
1F
100
AcDbEntity
  8
NETAFIM-L-DETL-PATT-013M
100
AcDbLine
 10
4.582755814737488
 20
2.655370609343365
 30
0.0
 11
4.549613264737487
 21
2.655370609343365
 31
0.0
  0
LINE
  5
BE9A
330
1F
100
AcDbEntity
  8
NETAFIM-L-DETL-PATT-013M
100
AcDbLine
 10
4.232755814737487
 20
2.655370609343365
 30
0.0
 11
4.199613264737486
 21
2.655370609343365
 31
0.0
  0
LINE
  5
BE9C
330
1F
100
AcDbEntity
  8
NETAFIM-L-DETL-PATT-013M
100
AcDbLine
 10
5.282755814737484
 20
3.005370609343365
 30
0.0
 11
5.249613264737483
 21
3.005370609343365
 31
0.0
  0
LINE
  5
BE9D
330
1F
100
AcDbEntity
  8
NETAFIM-L-DETL-PATT-013M
100
AcDbLine
 10
4.93275581473749
 20
3.005370609343365
 30
0.0
 11
4.899613264737489
 21
3.005370609343365
 31
0.0
  0
LINE
  5
BE9E
330
1F
100
AcDbEntity
  8
NETAFIM-L-DETL-PATT-013M
100
AcDbLine
 10
4.582755814737488
 20
3.005370609343365
 30
0.0
 11
4.549613264737487
 21
3.005370609343365
 31
0.0
  0
LINE
  5
BE9F
330
1F
100
AcDbEntity
  8
NETAFIM-L-DETL-PATT-013M
100
AcDbLine
 10
4.232755814737487
 20
3.005370609343365
 30
0.0
 11
4.199613264737486
 21
3.005370609343365
 31
0.0
  0
LINE
  5
BEA0
330
1F
100
AcDbEntity
  8
NETAFIM-L-DETL-PATT-013M
100
AcDbLine
 10
4.956192631037353
 20
2.631936284107564
 30
0.0
 11
4.932757309186534
 21
2.655371605958378
 31
0.0
  0
LINE
  5
BEA1
330
1F
100
AcDbEntity
  8
NETAFIM-L-DETL-PATT-013M
100
AcDbLine
 10
4.606192522730218
 20
2.981936392414696
 30
0.0
 11
4.582757200879406
 21
3.005371714265511
 31
0.0
  0
LINE
  5
BEA2
330
1F
100
AcDbEntity
  8
NETAFIM-L-DETL-PATT-013M
100
AcDbLine
 10
4.606192522730218
 20
2.631936284107564
 30
0.0
 11
4.582757200879406
 21
2.65537160595838
 31
0.0
  0
LINE
  5
BEA3
330
1F
100
AcDbEntity
  8
NETAFIM-L-DETL-PATT-013M
100
AcDbLine
 10
4.256192414423082
 20
2.981936392414698
 30
0.0
 11
4.232757092572271
 21
3.005371714265511
 31
0.0
  0
LINE
  5
BEA4
330
1F
100
AcDbEntity
  8
NETAFIM-L-DETL-PATT-013M
100
AcDbLine
 10
4.256192414423082
 20
2.631936284107564
 30
0.0
 11
4.232757092572271
 21
2.655371605958378
 31
0.0
  0
LINE
  5
BEA5
330
1F
100
AcDbEntity
  8
NETAFIM-L-DETL-PATT-013M
100
AcDbLine
 10
5.306192739344481
 20
2.631936284107564
 30
0.0
 11
5.28275741749367
 21
2.655371605958378
 31
0.0
  0
LINE
  5
BEA6
330
1F
100
AcDbEntity
  8
NETAFIM-L-DETL-PATT-013M
100
AcDbLine
 10
4.956192631037346
 20
2.981936392414696
 30
0.0
 11
4.932757309186534
 21
3.005371714265511
 31
0.0
  0
LINE
  5
BEA7
330
1F
100
AcDbEntity
  8
NETAFIM-L-DETL-PATT-013M
100
AcDbLine
 10
5.656192847651617
 20
2.631936284107564
 30
0.0
 11
5.632757525800805
 21
2.655371605958378
 31
0.0
  0
LINE
  5
BEA8
330
1F
100
AcDbEntity
  8
NETAFIM-L-DETL-PATT-013M
100
AcDbLine
 10
5.306192739344481
 20
2.981936392414696
 30
0.0
 11
5.28275741749367
 21
3.005371714265511
 31
0.0
  0
LINE
  5
BEAC
330
1F
100
AcDbEntity
  8
NETAFIM-L-DETL-025M
100
AcDbLine
 10
5.101883439039426
 20
3.809524309343363
 30
0.0
 11
5.006153664737489
 21
3.809524309343366
 31
0.0
  0
LINE
  5
BEAD
330
1F
100
AcDbEntity
  8
NETAFIM-L-DETL-025M
100
AcDbLine
 10
5.006153664737489
 20
3.809524309343366
 30
0.0
 11
5.006153664737489
 21
3.769024309343365
 31
0.0
  0
LINE
  5
BEAE
102
{ACAD_REACTORS
330
C07C
102
}
330
1F
100
AcDbEntity
  8
NETAFIM-L-DETL-025M
100
AcDbLine
 10
5.006153664737489
 20
3.769024309343365
 30
0.0
 11
4.67185366473749
 21
3.769024309343365
 31
0.0
  0
LINE
  5
BEAF
330
1F
100
AcDbEntity
  8
NETAFIM-L-DETL-025M
100
AcDbLine
 10
4.67185366473749
 20
3.769024309343365
 30
0.0
 11
4.67185366473749
 21
3.809524309343366
 31
0.0
  0
LINE
  5
BEB0
330
1F
100
AcDbEntity
  8
NETAFIM-L-DETL-025M
100
AcDbLine
 10
4.67185366473749
 20
3.809524309343366
 30
0.0
 11
4.581053664737488
 21
3.809524309343366
 31
0.0
  0
LINE
  5
BEB3
330
1F
100
AcDbEntity
  8
NETAFIM-L-DETL-013M
100
AcDbLine
 10
4.731560841436611
 20
4.397817833309684
 30
0.0
 11
4.851769792349912
 21
4.408347465602787
 31
0.0
  0
LINE
  5
BEB4
330
1F
100
AcDbEntity
  8
NETAFIM-L-DETL-013M
100
AcDbLine
 10
4.723844917870579
 20
4.36832859528053
 30
0.0
 11
4.974693304787713
 21
4.38992514374534
 31
0.0
  0
LWPOLYLINE
  5
BEB5
330
1F
100
AcDbEntity
  8
NETAFIM-L-DETL-013M
100
AcDbPolyline
 90
        4
 70
     0
 43
0.0
 10
4.734027838232329
 20
4.340353147019083
 10
4.723113051675305
 20
4.365978940433006
 10
4.732129614483277
 20
4.394926595956146
 10
4.729489419997506
 20
4.408347465602787
  0
LWPOLYLINE
  5
BEB6
330
1F
100
AcDbEntity
  8
NETAFIM-L-DETL-013M
100
AcDbPolyline
 90
        4
 70
     0
 43
0.0
 10
4.96521675518921
 20
4.340224309343366
 10
4.985793746404333
 20
4.365504388703119
 10
4.97392984797279
 20
4.391604733846932
 10
4.980866184054349
 20
4.408347465602787
  0
LWPOLYLINE
  5
BEB7
330
1F
100
AcDbEntity
  8
NETAFIM-L-DETL-013M
100
AcDbPolyline
 90
        2
 70
     0
 43
0.0
 10
4.984338275080375
 20
4.363716254072993
 10
4.732890763991974
 20
4.343022775914466
  0
HATCH
  5
BED2
330
1F
100
AcDbEntity
  8
NETAFIM-L-DETL-PATT-013M
100
AcDbHatch
 10
0.0
 20
0.0
 30
0.0
210
0.0
220
0.0
230
1.0
  2
ANSI31
 70
     0
 71
     1
 91
        2
 92
        7
 72
     0
 73
     1
 93
        4
 10
3.469253664737493
 20
3.152824309343364
 10
3.469253664737493
 20
2.708324309343365
 10
4.06655366473749
 20
2.708324309343365
 10
4.06655366473749
 20
3.152824309343364
 97
        1
330
8660
 92
        7
 72
     0
 73
     1
 93
        4
 10
5.56655366473749
 20
3.152824309343364
 10
5.56655366473749
 20
2.708324309343365
 10
6.163753664737491
 20
2.708324309343365
 10
6.163753664737491
 20
3.152824309343364
 97
        1
330
8661
 75
     0
 76
     1
 52
0.0
 41
1.0
 77
     0
 78
     1
 53
45.0
 43
-28.55073858113068
 44
-5.593646053638521
 45
-0.0883883476483184
 46
0.0883883476483185
 79
     0
 47
0.0023838662305773
 98
        2
 10
3.905985089197486
 20
3.025037800856581
 10
5.757147277694002
 20
2.984512062777299
1001
ACAD
1010
0.0
1020
0.0
1030
0.0
  0
HATCH
  5
BF74
330
1F
100
AcDbEntity
  8
NETAFIM-L-DETL-013M
100
AcDbHatch
 10
0.0
 20
0.0
 30
0.0
210
0.0
220
0.0
230
1.0
  2
SOLID
 70
     1
 71
     0
 91
       12
 92
        7
 72
     1
 73
     1
 93
        3
 10
7.602780123719746
 20
0.5088580073223393
 42
1.407273687863683
 10
7.726610455730011
 20
0.5088580073223393
 42
0.0
 10
7.664695289724882
 20
0.6547209976358977
 42
0.0
 97
        0
 92
        7
 72
     1
 73
     1
 93
        3
 10
7.748564270341027
 20
0.7413756720831879
 42
0.0
 10
7.709189270341028
 20
0.6486139851788782
 42
1.407273687863691
 10
7.787939270341027
 20
0.6486139851788782
 42
0.0
 97
        0
 92
        7
 72
     0
 73
     1
 93
       10
 10
7.891403918155887
 20
0.6487752618358354
 10
7.924014490154156
 20
0.5638218173297345
 10
7.973964490154152
 20
0.5638218173297345
 10
7.996479131873478
 20
0.7240218173297351
 10
7.946529131873482
 20
0.7240218173297351
 10
7.934589703871743
 20
0.6390683728236333
 10
7.901979131873481
 20
0.7240218173297351
 10
7.852029131873479
 20
0.7240218173297351
 10
7.829514490154153
 20
0.5638218173297345
 10
7.879464490154155
 20
0.5638218173297345
 97
        0
 92
        7
 72
     0
 73
     1
 93
       12
 10
8.051780241607751
 20
0.6237577921903182
 10
8.0922763860409
 20
0.6237577921903182
 10
8.098084469672649
 20
0.6650844546087989
 10
8.057588325239514
 20
0.6650844546087989
 10
8.059780301579635
 20
0.6806811766914782
 10
8.103787503302847
 20
0.6806811766914782
 10
8.109878633114682
 20
0.7240218173297351
 10
8.013129131873476
 20
0.7240218173297351
 10
7.99061449015415
 20
0.5638218173297345
 10
8.087363991395363
 20
0.5638218173297345
 10
8.093438897252269
 20
0.6070470185303041
 10
8.049431695529058
 20
0.6070470185303041
 97
        0
 92
        7
 72
     0
 73
     1
 93
        8
 10
8.131801491395364
 20
0.5638218173297345
 10
8.181751491395367
 20
0.5638218173297345
 10
8.19819122725778
 20
0.6807966161291646
 10
8.228228727257778
 20
0.6807966161291646
 10
8.234303633114684
 20
0.7240218173297351
 10
8.124278633114691
 20
0.7240218173297351
 10
8.118203727257778
 20
0.6807966161291646
 10
8.148241227257777
 20
0.6807966161291646
 97
        0
 92
        7
 72
     0
 73
     1
 93
        8
 10
8.195267221775942
 20
0.5638218173297345
 10
8.249267221775944
 20
0.5638218173297345
 10
8.257971398315639
 20
0.5849499593903494
 10
8.30078500150622
 20
0.5849499593903494
 10
8.301852988542357
 20
0.5638218173297345
 10
8.353602988542355
 20
0.5638218173297345
 10
8.332512258428856
 20
0.7240218173297351
 10
8.275139995386105
 20
0.7240218173297351
 97
        0
 92
       22
 72
     0
 73
     1
 93
        3
 10
8.273959090316409
 20
0.6237577921903182
 10
8.296105958546789
 20
0.677516143257237
 10
8.298823340030629
 20
0.6237577921903182
 97
        0
 92
        7
 72
     0
 73
     1
 93
       10
 10
8.428384722948685
 20
0.6237577921903182
 10
8.46888086738182
 20
0.6237577921903182
 10
8.474688951013582
 20
0.6650844546087989
 10
8.434192806580441
 20
0.6650844546087989
 10
8.436384782920562
 20
0.6806811766914782
 10
8.48039198464378
 20
0.6806811766914782
 10
8.486483114455616
 20
0.7240218173297351
 10
8.389600912732397
 20
0.7240218173297351
 10
8.367086271013072
 20
0.5638218173297345
 10
8.419961271013072
 20
0.5638218173297345
 97
        0
 92
        7
 72
     0
 73
     1
 93
        4
 10
8.554433114455612
 20
0.7240218173297351
 10
8.501558114455612
 20
0.7240218173297351
 10
8.479043472736293
 20
0.5638218173297345
 10
8.531918472736293
 20
0.5638218173297345
 97
        0
 92
        7
 72
     0
 73
     1
 93
       13
 10
8.614590601815542
 20
0.6425896221603678
 10
8.624960580050974
 20
0.5638218173297345
 10
8.659362041544525
 20
0.5638218173297345
 10
8.689742683095659
 20
0.6491494233452482
 10
8.689742683095659
 20
0.5638218173297345
 10
8.737892683095658
 20
0.5638218173297345
 10
8.737892683095658
 20
0.7240218173297351
 10
8.68199931585714
 20
0.7240218173297351
 10
8.653007043797707
 20
0.6425936103704402
 10
8.642286816977453
 20
0.7240218173297351
 10
8.588440908032573
 20
0.7240218173297351
 10
8.54250429723401
 20
0.5638218173297345
 10
8.592004297234012
 20
0.5638218173297345
 97
        0
 92
        7
 72
     0
 73
     1
 93
        8
 10
8.779631383606684
 20
0.7240218173297351
 10
8.754881383606679
 20
0.7240218173297351
 10
8.754881383606679
 20
0.7192968173297345
 10
8.76388138360668
 20
0.7192968173297345
 10
8.76388138360668
 20
0.694321817329735
 10
8.770631383606684
 20
0.694321817329735
 10
8.770631383606684
 20
0.7192968173297345
 10
8.779631383606684
 20
0.7192968173297345
 97
        0
 92
        7
 72
     0
 73
     1
 93
       13
 10
8.794481383606687
 20
0.7240218173297351
 10
8.783456383606683
 20
0.7240218173297351
 10
8.783456383606683
 20
0.694321817329735
 10
8.79020638360668
 20
0.694321817329735
 10
8.79020638360668
 20
0.7157621053595414
 10
8.798868883606679
 20
0.694321817329735
 10
8.803368883606687
 20
0.694321817329735
 10
8.812031383606687
 20
0.7157621053595405
 10
8.812031383606687
 20
0.694321817329735
 10
8.818781383606683
 20
0.694321817329735
 10
8.818781383606683
 20
0.7240218173297351
 10
8.80775638360668
 20
0.7240218173297351
 10
8.801118883606683
 20
0.7075935446835198
 97
        0
 75
     0
 76
     1
 47
0.0019728894204142
 98
       12
 10
7.650372135110636
 20
0.5103152141502978
 10
7.756056493365356
 20
0.6443730516044504
 10
7.869733788517152
 20
0.6372706487929696
 10
8.038473522372612
 20
0.6372706487929696
 10
8.165472374982265
 20
0.6354950490973606
 10
8.249842238882038
 20
0.6124122429818311
 10
8.249842238882038
 20
0.6124122429818311
 10
8.407924728587993
 20
0.6239536450323345
 10
8.522490125147946
 20
0.6257292467424663
 10
8.607748096511791
 20
0.6488120528579949
 10
8.768494893470169
 20
0.7224994724581278
 10
8.785368868672492
 20
0.7233872723059323
450
        0
451
        0
460
0.0
461
0.0
452
        1
462
1.0
453
        2
463
0.0
 63
     5
421
      255
463
1.0
 63
     7
421
 16777215
470
LINEAR
1001
ACAD
1010
0.0
1020
0.0
1030
0.0
  0
LWPOLYLINE
  5
BF75
330
1F
100
AcDbEntity
  8
NETAFIM-L-DETL-013M
100
AcDbPolyline
 90
        3
 70
     1
 43
0.0
 10
7.748564270341027
 20
0.7413756720831879
 10
7.709189270341028
 20
0.6486139851788782
 42
1.407273687863686
 10
7.787939270341027
 20
0.6486139851788773
  0
LWPOLYLINE
  5
BF76
330
1F
100
AcDbEntity
  8
NETAFIM-L-DETL-013M
100
AcDbPolyline
 90
        3
 70
     1
 43
0.0
 10
7.664695289724882
 20
0.6547209976358977
 10
7.602780123719746
 20
0.5088580073223393
 42
1.407273687863686
 10
7.726610455730011
 20
0.5088580073223393
  0
LWPOLYLINE
  5
BF77
330
1F
100
AcDbEntity
  8
NETAFIM-L-DETL-013M
100
AcDbPolyline
 90
        2
 70
     0
 43
0.0
 10
7.852029131873479
 20
0.7240218173297351
 10
7.901979131873481
 20
0.7240218173297351
  0
LWPOLYLINE
  5
BF78
330
1F
100
AcDbEntity
  8
NETAFIM-L-DETL-013M
100
AcDbPolyline
 90
        2
 70
     0
 43
0.0
 10
7.946529131873482
 20
0.7240218173297351
 10
7.996479131873478
 20
0.7240218173297351
  0
LWPOLYLINE
  5
BF79
330
1F
100
AcDbEntity
  8
NETAFIM-L-DETL-013M
100
AcDbPolyline
 90
        2
 70
     0
 43
0.0
 10
8.124278633114691
 20
0.7240218173297351
 10
8.234303633114684
 20
0.7240218173297351
  0
LWPOLYLINE
  5
BF7A
330
1F
100
AcDbEntity
  8
NETAFIM-L-DETL-013M
100
AcDbPolyline
 90
        2
 70
     0
 43
0.0
 10
8.275139995386105
 20
0.7240218173297351
 10
8.332512258428856
 20
0.7240218173297351
  0
LWPOLYLINE
  5
BF7B
330
1F
100
AcDbEntity
  8
NETAFIM-L-DETL-013M
100
AcDbPolyline
 90
        2
 70
     0
 43
0.0
 10
8.389600912732397
 20
0.7240218173297351
 10
8.486483114455616
 20
0.7240218173297351
  0
LWPOLYLINE
  5
BF7C
330
1F
100
AcDbEntity
  8
NETAFIM-L-DETL-013M
100
AcDbPolyline
 90
        2
 70
     0
 43
0.0
 10
8.501558114455612
 20
0.7240218173297351
 10
8.554433114455612
 20
0.7240218173297351
  0
LWPOLYLINE
  5
BF7D
330
1F
100
AcDbEntity
  8
NETAFIM-L-DETL-013M
100
AcDbPolyline
 90
        2
 70
     0
 43
0.0
 10
8.588440908032573
 20
0.7240218173297351
 10
8.642286816977453
 20
0.7240218173297351
  0
LWPOLYLINE
  5
BF7E
330
1F
100
AcDbEntity
  8
NETAFIM-L-DETL-013M
100
AcDbPolyline
 90
        2
 70
     0
 43
0.0
 10
8.68199931585714
 20
0.7240218173297351
 10
8.737892683095658
 20
0.7240218173297351
  0
LWPOLYLINE
  5
BF7F
330
1F
100
AcDbEntity
  8
NETAFIM-L-DETL-013M
100
AcDbPolyline
 90
        2
 70
     0
 43
0.0
 10
8.754881383606679
 20
0.7240218173297351
 10
8.779631383606684
 20
0.7240218173297351
  0
LWPOLYLINE
  5
BF80
330
1F
100
AcDbEntity
  8
NETAFIM-L-DETL-013M
100
AcDbPolyline
 90
        2
 70
     0
 43
0.0
 10
8.783456383606683
 20
0.7240218173297351
 10
8.794481383606687
 20
0.7240218173297351
  0
LWPOLYLINE
  5
BF81
330
1F
100
AcDbEntity
  8
NETAFIM-L-DETL-013M
100
AcDbPolyline
 90
        2
 70
     0
 43
0.0
 10
8.80775638360668
 20
0.7240218173297351
 10
8.818781383606683
 20
0.7240218173297351
  0
LWPOLYLINE
  5
BF82
330
1F
100
AcDbEntity
  8
NETAFIM-L-DETL-013M
100
AcDbPolyline
 90
        2
 70
     0
 43
0.0
 10
8.76388138360668
 20
0.694321817329735
 10
8.770631383606684
 20
0.694321817329735
  0
LWPOLYLINE
  5
BF83
330
1F
100
AcDbEntity
  8
NETAFIM-L-DETL-013M
100
AcDbPolyline
 90
        2
 70
     0
 43
0.0
 10
8.783456383606683
 20
0.694321817329735
 10
8.79020638360668
 20
0.694321817329735
  0
LWPOLYLINE
  5
BF84
330
1F
100
AcDbEntity
  8
NETAFIM-L-DETL-013M
100
AcDbPolyline
 90
        2
 70
     0
 43
0.0
 10
8.798868883606679
 20
0.694321817329735
 10
8.803368883606687
 20
0.694321817329735
  0
LWPOLYLINE
  5
BF85
330
1F
100
AcDbEntity
  8
NETAFIM-L-DETL-013M
100
AcDbPolyline
 90
        2
 70
     0
 43
0.0
 10
8.812031383606687
 20
0.694321817329735
 10
8.818781383606683
 20
0.694321817329735
  0
LWPOLYLINE
  5
BF86
330
1F
100
AcDbEntity
  8
NETAFIM-L-DETL-013M
100
AcDbPolyline
 90
        2
 70
     0
 43
0.0
 10
7.829514490154153
 20
0.5638218173297345
 10
7.879464490154155
 20
0.5638218173297345
  0
LWPOLYLINE
  5
BF87
330
1F
100
AcDbEntity
  8
NETAFIM-L-DETL-013M
100
AcDbPolyline
 90
        2
 70
     0
 43
0.0
 10
7.924014490154156
 20
0.5638218173297345
 10
7.973964490154152
 20
0.5638218173297345
  0
LWPOLYLINE
  5
BF88
330
1F
100
AcDbEntity
  8
NETAFIM-L-DETL-013M
100
AcDbPolyline
 90
        2
 70
     0
 43
0.0
 10
7.99061449015415
 20
0.5638218173297345
 10
8.087363991395363
 20
0.5638218173297345
  0
LWPOLYLINE
  5
BF89
330
1F
100
AcDbEntity
  8
NETAFIM-L-DETL-013M
100
AcDbPolyline
 90
        2
 70
     0
 43
0.0
 10
8.131801491395364
 20
0.5638218173297345
 10
8.181751491395367
 20
0.5638218173297345
  0
LWPOLYLINE
  5
BF8A
330
1F
100
AcDbEntity
  8
NETAFIM-L-DETL-013M
100
AcDbPolyline
 90
        2
 70
     0
 43
0.0
 10
8.195267221775942
 20
0.5638218173297345
 10
8.249267221775944
 20
0.5638218173297345
  0
LWPOLYLINE
  5
BF8B
330
1F
100
AcDbEntity
  8
NETAFIM-L-DETL-013M
100
AcDbPolyline
 90
        2
 70
     0
 43
0.0
 10
8.301852988542357
 20
0.5638218173297345
 10
8.353602988542355
 20
0.5638218173297345
  0
LWPOLYLINE
  5
BF8C
330
1F
100
AcDbEntity
  8
NETAFIM-L-DETL-013M
100
AcDbPolyline
 90
        2
 70
     0
 43
0.0
 10
8.367086271013072
 20
0.5638218173297345
 10
8.419961271013072
 20
0.5638218173297345
  0
LWPOLYLINE
  5
BF8D
330
1F
100
AcDbEntity
  8
NETAFIM-L-DETL-013M
100
AcDbPolyline
 90
        2
 70
     0
 43
0.0
 10
8.479043472736293
 20
0.5638218173297345
 10
8.531918472736293
 20
0.5638218173297345
  0
LWPOLYLINE
  5
BF8E
330
1F
100
AcDbEntity
  8
NETAFIM-L-DETL-013M
100
AcDbPolyline
 90
        2
 70
     0
 43
0.0
 10
8.54250429723401
 20
0.5638218173297345
 10
8.592004297234012
 20
0.5638218173297345
  0
LWPOLYLINE
  5
BF8F
330
1F
100
AcDbEntity
  8
NETAFIM-L-DETL-013M
100
AcDbPolyline
 90
        2
 70
     0
 43
0.0
 10
8.624960580050974
 20
0.5638218173297345
 10
8.659362041544525
 20
0.5638218173297345
  0
LWPOLYLINE
  5
BF90
330
1F
100
AcDbEntity
  8
NETAFIM-L-DETL-013M
100
AcDbPolyline
 90
        2
 70
     0
 43
0.0
 10
8.689742683095659
 20
0.5638218173297345
 10
8.737892683095658
 20
0.5638218173297345
  0
LWPOLYLINE
  5
BF91
330
1F
100
AcDbEntity
  8
NETAFIM-L-DETL-013M
100
AcDbPolyline
 90
        2
 70
     0
 43
0.0
 10
7.829514490154153
 20
0.5638218173297345
 10
7.852029131873479
 20
0.7240218173297351
  0
LWPOLYLINE
  5
BF92
330
1F
100
AcDbEntity
  8
NETAFIM-L-DETL-013M
100
AcDbPolyline
 90
        2
 70
     0
 43
0.0
 10
7.879464490154155
 20
0.5638218173297345
 10
7.891403918155887
 20
0.6487752618358354
  0
LWPOLYLINE
  5
BF93
330
1F
100
AcDbEntity
  8
NETAFIM-L-DETL-013M
100
AcDbPolyline
 90
        2
 70
     0
 43
0.0
 10
7.934589703871743
 20
0.6390683728236333
 10
7.901979131873481
 20
0.7240218173297351
  0
LWPOLYLINE
  5
BF94
330
1F
100
AcDbEntity
  8
NETAFIM-L-DETL-013M
100
AcDbPolyline
 90
        2
 70
     0
 43
0.0
 10
7.934589703871743
 20
0.6390683728236333
 10
7.946529131873482
 20
0.7240218173297351
  0
LWPOLYLINE
  5
BF95
330
1F
100
AcDbEntity
  8
NETAFIM-L-DETL-013M
100
AcDbPolyline
 90
        2
 70
     0
 43
0.0
 10
7.924014490154156
 20
0.5638218173297345
 10
7.891403918155887
 20
0.6487752618358354
  0
LWPOLYLINE
  5
BF96
330
1F
100
AcDbEntity
  8
NETAFIM-L-DETL-013M
100
AcDbPolyline
 90
        2
 70
     0
 43
0.0
 10
7.973964490154152
 20
0.5638218173297345
 10
7.996479131873478
 20
0.7240218173297351
  0
LWPOLYLINE
  5
BF97
330
1F
100
AcDbEntity
  8
NETAFIM-L-DETL-013M
100
AcDbPolyline
 90
        2
 70
     0
 43
0.0
 10
7.99061449015415
 20
0.5638218173297345
 10
8.013129131873476
 20
0.7240218173297351
  0
LWPOLYLINE
  5
BF98
330
1F
100
AcDbEntity
  8
NETAFIM-L-DETL-013M
100
AcDbPolyline
 90
        2
 70
     0
 43
0.0
 10
8.087363991395363
 20
0.5638218173297345
 10
8.093438897252269
 20
0.6070470185303041
  0
LWPOLYLINE
  5
BF99
330
1F
100
AcDbEntity
  8
NETAFIM-L-DETL-013M
100
AcDbPolyline
 90
        2
 70
     0
 43
0.0
 10
8.103787503302847
 20
0.6806811766914782
 10
8.109878633114682
 20
0.7240218173297351
  0
LWPOLYLINE
  5
BF9A
330
1F
100
AcDbEntity
  8
NETAFIM-L-DETL-013M
100
AcDbPolyline
 90
        2
 70
     0
 43
0.0
 10
8.049431695529058
 20
0.6070470185303041
 10
8.051780241607751
 20
0.6237577921903182
  0
LWPOLYLINE
  5
BF9B
330
1F
100
AcDbEntity
  8
NETAFIM-L-DETL-013M
100
AcDbPolyline
 90
        2
 70
     0
 43
0.0
 10
8.057588325239514
 20
0.6650844546087989
 10
8.059780301579635
 20
0.6806811766914782
  0
LWPOLYLINE
  5
BF9C
330
1F
100
AcDbEntity
  8
NETAFIM-L-DETL-013M
100
AcDbPolyline
 90
        2
 70
     0
 43
0.0
 10
8.0922763860409
 20
0.6237577921903182
 10
8.098084469672649
 20
0.6650844546087989
  0
LWPOLYLINE
  5
BF9D
330
1F
100
AcDbEntity
  8
NETAFIM-L-DETL-013M
100
AcDbPolyline
 90
        2
 70
     0
 43
0.0
 10
8.118203727257778
 20
0.6807966161291646
 10
8.124278633114691
 20
0.7240218173297351
  0
LWPOLYLINE
  5
BF9E
330
1F
100
AcDbEntity
  8
NETAFIM-L-DETL-013M
100
AcDbPolyline
 90
        2
 70
     0
 43
0.0
 10
8.228228727257778
 20
0.6807966161291646
 10
8.234303633114684
 20
0.7240218173297351
  0
LWPOLYLINE
  5
BF9F
330
1F
100
AcDbEntity
  8
NETAFIM-L-DETL-013M
100
AcDbPolyline
 90
        2
 70
     0
 43
0.0
 10
8.118203727257778
 20
0.6807966161291646
 10
8.148241227257777
 20
0.6807966161291646
  0
LWPOLYLINE
  5
BFA0
330
1F
100
AcDbEntity
  8
NETAFIM-L-DETL-013M
100
AcDbPolyline
 90
        2
 70
     0
 43
0.0
 10
8.19819122725778
 20
0.6807966161291646
 10
8.228228727257778
 20
0.6807966161291646
  0
LWPOLYLINE
  5
BFA1
330
1F
100
AcDbEntity
  8
NETAFIM-L-DETL-013M
100
AcDbPolyline
 90
        2
 70
     0
 43
0.0
 10
8.131801491395364
 20
0.5638218173297345
 10
8.148241227257777
 20
0.6807966161291646
  0
LWPOLYLINE
  5
BFA2
330
1F
100
AcDbEntity
  8
NETAFIM-L-DETL-013M
100
AcDbPolyline
 90
        2
 70
     0
 43
0.0
 10
8.181751491395367
 20
0.5638218173297345
 10
8.19819122725778
 20
0.6807966161291646
  0
LWPOLYLINE
  5
BFA3
330
1F
100
AcDbEntity
  8
NETAFIM-L-DETL-013M
100
AcDbPolyline
 90
        2
 70
     0
 43
0.0
 10
8.103787503302847
 20
0.6806811766914782
 10
8.059780301579635
 20
0.6806811766914782
  0
LWPOLYLINE
  5
BFA4
330
1F
100
AcDbEntity
  8
NETAFIM-L-DETL-013M
100
AcDbPolyline
 90
        2
 70
     0
 43
0.0
 10
8.093438897252269
 20
0.6070470185303041
 10
8.049431695529058
 20
0.6070470185303041
  0
LWPOLYLINE
  5
BFA5
330
1F
100
AcDbEntity
  8
NETAFIM-L-DETL-013M
100
AcDbPolyline
 90
        2
 70
     0
 43
0.0
 10
8.0922763860409
 20
0.6237577921903182
 10
8.051780241607751
 20
0.6237577921903182
  0
LWPOLYLINE
  5
BFA6
330
1F
100
AcDbEntity
  8
NETAFIM-L-DETL-013M
100
AcDbPolyline
 90
        2
 70
     0
 43
0.0
 10
8.098084469672649
 20
0.6650844546087989
 10
8.057588325239514
 20
0.6650844546087989
  0
LWPOLYLINE
  5
BFA7
330
1F
100
AcDbEntity
  8
NETAFIM-L-DETL-013M
100
AcDbPolyline
 90
        2
 70
     0
 43
0.0
 10
8.298823340030629
 20
0.6237577921903182
 10
8.273959090316409
 20
0.6237577921903182
  0
LWPOLYLINE
  5
BFA8
330
1F
100
AcDbEntity
  8
NETAFIM-L-DETL-013M
100
AcDbPolyline
 90
        2
 70
     0
 43
0.0
 10
8.367086271013072
 20
0.5638218173297345
 10
8.389600912732397
 20
0.7240218173297351
  0
LWPOLYLINE
  5
BFA9
330
1F
100
AcDbEntity
  8
NETAFIM-L-DETL-013M
100
AcDbPolyline
 90
        2
 70
     0
 43
0.0
 10
8.479043472736293
 20
0.5638218173297345
 10
8.501558114455612
 20
0.7240218173297351
  0
LWPOLYLINE
  5
BFAA
330
1F
100
AcDbEntity
  8
NETAFIM-L-DETL-013M
100
AcDbPolyline
 90
        2
 70
     0
 43
0.0
 10
8.48039198464378
 20
0.6806811766914782
 10
8.486483114455616
 20
0.7240218173297351
  0
LWPOLYLINE
  5
BFAB
330
1F
100
AcDbEntity
  8
NETAFIM-L-DETL-013M
100
AcDbPolyline
 90
        2
 70
     0
 43
0.0
 10
8.195267221775942
 20
0.5638218173297345
 10
8.275139995386105
 20
0.7240218173297351
  0
LWPOLYLINE
  5
BFAC
330
1F
100
AcDbEntity
  8
NETAFIM-L-DETL-013M
100
AcDbPolyline
 90
        2
 70
     0
 43
0.0
 10
8.249267221775944
 20
0.5638218173297345
 10
8.257971398315639
 20
0.5849499593903494
  0
LWPOLYLINE
  5
BFAD
330
1F
100
AcDbEntity
  8
NETAFIM-L-DETL-013M
100
AcDbPolyline
 90
        2
 70
     0
 43
0.0
 10
8.273959090316409
 20
0.6237577921903182
 10
8.296105958546789
 20
0.677516143257237
  0
LWPOLYLINE
  5
BFAE
330
1F
100
AcDbEntity
  8
NETAFIM-L-DETL-013M
100
AcDbPolyline
 90
        2
 70
     0
 43
0.0
 10
8.353602988542355
 20
0.5638218173297345
 10
8.332512258428856
 20
0.7240218173297351
  0
LWPOLYLINE
  5
BFAF
330
1F
100
AcDbEntity
  8
NETAFIM-L-DETL-013M
100
AcDbPolyline
 90
        2
 70
     0
 43
0.0
 10
8.301852988542357
 20
0.5638218173297345
 10
8.30078500150622
 20
0.5849499593903494
  0
LWPOLYLINE
  5
BFB0
330
1F
100
AcDbEntity
  8
NETAFIM-L-DETL-013M
100
AcDbPolyline
 90
        2
 70
     0
 43
0.0
 10
8.298823340030629
 20
0.6237577921903182
 10
8.296105958546789
 20
0.677516143257237
  0
LWPOLYLINE
  5
BFB1
330
1F
100
AcDbEntity
  8
NETAFIM-L-DETL-013M
100
AcDbPolyline
 90
        2
 70
     0
 43
0.0
 10
8.46888086738182
 20
0.6237577921903182
 10
8.474688951013582
 20
0.6650844546087989
  0
LWPOLYLINE
  5
BFB2
330
1F
100
AcDbEntity
  8
NETAFIM-L-DETL-013M
100
AcDbPolyline
 90
        2
 70
     0
 43
0.0
 10
8.474688951013582
 20
0.6650844546087989
 10
8.434192806580441
 20
0.6650844546087989
  0
LWPOLYLINE
  5
BFB3
330
1F
100
AcDbEntity
  8
NETAFIM-L-DETL-013M
100
AcDbPolyline
 90
        2
 70
     0
 43
0.0
 10
8.46888086738182
 20
0.6237577921903182
 10
8.428384722948685
 20
0.6237577921903182
  0
LWPOLYLINE
  5
BFB4
330
1F
100
AcDbEntity
  8
NETAFIM-L-DETL-013M
100
AcDbPolyline
 90
        2
 70
     0
 43
0.0
 10
8.419961271013072
 20
0.5638218173297345
 10
8.428384722948685
 20
0.6237577921903182
  0
LWPOLYLINE
  5
BFB5
330
1F
100
AcDbEntity
  8
NETAFIM-L-DETL-013M
100
AcDbPolyline
 90
        2
 70
     0
 43
0.0
 10
8.434192806580441
 20
0.6650844546087989
 10
8.436384782920562
 20
0.6806811766914782
  0
LWPOLYLINE
  5
BFB6
330
1F
100
AcDbEntity
  8
NETAFIM-L-DETL-013M
100
AcDbPolyline
 90
        2
 70
     0
 43
0.0
 10
8.257971398315639
 20
0.5849499593903494
 10
8.30078500150622
 20
0.5849499593903494
  0
LWPOLYLINE
  5
BFB7
330
1F
100
AcDbEntity
  8
NETAFIM-L-DETL-013M
100
AcDbPolyline
 90
        2
 70
     0
 43
0.0
 10
8.48039198464378
 20
0.6806811766914782
 10
8.436384782920562
 20
0.6806811766914782
  0
LWPOLYLINE
  5
BFB8
330
1F
100
AcDbEntity
  8
NETAFIM-L-DETL-013M
100
AcDbPolyline
 90
        2
 70
     0
 43
0.0
 10
8.653007043797707
 20
0.6425936103704402
 10
8.642286816977453
 20
0.7240218173297351
  0
LWPOLYLINE
  5
BFB9
330
1F
100
AcDbEntity
  8
NETAFIM-L-DETL-013M
100
AcDbPolyline
 90
        2
 70
     0
 43
0.0
 10
8.624960580050974
 20
0.5638218173297345
 10
8.614590601815542
 20
0.6425896221603678
  0
LWPOLYLINE
  5
BFBA
330
1F
100
AcDbEntity
  8
NETAFIM-L-DETL-013M
100
AcDbPolyline
 90
        2
 70
     0
 43
0.0
 10
8.689742683095659
 20
0.5638218173297345
 10
8.689742683095659
 20
0.6491494233452482
  0
LWPOLYLINE
  5
BFBB
330
1F
100
AcDbEntity
  8
NETAFIM-L-DETL-013M
100
AcDbPolyline
 90
        2
 70
     0
 43
0.0
 10
8.54250429723401
 20
0.5638218173297345
 10
8.588440908032573
 20
0.7240218173297351
  0
LWPOLYLINE
  5
BFBC
330
1F
100
AcDbEntity
  8
NETAFIM-L-DETL-013M
100
AcDbPolyline
 90
        2
 70
     0
 43
0.0
 10
8.592004297234012
 20
0.5638218173297345
 10
8.614590601815542
 20
0.6425896221603678
  0
LWPOLYLINE
  5
BFBD
330
1F
100
AcDbEntity
  8
NETAFIM-L-DETL-013M
100
AcDbPolyline
 90
        2
 70
     0
 43
0.0
 10
8.653007043797707
 20
0.6425936103704402
 10
8.68199931585714
 20
0.7240218173297351
  0
LWPOLYLINE
  5
BFBE
330
1F
100
AcDbEntity
  8
NETAFIM-L-DETL-013M
100
AcDbPolyline
 90
        2
 70
     0
 43
0.0
 10
8.659362041544525
 20
0.5638218173297354
 10
8.689742683095659
 20
0.6491494233452482
  0
LWPOLYLINE
  5
BFBF
330
1F
100
AcDbEntity
  8
NETAFIM-L-DETL-013M
100
AcDbPolyline
 90
        2
 70
     0
 43
0.0
 10
8.013129131873476
 20
0.7240218173297351
 10
8.109878633114682
 20
0.7240218173297351
  0
LWPOLYLINE
  5
BFC0
330
1F
100
AcDbEntity
  8
NETAFIM-L-DETL-013M
100
AcDbPolyline
 90
        2
 70
     0
 43
0.0
 10
8.754881383606679
 20
0.7240218173297351
 10
8.754881383606679
 20
0.7192968173297345
  0
LWPOLYLINE
  5
BFC1
330
1F
100
AcDbEntity
  8
NETAFIM-L-DETL-013M
100
AcDbPolyline
 90
        2
 70
     0
 43
0.0
 10
8.779631383606684
 20
0.7240218173297351
 10
8.779631383606684
 20
0.7192968173297345
  0
LWPOLYLINE
  5
BFC2
330
1F
100
AcDbEntity
  8
NETAFIM-L-DETL-013M
100
AcDbPolyline
 90
        2
 70
     0
 43
0.0
 10
8.783456383606683
 20
0.7240218173297351
 10
8.783456383606683
 20
0.694321817329735
  0
LWPOLYLINE
  5
BFC3
330
1F
100
AcDbEntity
  8
NETAFIM-L-DETL-013M
100
AcDbPolyline
 90
        2
 70
     0
 43
0.0
 10
8.79020638360668
 20
0.694321817329735
 10
8.79020638360668
 20
0.7157621053595405
  0
LWPOLYLINE
  5
BFC4
330
1F
100
AcDbEntity
  8
NETAFIM-L-DETL-013M
100
AcDbPolyline
 90
        2
 70
     0
 43
0.0
 10
8.812031383606687
 20
0.694321817329735
 10
8.812031383606687
 20
0.7157621053595405
  0
LWPOLYLINE
  5
BFC5
330
1F
100
AcDbEntity
  8
NETAFIM-L-DETL-013M
100
AcDbPolyline
 90
        2
 70
     0
 43
0.0
 10
8.76388138360668
 20
0.694321817329735
 10
8.76388138360668
 20
0.7192968173297345
  0
LWPOLYLINE
  5
BFC6
330
1F
100
AcDbEntity
  8
NETAFIM-L-DETL-013M
100
AcDbPolyline
 90
        2
 70
     0
 43
0.0
 10
8.754881383606679
 20
0.7192968173297345
 10
8.76388138360668
 20
0.7192968173297345
  0
LWPOLYLINE
  5
BFC7
330
1F
100
AcDbEntity
  8
NETAFIM-L-DETL-013M
100
AcDbPolyline
 90
        2
 70
     0
 43
0.0
 10
8.770631383606684
 20
0.7192968173297345
 10
8.779631383606684
 20
0.7192968173297345
  0
LWPOLYLINE
  5
BFC8
330
1F
100
AcDbEntity
  8
NETAFIM-L-DETL-013M
100
AcDbPolyline
 90
        2
 70
     0
 43
0.0
 10
8.794481383606687
 20
0.7240218173297351
 10
8.801118883606683
 20
0.7075935446835198
  0
LWPOLYLINE
  5
BFC9
330
1F
100
AcDbEntity
  8
NETAFIM-L-DETL-013M
100
AcDbPolyline
 90
        2
 70
     0
 43
0.0
 10
8.80775638360668
 20
0.7240218173297351
 10
8.801118883606683
 20
0.7075935446835198
  0
LWPOLYLINE
  5
BFCA
330
1F
100
AcDbEntity
  8
NETAFIM-L-DETL-013M
100
AcDbPolyline
 90
        2
 70
     0
 43
0.0
 10
8.812031383606687
 20
0.7157621053595405
 10
8.803368883606687
 20
0.694321817329735
  0
LWPOLYLINE
  5
BFCB
330
1F
100
AcDbEntity
  8
NETAFIM-L-DETL-013M
100
AcDbPolyline
 90
        2
 70
     0
 43
0.0
 10
8.79020638360668
 20
0.7157621053595405
 10
8.798868883606679
 20
0.694321817329735
  0
LWPOLYLINE
  5
BFCC
330
1F
100
AcDbEntity
  8
NETAFIM-L-DETL-013M
100
AcDbPolyline
 90
        2
 70
     0
 43
0.0
 10
8.554433114455612
 20
0.7240218173297351
 10
8.531918472736293
 20
0.5638218173297345
  0
LWPOLYLINE
  5
BFCD
330
1F
100
AcDbEntity
  8
NETAFIM-L-DETL-013M
100
AcDbPolyline
 90
        2
 70
     0
 43
0.0
 10
8.737892683095658
 20
0.5638218173297345
 10
8.737892683095658
 20
0.7240218173297351
  0
LWPOLYLINE
  5
BFCE
330
1F
100
AcDbEntity
  8
NETAFIM-L-DETL-013M
100
AcDbPolyline
 90
        2
 70
     0
 43
0.0
 10
8.770631383606684
 20
0.694321817329735
 10
8.770631383606684
 20
0.7192968173297345
  0
LWPOLYLINE
  5
BFCF
330
1F
100
AcDbEntity
  8
NETAFIM-L-DETL-013M
100
AcDbPolyline
 90
        2
 70
     0
 43
0.0
 10
8.818781383606683
 20
0.694321817329735
 10
8.818781383606683
 20
0.7240218173297351
  0
LWPOLYLINE
  5
BFE2
330
1F
100
AcDbEntity
  8
NETAFIM-LG-DETL-ANNO
100
AcDbPolyline
 90
        4
 70
     1
 43
0.0
 10
0.0
 20
0.0
 10
9.0625
 20
0.0
 10
9.0625
 20
7.125
 10
0.0
 20
7.125
1001
LandFX
1000
DETAIL-FORMAT
1000
1A
1040
1.0
1000
DIM1
  0
LINE
  5
BFF3
330
1F
100
AcDbEntity
  8
NETAFIM-D-070M
100
AcDbLine
 10
0.6827834977815748
 20
0.3411345796340779
 30
0.0
 11
8.822671659680125
 21
0.3411345796340779
 31
0.0
  0
CIRCLE
  5
BFF4
330
1F
100
AcDbEntity
  8
NETAFIM-D-070M
100
AcDbCircle
 10
0.4015334977815748
 20
0.3411345796340779
 30
0.0
 40
0.28125
1001
LandFX
1000
DETAIL-CIRCLE
  0
TEXT
  5
BFF5
330
1F
100
AcDbEntity
  8
NETAFIM-D-TEXT-025M
100
AcDbText
 10
0.2183970415697622
 20
0.2363665608325967
 30
0.0
 40
0.24
  1
00
  7
DETAIL NUMBER
 72
     1
 11
0.4015334977815748
 21
0.2363665608325967
 31
0.0
100
AcDbText
1001
LandFX
1000
DETAIL-NUMBER
  0
TEXT
  5
BFF6
330
1F
100
AcDbEntity
  8
NETAFIM-D-TEXT-025M
100
AcDbText
 10
0.862738956263076
 20
0.4291972829225479
 30
0.0
 40
0.18
  1
Techline® AIR/VACUUM RELIEF (PLUMBED TO Techline®)
  7
DETAIL TITLE
100
AcDbText
1001
LandFX
1000
DETAIL-TITLE
  0
TEXT
  5
BFF7
330
1F
100
AcDbEntity
  8
NETAFIM-D-TEXT-025M
100
AcDbText
 10
0.8697210820341609
 20
0.139743013662887
 30
0.0
 40
0.09
  1
NOT TO SCALE
  7
DETAIL TEXT
100
AcDbText
1001
LandFX
1000
DETAIL-SCALE
  0
TEXT
  5
BFF8
330
1F
100
AcDbEntity
  8
NETAFIM-D-TEXT-025M
100
AcDbText
 10
7.788192080551772
 20
0.1348378227173228
 30
0.0
 40
0.09
  1
DETAIL - D271
  7
DETAIL TEXT
 72
     2
 11
8.812477794837487
 21
0.1348378227173228
 31
0.0
100
AcDbText
1001
LandFX
1000
DETAIL-FILE
  0
LINE
  5
BFF9
330
1F
100
AcDbEntity
  8
NETAFIM-D-NPLT
100
AcDbLine
 10
0.0
 20
0.1500000000000003
 30
0.0
 11
0.0
 21
0.0
 31
0.0
  0
LINE
  5
BFFA
330
1F
100
AcDbEntity
  8
NETAFIM-D-NPLT
100
AcDbLine
 10
9.0625
 20
0.1500000000000003
 30
0.0
 11
9.0625
 21
0.0
 31
0.0
  0
LINE
  5
BFFB
330
1F
100
AcDbEntity
  8
NETAFIM-D-NPLT
100
AcDbLine
 10
0.0
 20
0.0
 30
0.0
 11
0.1499999999999986
 21
0.0
 31
0.0
  0
LINE
  5
BFFC
330
1F
100
AcDbEntity
  8
NETAFIM-D-NPLT
100
AcDbLine
 10
8.912500000000001
 20
0.0
 30
0.0
 11
9.0625
 21
0.0
 31
0.0
  0
MULTILEADER
  5
C06E
102
{ACAD_XDICTIONARY
360
C06F
102
}
102
{ACAD_REACTORS
330
C070
102
}
330
1F
100
AcDbEntity
  8
NETAFIM-L-DETL-TEXT-LEADER-025M
 92
      576
310
40020000140000000C00000016000000000000C00C00000013000000993A0000AC0000000B0000003FBECF8A8622F83FE2A45B364C0B1640000000000000000000000000000000000000000000000000000000000000F03F000000000000F03F0000000000000000000000000000000046494E495348204752414445000061
310
000C000000010000000AD7A3703D0AB73F000000000000F03F0000000000000000000000000000F03F0000000000000000000000000000000000000000726F6D616E732E7368780000000073000C000000100000000B0000000C00000016000000000000C00C00000012000000FF7F00000C00000013000000010000000C00
310
00001400000001000000540000000700000003000000FE13D2E7FE2E0B40B3143BC742231540000000000000000010171E435DF10B40BC5DBEF752D5144000000000000000009D3CDFD4F2060B40E82C1A6187FF144000000000000000000C00000013000000891300003C00000006000000020000004DA858DEF81A0B40CD
310
A02A1465111540000000000000000029B60BB6801B0740A04476652930164000000000000000000C00000013000000112700003C000000060000000200000029B60BB6801B0740A0447665293016400000000000000000483BF707393A0440A04476652930164000000000000000000C00000016000000000000C00C000000
310
12000000FF7F00000C00000017000000000000000C000000130000009A3A00000C00000016000000000000C00C00000012000000FF7F00000C00000017000000FFFFFFFF
100
AcDbMLeader
300
CONTEXT_DATA{
 40
1.0
 10
1.435571947864377
 20
5.547032914489278
 30
0.0
 41
0.09
140
0.12
145
0.09
174
     1
175
     1
176
     2
177
     0
290
     1
304
\A1;{\Fromans|c0;FINISH GRADE}
 11
0.0
 21
0.0
 31
1.0
340
C045
 12
2.43842909072152
 22
5.601032914489278
 32
0.0
 13
1.0
 23
0.0
 33
0.0
 42
0.0
 43
1.103598709908588
 44
0.0
 45
1.0
170
     1
 90
-1073741824
171
     3
172
     5
 91
-1073741824
141
0.0
 92
        0
291
     0
292
     0
173
     0
293
     0
142
0.0
143
0.0
294
     0
295
     0
296
     0
110
3.492853664737488
120
5.208324309343364
130
0.0
111
1.0
121
0.0
131
0.0
112
0.0
122
1.0
132
0.0
297
     0
302
LEADER{
290
     1
291
     1
 10
2.888429090721519
 20
5.547032914489278
 30
0.0
 11
-1.0
 21
0.0
 31
0.0
 90
        0
 40
0.36
304
LEADER_LINE{
 10
3.492853664737488
 20
5.208324309343364
 30
0.0
 91
        0
305
}
303
}
301
}
340
C048
 90
   279552
170
     1
 91
-1056964608
341
14
171
    -2
290
     1
291
     1
 41
0.36
 42
0.12
172
     2
343
C045
173
     1
 95
        1
174
     1
175
     2
 92
-1056964608
292
     0
 93
-1056964608
 10
1.0
 20
1.0
 30
1.0
 43
0.0
176
     0
293
     0
294
     0
178
   256
179
     3
 45
1.0
1001
ACAD_MLEADERVER
1070
     2
  0
MULTILEADER
  5
C071
102
{ACAD_XDICTIONARY
360
C072
102
}
102
{ACAD_REACTORS
330
C073
102
}
330
1F
100
AcDbEntity
  8
NETAFIM-L-DETL-TEXT-LEADER-025M
 92
      744
310
E8020000150000000C00000016000000000000C00C00000013000000993A0000A80000000B000000ABE8DCC37DFCF93F7B8F408095351440000000000000000000000000000000000000000000000000000000000000F03F000000000000F03F000000000000000000000000000000004149522F56414355554D00E00A0000
310
00010000000AD7A3703D0AB73F000000000000F03F0000000000000000000000000000F03F0000000000000000000000000000000000000000726F6D616E732E736878000100000000AC0000000B0000003BABD2ECD98BF83F2162D1F334931340000000000000000000000000000000000000000000000000000000000000
310
F03F000000000000F03F0000000000000000000000000000000052454C4945462056414C5645000061000C000000010000000AD7A3703D0AB73F000000000000F03F0000000000000000000000000000F03F0000000000000000000000000000000000000000726F6D616E732E7368780000000073000C000000100000000B
310
0000000C00000016000000000000C00C00000012000000FF7F00000C00000013000000010000000C0000001400000001000000540000000700000003000000AD5100173E7712400E402ECAF9A412400000000000000000E806760FD1E812406CAE2992CA7112400000000000000000CEFB6C04C86C1240002099C95F7D1240
310
00000000000000000C00000013000000891300003C0000000600000002000000BEA6B60D0372124007B0E3C92C911240000000000000000029B60BB6801B0740F8C230A23963144000000000000000000C00000013000000112700003C000000060000000200000029B60BB6801B0740F8C230A23963144000000000000000
310
00483BF707393A0440F8C230A23963144000000000000000000C00000016000000000000C00C00000012000000FF7F00000C00000017000000000000000C000000130000009A3A00000C00000016000000000000C00C00000012000000FF7F00000C00000017000000FFFFFFFF
100
AcDbMLeader
300
CONTEXT_DATA{
 40
1.0
 10
1.461286233578663
 20
5.096899542070552
 30
0.0
 41
0.09
140
0.12
145
0.09
174
     1
175
     1
176
     2
177
     0
290
     1
304
\A1;{\Fromans|c0;AIR/VACUUM\PRELIEF VALVE}
 11
0.0
 21
0.0
 31
1.0
340
C045
 12
2.43842909072152
 22
5.150899542070552
 32
0.0
 13
1.0
 23
0.0
 33
0.0
 42
0.0
 43
1.086620288852273
 44
0.0
 45
1.0
170
     1
 90
-1073741824
171
     3
172
     5
 91
-1073741824
141
0.0
 92
        0
291
     0
292
     0
173
     0
293
     0
142
0.0
143
0.0
294
     0
295
     0
296
     0
110
4.727360002116007
120
4.611124309343363
130
0.0
111
1.0
121
0.0
131
0.0
112
0.0
122
1.0
132
0.0
297
     0
302
LEADER{
290
     1
291
     1
 10
2.888429090721519
 20
5.096899542070552
 30
0.0
 11
-1.0
 21
0.0
 31
0.0
 90
        0
 40
0.36
304
LEADER_LINE{
 10
4.727360002116007
 20
4.611124309343363
 30
0.0
 91
        0
305
}
303
}
301
}
340
C048
 90
   279552
170
     1
 91
-1056964608
341
14
171
    -2
290
     1
291
     1
 41
0.36
 42
0.12
172
     2
343
C045
173
     1
 95
        1
174
     1
175
     2
 92
-1056964608
292
     0
 93
-1056964608
 10
1.0
 20
1.0
 30
1.0
 43
0.0
176
     0
293
     0
294
     0
178
   256
179
     3
 45
1.0
1001
ACAD_MLEADERVER
1070
     2
  0
MULTILEADER
  5
C074
102
{ACAD_XDICTIONARY
360
C075
102
}
102
{ACAD_REACTORS
330
C076
102
}
330
1F
100
AcDbEntity
  8
NETAFIM-L-DETL-TEXT-LEADER-025M
 92
      740
310
E4020000150000000C00000016000000000000C00C00000013000000993A0000A80000000B0000009589EBAD1E0BFC3F9F5D232B08401240000000000000000000000000000000000000000000000000000000000000F03F000000000000F03F00000000000000000000000000000000362220524F554E44004D00E0080000
310
00010000000AD7A3703D0AB73F000000000000F03F0000000000000000000000000000F03F0000000000000000000000000000000000000000726F6D616E732E736878000100000000A80000000B0000001DD790CF054AFB3F4530B49EA79D1140000000000000000000000000000000000000000000000000000000000000
310
F03F000000000000F03F0000000000000000000000000000000056414C564520424F5800000009000000010000000AD7A3703D0AB73F000000000000F03F0000000000000000000000000000F03F0000000000000000000000000000000000000000726F6D616E732E7368780000000000000C000000100000000B0000000C
310
00000016000000000000C00C00000012000000FF7F00000C00000013000000010000000C0000001400000001000000540000000700000003000000F2DD995DA03A0D40DE30B2FB01281240000000000000000056926D38152A0E40C8FA12EC980512400000000000000000F6FB97F03F310D40A36A792351FF114000000000
310
000000000C00000013000000891300003C0000000600000002000000F4EC1827F0350D40C1CD958FA9131240000000000000000029B60BB6801B07401C91134DAC6D124000000000000000000C00000013000000112700003C000000060000000200000029B60BB6801B07401C91134DAC6D12400000000000000000483BF7
310
07393A04401C91134DAC6D124000000000000000000C00000016000000000000C00C00000012000000FF7F00000C00000017000000000000000C000000130000009A3A00000C00000016000000000000C00C00000012000000FF7F00000C00000017000000FFFFFFFF
100
AcDbMLeader
300
CONTEXT_DATA{
 40
1.0
 10
1.619857662150091
 20
4.607102588958039
 30
0.0
 41
0.09
140
0.12
145
0.09
174
     1
175
     1
176
     2
177
     0
290
     1
304
\A1;{\Fromans|c0;6" ROUND\PVALVE BOX}
 11
0.0
 21
0.0
 31
1.0
340
C045
 12
2.43842909072152
 22
4.661102588958039
 32
0.0
 13
1.0
 23
0.0
 33
0.0
 42
0.0
 43
0.8574113327173975
 44
0.0
 45
1.0
170
     1
 90
-1073741824
171
     3
172
     5
 91
-1073741824
141
0.0
 92
        0
291
     0
292
     0
173
     0
293
     0
142
0.0
143
0.0
294
     0
295
     0
296
     0
110
3.770548287242756
120
4.505466164263175
130
0.0
111
1.0
121
0.0
131
0.0
112
0.0
122
1.0
132
0.0
297
     0
302
LEADER{
290
     1
291
     1
 10
2.888429090721519
 20
4.607102588958039
 30
0.0
 11
-1.0
 21
0.0
 31
0.0
 90
        0
 40
0.36
304
LEADER_LINE{
 10
3.770548287242756
 20
4.505466164263175
 30
0.0
 91
        0
305
}
303
}
301
}
340
C048
 90
   279552
170
     1
 91
-1056964608
341
14
171
    -2
290
     1
291
     1
 41
0.36
 42
0.12
172
     2
343
C045
173
     1
 95
        1
174
     1
175
     2
 92
-1056964608
292
     0
 93
-1056964608
 10
1.0
 20
1.0
 30
1.0
 43
0.0
176
     0
293
     0
294
     0
178
   256
179
     3
 45
1.0
1001
ACAD_MLEADERVER
1070
     2
  0
MULTILEADER
  5
C077
102
{ACAD_XDICTIONARY
360
C078
102
}
102
{ACAD_REACTORS
330
C079
102
}
330
1F
100
AcDbEntity
  8
NETAFIM-L-DETL-TEXT-LEADER-025M
 92
      752
310
F0020000150000000C00000016000000000000C00C00000013000000993A0000AC0000000B0000005AE167737687F53F54C27965FB780F40000000000000000000000000000000000000000000000000000000000000F03F000000000000F03F00000000000000000000000000000000332F34224D205820312F3222460061
310
000D000000010000000AD7A3703D0AB73F000000000000F03F0000000000000000000000000000F03F0000000000000000000000000000000000000000726F6D616E732E736878000000007300B00000000B00000010EDEFC01BA9F03FA1679B4C3A340E400000000000000000000000000000000000000000000000000000
310
00000000F03F000000000000F03F00000000000000000000000000000000524544554354494F4E2042555348494E47006C0011000000010000000AD7A3703D0AB73F000000000000F03F0000000000000000000000000000F03F0000000000000000000000000000000000000000726F6D616E732E7368780000000000000C
310
000000100000000B0000000C00000016000000000000C00C00000012000000FF7F00000C00000013000000010000000C00000014000000010000005400000007000000030000002E2D78A0F4511240CEE5E045B80311400000000000000000481C0BE883CE124004A9E49DC40111400000000000000000D25681360E581240
310
6072B17137DB104000000000000000000C00000013000000891300003C000000060000000200000000C27C6B01551240172CC9DB77EF1040000000000000000029B60BB6801B074050295AA943D40F4000000000000000000C00000013000000112700003C000000060000000200000029B60BB6801B074050295AA943D40F
310
400000000000000000483BF707393A044050295AA943D40F4000000000000000000C00000016000000000000C00C00000012000000FF7F00000C00000017000000000000000C000000130000009A3A00000C00000016000000000000C00C00000012000000FF7F00000C00000017000000FFFFFFFF
100
AcDbMLeader
300
CONTEXT_DATA{
 40
1.0
 10
0.9684290907215205
 20
3.97864467913056
 30
0.0
 41
0.09
140
0.12
145
0.09
174
     1
175
     1
176
     2
177
     0
290
     1
304
\A1;{\Fromans|c0;3/4"M X 1/2"F \PREDUCTION BUSHING}
 11
0.0
 21
0.0
 31
1.0
340
C045
 12
2.43842909072152
 22
4.032644679130561
 32
0.0
 13
1.0
 23
0.0
 33
0.0
 42
0.0
 43
1.511081322759437
 44
0.0
 45
1.0
170
     1
 90
-1073741824
171
     3
172
     5
 91
-1073741824
141
0.0
 92
        0
291
     0
292
     0
173
     0
293
     0
142
0.0
143
0.0
294
     0
295
     0
296
     0
110
4.701675058057908
120
4.251726595956146
130
0.0
111
1.0
121
0.0
131
0.0
112
0.0
122
1.0
132
0.0
297
     0
302
LEADER{
290
     1
291
     1
 10
2.888429090721519
 20
3.97864467913056
 30
0.0
 11
-1.0
 21
0.0
 31
0.0
 90
        0
 40
0.36
304
LEADER_LINE{
 10
4.701675058057908
 20
4.251726595956146
 30
0.0
 91
        0
305
}
303
}
301
}
340
C048
 90
   279552
170
     1
 91
-1056964608
341
14
171
    -2
290
     1
291
     1
 41
0.36
 42
0.12
172
     2
343
C045
173
     1
 95
        1
174
     1
175
     2
 92
-1056964608
292
     0
 93
-1056964608
 10
1.0
 20
1.0
 30
1.0
 43
0.0
176
     0
293
     0
294
     0
178
   256
179
     3
 45
1.0
1001
ACAD_MLEADERVER
1070
     2
  0
MULTILEADER
  5
C07A
102
{ACAD_XDICTIONARY
360
C07B
102
}
102
{ACAD_REACTORS
330
C07C
102
}
330
1F
100
AcDbEntity
  8
NETAFIM-L-DETL-TEXT-LEADER-025M
 92
     1072
310
30040000170000000C00000016000000000000C00C00000013000000993A0000A80000000B00000076A7B92D4E32EB3F3DA2972DA5470A40000000000000000000000000000000000000000000000000000000000000F03F000000000000F03F00000000000000000000000000000000546563686C696E6500000000080000
310
00010000000AD7A3703D0AB73F000000000000F03F0000000000000000000000000000F03F0000000000000000000000000000000000000000726F6D616E732E7368780000000000009C0000000B0000005EF5C355E219F63F8749ADD712460A40000000000000000000000000000000000000000000000000000000000000
310
F03F000000000000F03F00000000000000000000000000000000AE00000001000000010000000AD7A3703D0AB73F000000000000F03F0000000000000000000000000000F03F0000000000000000000000000000000000000000417269616C00000000000000A80000000B0000004582765D1796F73F3DA2972DA5470A4000
310
0000000000000000000000000000000000000000000000000000000000F03F000000000000F03F00000000000000000000000000000000203138302D444547524545000B000000010000000AD7A3703D0AB73F000000000000F03F0000000000000000000000000000F03F0000000000000000000000000000000000000000
310
726F6D616E732E736878000100000000B00000000B00000016B19693AC1CF03F54167AA4DF120940000000000000000000000000000000000000000000000000000000000000F03F000000000000F03F00000000000000000000000000000000322D574159204144415054455220544545006C0011000000010000000AD7A3
310
703D0AB73F000000000000F03F0000000000000000000000000000F03F0000000000000000000000000000000000000000726F6D616E732E7368780000000000000C000000100000000B0000000C00000016000000000000C00C00000012000000FF7F00000C00000013000000010000000C00000014000000010000005400
310
00000700000003000000D99A824EA4CF12400132F9158B170E400000000000000000207D2E60FA4B134080AB9337F6260E400000000000000000827C21EDDCD812400A91BBE9B9C70D4000000000000000000C00000013000000891300003C0000000600000002000000AD0BD29D40D412408661DA7FA2EF0D400000000000
310
00000029B60BB6801B0740703AB7E1F1920A4000000000000000000C00000013000000112700003C000000060000000200000029B60BB6801B0740703AB7E1F1920A400000000000000000483BF707393A0440703AB7E1F1920A4000000000000000000C00000016000000000000C00C00000012000000FF7F00000C000000
310
17000000000000000C000000130000009A3A00000C00000016000000000000C00C00000012000000FF7F00000C00000017000000FFFFFFFF
100
AcDbMLeader
300
CONTEXT_DATA{
 40
1.0
 10
0.7641765083788974
 20
3.321750415233786
 30
0.0
 41
0.09
140
0.12
145
0.09
174
     1
175
     1
176
     2
177
     0
290
     1
304
\A1;{\Fromans|c0;Techline\A0;\fArial|b0|i0|c0|p34;®\A1;\Fromans|c0; 180-DEGREE\P2-WAY ADAPTER TEE}
 11
0.0
 21
0.0
 31
1.0
340
C045
 12
2.43842909072152
 22
3.375750415233786
 32
0.0
 13
1.0
 23
0.0
 33
0.0
 42
0.0
 43
1.774247157256887
 44
0.0
 45
1.0
170
     1
 90
-1073741824
171
     3
172
     5
 91
-1073741824
141
0.0
 92
        0
291
     0
292
     0
173
     0
293
     0
142
0.0
143
0.0
294
     0
295
     0
296
     0
110
4.824197295033883
120
3.769024309343364
130
0.0
111
1.0
121
0.0
131
0.0
112
0.0
122
1.0
132
0.0
297
     0
302
LEADER{
290
     1
291
     1
 10
2.888429090721519
 20
3.321750415233786
 30
0.0
 11
-1.0
 21
0.0
 31
0.0
 90
        0
 40
0.36
304
LEADER_LINE{
 10
4.824197295033883
 20
3.769024309343365
 30
0.0
 91
        0
305
}
303
}
301
}
340
C048
 90
   279552
170
     1
 91
-1056964608
341
14
171
    -2
290
     1
291
     1
 41
0.36
 42
0.12
172
     2
343
C045
173
     1
 95
        1
174
     1
175
     2
 92
-1056964608
292
     0
 93
-1056964608
 10
1.0
 20
1.0
 30
1.0
 43
0.0
176
     0
293
     0
294
     0
178
   256
179
     3
 45
1.0
1001
ACAD_MLEADERVER
1070
     2
  0
MULTILEADER
  5
C07D
102
{ACAD_XDICTIONARY
360
C07E
102
}
102
{ACAD_REACTORS
330
C07F
102
}
330
1F
100
AcDbEntity
  8
NETAFIM-L-DETL-TEXT-LEADER-025M
 92
      740
310
E4020000150000000C00000016000000000000C00C00000013000000993A0000AC0000000B000000681A5F4D7C4BF43FD10F775226A30540000000000000000000000000000000000000000000000000000000000000F03F000000000000F03F00000000000000000000000000000000425249434B20535550504F52545300
310
450E000000010000000AD7A3703D0AB73F000000000000F03F0000000000000000000000000000F03F0000000000000000000000000000000000000000726F6D616E732E736878007300780000A40000000B000000F98DFEAABCB7FE3F1EB59839655E04400000000000000000000000000000000000000000000000000000
310
00000000F03F000000000000F03F00000000000000000000000000000000285448524545290007000000010000000AD7A3703D0AB73F000000000000F03F0000000000000000000000000000F03F0000000000000000000000000000000000000000726F6D616E732E7368780073007800010C000000100000000B0000000C
310
00000016000000000000C00C00000012000000FF7F00000C00000013000000010000000C000000140000000100000054000000070000000300000010BB5E1567C80A4000665DC8CCE606400000000000000000009BBC1008C10B40D0CB4EE7E7F60640000000000000000083CC20CC10DB0A40EEC8B3BD0897064000000000
310
000000000C00000013000000891300003C0000000600000002000000C9C3BFF0BBD10A40779708C3EABE0640000000000000000029B60BB6801B07400F1A4EF696E0054000000000000000000C00000013000000112700003C000000060000000200000029B60BB6801B07400F1A4EF696E005400000000000000000483BF7
310
07393A04400F1A4EF696E0054000000000000000000C00000016000000000000C00C00000012000000FF7F00000C00000017000000000000000C000000130000009A3A00000C00000016000000000000C00C00000012000000FF7F00000C00000017000000FFFFFFFF
100
AcDbMLeader
300
CONTEXT_DATA{
 40
1.0
 10
1.195571947864377
 20
2.73466293741081
 30
0.0
 41
0.09
140
0.12
145
0.09
174
     1
175
     1
176
     2
177
     0
290
     1
304
\A1;{\Fromans|c0;BRICK SUPPORTS\P(THREE)}
 11
0.0
 21
0.0
 31
1.0
340
C045
 12
2.43842909072152
 22
2.79466293741081
 32
0.0
 13
1.0
 23
0.0
 33
0.0
 42
0.0
 43
1.638419607556627
 44
0.0
 45
1.0
170
     1
 90
-1073741824
171
     3
172
     5
 91
-1073741824
141
0.0
 92
        0
291
     0
292
     0
173
     0
293
     0
142
0.0
143
0.0
294
     0
295
     0
296
     0
110
3.469253664737493
120
2.870559508411567
130
0.0
111
1.0
121
0.0
131
0.0
112
0.0
122
1.0
132
0.0
297
     0
302
LEADER{
290
     1
291
     1
 10
2.888429090721519
 20
2.73466293741081
 30
0.0
 11
-1.0
 21
0.0
 31
0.0
 90
        0
 40
0.36
304
LEADER_LINE{
 10
3.469253664737493
 20
2.870559508411567
 30
0.0
 91
        0
305
}
303
}
301
}
340
C048
 90
   279552
170
     1
 91
-1056964608
341
14
171
    -2
290
     1
291
     1
 41
0.36
 42
0.12
172
     2
343
C045
173
     1
 95
        1
174
     1
175
     2
 92
-1056964608
292
     0
 93
-1056964608
 10
1.0
 20
1.0
 30
1.0
 43
0.0
176
     0
293
     0
294
     0
178
   256
179
     3
 45
1.0
1001
ACAD_MLEADERVER
1070
     2
  0
MULTILEADER
  5
C080
102
{ACAD_XDICTIONARY
360
C081
102
}
102
{ACAD_REACTORS
330
C082
102
}
330
1F
100
AcDbEntity
  8
NETAFIM-L-DETL-TEXT-LEADER-025M
 92
      752
310
F0020000150000000C00000016000000000000C00C00000013000000993A0000B00000000B0000000A789FB9A658F13FF12D40F2147F0040000000000000000000000000000000000000000000000000000000000000F03F000000000000F03F00000000000000000000000000000000332F34222047524156454C2053554D
310
500000000010000000010000000AD7A3703D0AB73F000000000000F03F0000000000000000000000000000F03F0000000000000000000000000000000000000000726F6D616E732E736878000000000000AC0000000B0000005B9211A85A64F53F7F576DE78B51FE3F00000000000000000000000000000000000000000000
310
0000000000000000F03F000000000000F03F00000000000000000000000000000000283120435542494320464F4F542900000E000000010000000AD7A3703D0AB73F000000000000F03F0000000000000000000000000000F03F0000000000000000000000000000000000000000726F6D616E732E7368780000000073000C
310
000000100000000B0000000C00000016000000000000C00C00000012000000FF7F00000C00000013000000010000000C00000014000000010000005400000007000000030000001C5CEC4DA65A12400CFE327B013504400000000000000000085A959AEED612409A8AB12912460440000000000000000016040A8A22641240
310
6D37CC0650E5034000000000000000000C00000013000000891300003C00000006000000020000001930FB6B645F1240BD9AFFC0280D0440000000000000000029B60BB6801B0740AE5FC27B13CE004000000000000000000C00000013000000112700003C000000060000000200000029B60BB6801B0740AE5FC27B13CE00
310
400000000000000000483BF707393A0440AE5FC27B13CE004000000000000000000C00000016000000000000C00C00000012000000FF7F00000C00000017000000000000000C000000130000009A3A00000C00000016000000000000C00C00000012000000FF7F00000C00000017000000FFFFFFFF
100
AcDbMLeader
300
CONTEXT_DATA{
 40
1.0
 10
1.007000519292949
 20
2.100623099202457
 30
0.0
 41
0.09
140
0.12
145
0.09
174
     1
175
     1
176
     2
177
     0
290
     1
304
\A1;{\Fromans|c0;3/4" GRAVEL SUMP\P(1 CUBIC FOOT)}
 11
0.0
 21
0.0
 31
1.0
340
C045
 12
2.43842909072152
 22
2.160623099202457
 32
0.0
 13
1.0
 23
0.0
 33
0.0
 42
0.0
 43
1.697844171878593
 44
0.0
 45
1.0
170
     1
 90
-1073741824
171
     3
172
     5
 91
-1073741824
141
0.0
 92
        0
291
     0
292
     0
173
     0
293
     0
142
0.0
143
0.0
294
     0
295
     0
296
     0
110
4.709894576421454
120
2.53421433041633
130
0.0
111
1.0
121
0.0
131
0.0
112
0.0
122
1.0
132
0.0
297
     0
302
LEADER{
290
     1
291
     1
 10
2.888429090721519
 20
2.100623099202457
 30
0.0
 11
-1.0
 21
0.0
 31
0.0
 90
        0
 40
0.36
304
LEADER_LINE{
 10
4.709894576421454
 20
2.53421433041633
 30
0.0
 91
        0
305
}
303
}
301
}
340
C048
 90
   279552
170
     1
 91
-1056964608
341
14
171
    -2
290
     1
291
     1
 41
0.36
 42
0.12
172
     2
343
C045
173
     1
 95
        1
174
     1
175
     2
 92
-1056964608
292
     0
 93
-1056964608
 10
1.0
 20
1.0
 30
1.0
 43
0.0
176
     0
293
     0
294
     0
178
   256
179
     3
 45
1.0
1001
ACAD_MLEADERVER
1070
     2
  0
MULTILEADER
  5
C083
330
1F
100
AcDbEntity
  8
NETAFIM-L-DETL-TEXT-LEADER-025M
 92
      896
310
80030000160000000C00000016000000000000C00C00000013000000993A0000A80000000B000000FD50DC96133C1D407D43274885300840000000000000000000000000000000000000000000000000000000000000F03F000000000000F03F00000000000000000000000000000000546563686C696E6500000000080000
310
00010000000AD7A3703D0AB73F000000000000F03F0000000000000000000000000000F03F0000000000000000000000000000000000000000726F6D616E732E7368780001000000009C0000000B00000066199666425C1F40C7EA3CF2F22E0840000000000000000000000000000000000000000000000000000000000000
310
F03F000000000000F03F00000000000000000000000000000000AE00000001000000010000000AD7A3703D0AB73F000000000000F03F0000000000000000000000000000F03F0000000000000000000000000000000000000000417269616C00000000000000A80000000B0000007E2931B1852A1D4094B709BFBFFB064000
310
0000000000000000000000000000000000000000000000000000000000F03F000000000000F03F00000000000000000000000000000000445249504C494E450000000008000000010000000AD7A3703D0AB73F000000000000F03F0000000000000000000000000000F03F0000000000000000000000000000000000000000
310
726F6D616E732E7368780000000000000C000000100000000B0000000C00000016000000000000C00C00000012000000FF7F00000C00000013000000010000000C0000001400000001000000540000000700000003000000D33155EA7C06194023269E4F97D90D400000000000000000D0D094C6F9C5184048AB2BFABAAE0E
310
4000000000000000004EE1005E90251940A4F6AC38F50E0E4000000000000000000C00000013000000891300003C000000060000000200000091092BA406161940638E254446F40D40000000000000000030840FCA466F1B40B0DB46FCD17B084000000000000000000C00000013000000112700003C000000060000000200
310
000030840FCA466F1B40B0DB46FCD17B08400000000000000000A1C119A1EADF1C40B0DB46FCD17B084000000000000000000C00000016000000000000C00C00000012000000FF7F00000C00000017000000000000000C000000130000009A3A00000C00000016000000000000C00C00000012000000FF7F00000C00000017
310
000000FFFFFFFF
100
AcDbMLeader
300
CONTEXT_DATA{
 40
1.0
 10
7.218668477246326
 20
3.060459109222811
 30
0.0
 41
0.09
140
0.12
145
0.09
174
     1
175
     1
176
     0
177
     0
290
     1
304
\A1;{\Fromans|c0;Techline\A0;\fArial|b0|i0|c0|p34;®\A1;\Fromans|c0; DRIPLINE}
 11
0.0
 21
0.0
 31
1.0
340
C045
 12
7.308668477246325
 22
3.114459109222811
 32
0.0
 13
1.0
 23
0.0
 33
0.0
 42
0.0
 43
0.82344887421754
 44
0.0
 45
1.0
170
     1
 90
-1073741824
171
     1
172
     5
 91
-1073741824
141
0.0
 92
        0
291
     0
292
     0
173
     0
293
     0
142
0.0
143
0.0
294
     0
295
     0
296
     0
110
6.193335631211269
120
3.835317568261789
130
0.0
111
1.0
121
0.0
131
0.0
112
0.0
122
1.0
132
0.0
297
     0
302
LEADER{
290
     1
291
     1
 10
6.858668477246325
 20
3.060459109222811
 30
0.0
 11
1.0
 21
0.0
 31
0.0
 90
        0
 40
0.36
304
LEADER_LINE{
 10
6.193335631211269
 20
3.835317568261789
 30
0.0
 91
        0
305
}
303
}
301
}
340
C048
 90
   279552
170
     1
 91
-1056964608
341
14
171
    -2
290
     1
291
     1
 41
0.36
 42
0.12
172
     2
343
C045
173
     1
 95
        1
174
     1
175
     0
 92
-1056964608
292
     0
 93
-1056964608
 10
1.0
 20
1.0
 30
1.0
 43
0.0
176
     0
293
     0
294
     0
178
   256
179
     1
 45
1.0
1001
ACAD_MLEADERVER
1070
     2
  0
MTEXT
  5
C125
330
1F
100
AcDbEntity
  8
NETAFIM-D-NPLT
100
AcDbMText
 10
-0.7827171174748458
 20
0.2352495300830739
 30
0.0
 40
0.06
 41
6.843161446901433
 71
     1
 72
     5
  3
{\fArial|b0|i0|c0|p34;LIMITATIONS:\P\PALLOWING FOR A WIDE VARIETY OF APPLICATIONS AND CONDITIONS, NETAFIM IRRIGATION INC. IS NOT RESPONSIBLE FOR CORRECTNESS OR APPLICABILITY TO PURPOSE OR COMPATIBILITY TO ANY SITE OR JOB CONDITION. WARRANTY FOR SUITA
  3
BILITY IS NOT GIVEN OR IMPLIED. MODIFICATIONS FOR SPECIFIC PURPOSES MAY BE NECESSARY AND ARE THE SPECIFIERS' RESPONSIBILITY. THE USE OF THESE DETAILS SHALL NOT BE RESTRICTED AND PUBLICATION THEREOF IS NOT LIMITED TO ANY PURPOSE.  REPRODUCTION, PUBLIC
  1
ATION AND REUSE BY ANY METHOD IN WHOLE OR PART IS FULLY AUTHORIZED. OWNERSHIP IS RETAINED BY NETAFIM IRRIGATION INC.  VISUAL CONTACT WITH THESE DETAILS SHALL CONSTITUTE PRIMA FACIA EVIDENCE OF THE ACCEPTANCE OF THESE RESTRICTIONS.}
  7
DETAIL TEXT
 11
0.0000000000000001
 21
1.0
 31
0.0
 73
     1
 44
1.0
1001
ACAD
1000
ACAD_MTEXT_COLUMN_INFO_BEGIN
1070
    75
1070
     2
1070
    79
1070
     0
1070
    76
1070
     1
1070
    78
1070
     0
1070
    48
1040
6.843161446901433
1070
    49
1040
0.45
1070
    50
1070
     1
1040
0.0
1000
ACAD_MTEXT_COLUMN_INFO_END
  0
LWPOLYLINE
  5
C126
330
1F
100
AcDbEntity
  8
NETAFIM-D-NPLT
100
AcDbPolyline
 90
        4
 70
     1
 43
0.0
 10
0.0
 20
7.124999999999998
 10
-0.8951802582263113
 20
7.124999999999998
 10
-0.8951802582263113
 20
0.0
 10
0.0
 20
0.0
  0
ENDSEC
  0
SECTION
  2
OBJECTS
  0
DICTIONARY
  5
C
330
0
100
AcDbDictionary
281
     1
  3
ACAD_CIP_PREVIOUS_PRODUCT_INFO
350
C0DC
  3
ACAD_COLOR
350
73
  3
ACAD_GROUP
350
D
  3
ACAD_LAYOUT
350
1A
  3
ACAD_MATERIAL
350
72
  3
ACAD_MLEADERSTYLE
350
D7
  3
ACAD_MLINESTYLE
350
17
  3
ACAD_PLOTSETTINGS
350
19
  3
ACAD_PLOTSTYLENAME
350
E
  3
ACAD_SCALELIST
350
B6
  3
ACAD_TABLESTYLE
350
86
  3
ACAD_VISUALSTYLE
350
99
  3
ACDB_RECOMPOSE_DATA
350
C1B4
  3
AcDbVariableDictionary
350
66
  3
ADE_QUERY_LIBRARY
350
18F
  3
AEC_PROPERTY_SET_DEFS
350
C121
  3
ASE_INDEX_DICTIONARY
350
1FA
  3
Autodesk_MAP
350
179
1001
ADE
1000
ADE02C004
1000
[Query]
1000
CaseSensitiveMatch=0
1000
SaveCurrQueryInSession=1
1000
MkSelSetWithQryObj=0
1000
ShowBlockAsInsPt=0
1000
CreateAssociativeHatchObjects=0
1000
ReferenceBoundaryForAreaLocation=1
1000
ShowImageAsBoundary=1
1000
DefaultJoinOperator=2
1000
ColorForAdd=red
1000
ColorForRemove=red
1000
BlockLocnForQuery=1
1000
TextLocnForQuery=1
1000
IncludeAllObjectsInGroups=0
1000
AlwaysUseLibraryDefinitions=0
1000
PreviewDefinitionsFrom=2
1000
[Save Back]
1000
RedefineBlockDefinitions=1
1000
RedefineLayerDefinitions=1
1000
RedefineTextStyleDefinitions=1
1000
RemoveUnusedGroups=1
1000
EraseSavedBackObjects=1
1000
RemoveLockAfterSave=1
1000
CreateHistoryFileOfChanges=0
1000
CreateBackupFileOfSourceDwg=1
1000
DontAddObjectsToSaveSet=0
1000
MarkObjectsForEditingWithoutPrompting=0
1000
FdoDontAddObjsToSvSet=0
1000
FdoEditWithoutPrompt=1
1000
FdoRemUnusedGrps=1
1000
FdoEraseSvdBkObjs=1
1000
FdoRemoveLockOnSave=1
1000
FdoTesselationMaxPointsDistance=0
1000
FdoTesselationMaxCurvesDistance=0
1000
[Coordinate Transformation]
1000
RestoreLastActiveDwgsOnStartup=1
1000
ActivateDwgsOnAttach=1
1000
AdjustSizesAndScalesForChangesInUnits=1
1000
AdjustRotationsForMapDistortions=1
1000
AdjustSizesAndScalesForMapDistortions=1
1000
AdjustElevations=1
1000
AdjustZeroRotationObjects=1
1000
ReconnectDbOnWSOpen=1
1000
NoOfSQLConditionsInHistory=10
  0
DICTIONARY
  5
C174
330
8
100
AcDbDictionary
280
     1
281
     1
  0
DICTIONARY
  5
20C
330
2
100
AcDbDictionary
280
     1
281
     1
  3
ACAD_LAYERSTATES
360
20D
  0
DICTIONARY
  5
E6
330
10
100
AcDbDictionary
280
     1
281
     1
  0
DICTIONARY
  5
1A2
330
1A1
100
AcDbDictionary
280
     1
281
     1
  0
DICTIONARY
  5
1A4
330
1A3
100
AcDbDictionary
280
     1
281
     1
  0
DICTIONARY
  5
1A8
330
1A7
100
AcDbDictionary
280
     1
281
     1
  0
DICTIONARY
  5
C044
330
C043
100
AcDbDictionary
280
     1
281
     1
  0
DICTIONARY
  5
15D
330
1F
100
AcDbDictionary
280
     1
281
     1
  3
ACAD_GEOGRAPHICDATA
360
18D
  3
ACAD_SORTENTS
360
188
  0
DICTIONARY
  5
C06F
330
C06E
100
AcDbDictionary
280
     1
281
     1
  3
ACAD_DIMASSOC
360
C070
  0
DICTIONARY
  5
C072
330
C071
100
AcDbDictionary
280
     1
281
     1
  3
ACAD_DIMASSOC
360
C073
  0
DICTIONARY
  5
C075
330
C074
100
AcDbDictionary
280
     1
281
     1
  3
ACAD_DIMASSOC
360
C076
  0
DICTIONARY
  5
C078
330
C077
100
AcDbDictionary
280
     1
281
     1
  3
ACAD_DIMASSOC
360
C079
  0
DICTIONARY
  5
C07B
330
C07A
100
AcDbDictionary
280
     1
281
     1
  3
ACAD_DIMASSOC
360
C07C
  0
DICTIONARY
  5
C07E
330
C07D
100
AcDbDictionary
280
     1
281
     1
  3
ACAD_DIMASSOC
360
C07F
  0
DICTIONARY
  5
C081
330
C080
100
AcDbDictionary
280
     1
281
     1
  3
ACAD_DIMASSOC
360
C082
  0
XRECORD
  5
C0DC
102
{ACAD_REACTORS
330
C
102
}
330
C
100
AcDbXrecord
280
     1
300
MAP
300
2012
300
MAP_F_S
  0
DICTIONARY
  5
73
102
{ACAD_REACTORS
330
C
102
}
330
C
100
AcDbDictionary
281
     1
  0
DICTIONARY
  5
D
102
{ACAD_REACTORS
330
C
102
}
330
C
100
AcDbDictionary
281
     1
  0
DICTIONARY
  5
1A
102
{ACAD_REACTORS
330
C
102
}
330
C
100
AcDbDictionary
281
     1
  3
Layout1
350
59
  3
Layout2
350
5E
  3
Model
350
22
  0
DICTIONARY
  5
72
102
{ACAD_REACTORS
330
C
102
}
330
C
100
AcDbDictionary
281
     1
  3
ByBlock
350
97
  3
ByLayer
350
96
  3
Global
350
98
  0
DICTIONARY
  5
D7
102
{ACAD_REACTORS
330
C
102
}
330
C
100
AcDbDictionary
281
     1
  3
Netafim Detail
350
C048
  3
Standard
350
D8
  0
DICTIONARY
  5
17
102
{ACAD_REACTORS
330
C
102
}
330
C
100
AcDbDictionary
281
     1
  3
Standard
350
18
  0
DICTIONARY
  5
19
102
{ACAD_REACTORS
330
C
102
}
330
C
100
AcDbDictionary
281
     1
  0
ACDBDICTIONARYWDFLT
  5
E
102
{ACAD_REACTORS
330
C
102
}
330
C
100
AcDbDictionary
281
     1
  3
Normal
350
F
100
AcDbDictionaryWithDefault
340
F
  0
DICTIONARY
  5
B6
102
{ACAD_REACTORS
330
C
102
}
330
C
100
AcDbDictionary
281
     1
  3
A0
350
B7
  3
A1
350
124
  3
A2
350
125
  3
A3
350
126
  3
A4
350
127
  3
A5
350
128
  3
A6
350
129
  3
A7
350
12A
  3
A8
350
12B
  3
A9
350
12C
  3
B0
350
12D
  3
B1
350
12E
  3
B2
350
12F
  3
B3
350
130
  3
B4
350
131
  3
B5
350
132
  3
B6
350
133
  3
B7
350
134
  3
B8
350
135
  3
B9
350
136
  3
C0
350
137
  3
C1
350
138
  3
C2
350
139
  3
C3
350
13A
  3
C4
350
13B
  3
C5
350
13C
  3
C6
350
13D
  3
C7
350
13E
  3
C8
350
13F
  3
C9
350
140
  3
D0
350
141
  3
D1
350
142
  3
D2
350
143
  0
DICTIONARY
  5
86
102
{ACAD_REACTORS
330
C
102
}
330
C
100
AcDbDictionary
281
     1
  3
Legend
350
181
  3
Standard
350
87
  0
DICTIONARY
  5
99
102
{ACAD_REACTORS
330
C
102
}
330
C
100
AcDbDictionary
281
     1
  3
2dWireframe
350
9F
  3
3D Hidden
350
A1
  3
3dWireframe
350
A0
  3
Basic
350
9E
  3
Brighten
350
A5
  3
ColorChange
350
A9
  3
Conceptual
350
A2
  3
Dim
350
A4
  3
EdgeColorOff
350
175
  3
Facepattern
350
A8
  3
Flat
350
9A
  3
FlatWithEdges
350
9B
  3
Gouraud
350
9C
  3
GouraudWithEdges
350
9D
  3
Hidden
350
1AE
  3
JitterOff
350
173
  3
Linepattern
350
A7
  3
OverhangOff
350
174
  3
Realistic
350
A3
  3
Shaded
350
1B1
  3
Shaded with edges
350
1B4
  3
Shades of Gray
350
1B7
  3
Sketchy
350
1BA
  3
Thicken
350
A6
  3
Wireframe
350
1BD
  3
X-Ray
350
1C0
  0
XRECORD
  5
C1B4
102
{ACAD_REACTORS
330
C
102
}
330
C
100
AcDbXrecord
280
     1
 90
        1
330
87
330
181
330
C125
  0
DICTIONARY
  5
66
102
{ACAD_REACTORS
330
C
102
}
330
C
100
AcDbDictionary
281
     1
  3
CANNOSCALE
350
F0
  3
CMLEADERSTYLE
350
EF
  3
CTABLESTYLE
350
89
  3
DIMASSOC
350
67
  3
EXPORTMODELSPACE
350
C150
  3
HIDETEXT
350
6B
  3
LAYEREVAL
350
14D
  3
LAYERNOTIFY
350
14E
  3
LIGHTINGUNITS
350
6D8
  3
MSLTSCALE
350
C1A3
  3
STEPSIZE
350
C1A4
  3
XCLIPFRAME
350
C1B1
  0
DICTIONARY
  5
18F
102
{ACAD_REACTORS
330
C
102
}
330
C
100
AcDbDictionary
281
     1
  3
_CurrQry
350
C1B0
  0
DICTIONARY
  5
C121
102
{ACAD_REACTORS
330
C
102
}
330
C
100
AcDbDictionary
281
     1
  0
DICTIONARY
  5
1FA
102
{ACAD_REACTORS
330
C
102
}
330
C
100
AcDbDictionary
281
     1
  3
ASEBlockHierarchyIndexRecord
350
1FB
1001
DCO15
1040
1758269037.793
  0
DICTIONARY
  5
179
102
{ACAD_REACTORS
330
C
102
}
330
C
100
AcDbDictionary
281
     1
  3
AcMapDMStylizedEntities
350
189
  3
FSD_Dictionary
350
18A
  3
MAP_DISPLAY_CUSTOMOBJ_REG_TABLE
350
17D
  3
MAP_DISPLAY_MANAGEMENT_DICTIONARY
350
17A
  3
MAP_DISPLAY_STYLELIBRARY_DICTIONARY
350
17B
  3
MAP_RESOURCE_VERSION_MANAGEMENT_DICTIONARY
350
17E
1001
MapGWS
1000
D:\ProgramData\Autodesk\AutoCAD Map 3D 2010\R18.0\MapCache\D271-Techline_AIR_VACUUM_RELIEF_PLUMBED TO TECHLINEGWS1344888541.xml
  0
DICTIONARY
  5
20D
102
{ACAD_REACTORS
330
20C
102
}
330
20C
100
AcDbDictionary
281
     1
  0
GEODATA
  5
18D
102
{ACAD_REACTORS
330
15D
102
}
330
15D
100
AcDbGeoData
 90
        1
 70
     0
330
1F
 40
37.795
 41
-122.394
 42
0.0
 91
        6
 10
0.0
 20
0.0
 30
0.0
 11
0.0
 21
0.0
 31
0.0
210
0.0
220
0.0
230
1.0
 52
0.0
 43
1.0
 44
1.0
 45
1.0
301

302
<georss:point>37.7950 -122.3940</georss:point>
 46
1.0
303

304

305

306

307

 93
        0
 96
        0
  3
CIVIL3D_DATA_BEGIN
292
     0
 14
-122.394
 24
37.795
 15
-122.394
 25
37.795
 93
        0
 94
        0
293
     0
 16
0.0
 26
0.0
 17
0.0
 27
0.0
 54
0.0
140
0.0
 95
        3
141
1.0
294
     0
142
0.0
143
0.0
  4
CIVIL3D_DATA_END
  0
SORTENTSTABLE
  5
188
102
{ACAD_REACTORS
330
15D
102
}
330
15D
100
AcDbSortentsTable
330
1F
331
BFFB
  5
BFFB
331
BFA4
  5
BFA4
331
BE00
  5
BE06
331
BDC9
  5
BDCF
331
BD53
  5
BD59
331
BD14
  5
BD1A
331
BD8A
  5
BD91
331
BFAC
  5
BFAC
331
B708
  5
B709
331
BDD1
  5
BDD7
331
BE7E
  5
BE85
331
BD5B
  5
BD61
331
BD1C
  5
BD22
331
BD92
  5
BD98
331
BFB4
  5
BFB4
331
86C9
  5
86C9
331
BF75
  5
BF75
331
BE4F
  5
BE55
331
BDD9
  5
BDDF
331
BE10
  5
BE16
331
BD9A
  5
BDA0
331
BFBC
  5
BFBC
331
86D1
  5
86D1
331
BF7D
  5
BF7D
331
BE57
  5
BE5D
331
BE8E
  5
BE94
331
BDA2
  5
BDA8
331
BE18
  5
BE1E
331
BCEF
  5
BCF5
331
8682
  5
8682
331
BE96
  5
BE9C
331
BF85
  5
BF85
331
BFC4
  5
BFC4
331
BE20
  5
BE26
331
BDE1
  5
BDE7
331
BDAA
  5
BDB0
331
B9F8
  5
B9F9
331
BD6B
  5
BD73
331
BCF5
  5
BCFB
331
BD34
  5
BD3A
331
BFCC
  5
BFCC
331
BF8D
  5
BF8D
331
868A
  5
868A
331
BE5F
  5
BE65
331
BDE9
  5
BDEF
331
BE28
  5
BE2E
331
BE9E
  5
BEA4
331
BDB2
  5
BDB8
331
BCFD
  5
BD03
331
BD3C
  5
BD42
331
BF95
  5
BF95
331
89B1
  5
89B1
331
BE30
  5
BE36
331
BE67
  5
BE6D
331
BEA6
  5
BEAC
331
BDBA
  5
BDC0
331
BD44
  5
BD4A
331
BD05
  5
BD0B
331
BD7B
  5
BD81
331
BDF1
  5
BDF7
331
BFF4
  5
BFF4
331
BF9D
  5
BF9D
331
BA58
  5
BA58
331
BEAE
  5
BA6D
331
BE38
  5
BE3E
331
BE6F
  5
BE75
331
BDF9
  5
BDFF
331
BA60
  5
BA60
331
BD4C
  5
BD53
331
BD0D
  5
BD13
331
BD83
  5
BD89
331
86BA
  5
86BA
331
BE77
  5
BE7E
331
BEB6
  5
BEB6
331
BFFC
  5
BFFC
331
BFA5
  5
BFA5
331
BE40
  5
BE47
331
BDCA
  5
BDD1
331
BE01
  5
BE07
331
BD54
  5
BD5A
331
BD15
  5
BD1B
331
BFAD
  5
BFAD
331
86C2
  5
86C2
331
BE09
  5
BE0F
331
BDD2
  5
BDD8
331
B9D1
  5
B9D2
331
BD5C
  5
BD62
331
BD1D
  5
BD23
331
BD93
  5
BD9B
331
BFB5
  5
BFB5
331
86CA
  5
86CA
331
BC38
  5
BC3E
331
BF76
  5
BF76
331
BE50
  5
BE56
331
BDDA
  5
BDE0
331
BE11
  5
BE17
331
BE87
  5
BE8D
331
BD25
  5
BD2B
331
BD9B
  5
BDA1
331
BFBD
  5
BFBD
331
86D2
  5
86D2
331
BF7E
  5
BF7E
331
BDA3
  5
BDAA
331
BE19
  5
BE1F
331
BE8F
  5
BE96
331
BD2D
  5
BD33
331
8683
  5
8683
331
BE97
  5
BE9D
331
BFC5
  5
BFC5
331
BF86
  5
BF86
331
BE58
  5
BE5E
331
BE21
  5
BE27
331
BDE2
  5
BDE8
331
BDAB
  5
BDB1
331
B9F9
  5
B9FA
331
BCF6
  5
BCFC
331
BD35
  5
BD3B
331
BFCD
  5
BFCD
331
BF8E
  5
BF8E
331
868B
  5
868B
331
BE9F
  5
BEA5
331
BE60
  5
BE66
331
BE29
  5
BE2F
331
BDEA
  5
BDF0
331
BA01
  5
BA02
331
BDB3
  5
BDB9
331
89B2
  5
89E1
331
BD74
  5
BD7B
331
BCFE
  5
BD04
331
BD3D
  5
BD43
331
BF96
  5
BF96
331
8693
  5
8693
331
BEA7
  5
BEAD
331
BE31
  5
BE38
331
BE68
  5
BE6E
331
BDF2
  5
BDF8
331
BA59
  5
BA59
331
BDBB
  5
BDC1
331
BD45
  5
BD4B
331
BD06
  5
BD0C
331
BD7C
  5
BD82
331
BFF5
  5
BFF5
331
BF9E
  5
BF9E
331
89E2
  5
89E2
331
BE39
  5
BE40
331
BE70
  5
BE76
331
BEAF
  5
BA6E
331
BDC3
  5
BDCA
331
BDFA
  5
BE00
331
BA61
  5
BA61
331
BD0E
  5
BD14
331
BD84
  5
BD8A
331
86BB
  5
86BB
331
BEB7
  5
BEB7
331
BFA6
  5
BFA6
331
BA69
  5
BA69
331
B70A
  5
B70B
331
86C3
  5
86C3
331
BD55
  5
BD5C
331
BFAE
  5
BFAE
331
BD16
  5
BD1C
331
BD8C
  5
BD92
331
BE02
  5
BE08
331
BC39
  5
BC46
331
BE49
  5
BE4F
331
B9D2
  5
B9D6
331
86CB
  5
86CB
331
BDD3
  5
BDD9
331
BD5D
  5
BD63
331
BFB6
  5
BFB6
331
BD1E
  5
BD24
331
BE0A
  5
BE10
331
BE80
  5
BE86
331
BF77
  5
BF77
331
BE51
  5
BE57
331
86D3
  5
899F
331
BDDB
  5
BDE1
331
BD65
  5
BD6B
331
BFBE
  5
BFBE
331
BD26
  5
BD2C
331
BD9C
  5
BDA2
331
BE12
  5
BE18
331
BE88
  5
BE8E
331
BF7F
  5
BF7F
331
8684
  5
8684
331
BD2E
  5
BD34
331
BE1A
  5
BE20
331
BFC6
  5
BFC6
331
BF87
  5
BF87
331
BE98
  5
BE9E
331
BE59
  5
BE5F
331
B9FA
  5
B9FB
331
BDE3
  5
BDE9
331
868C
  5
868C
331
BDAC
  5
BDB2
331
BFCE
  5
BFCE
331
BF8F
  5
BF8F
331
BCF7
  5
BCFD
331
BD36
  5
BD3C
331
BE22
  5
BE28
331
BEA0
  5
BEA6
331
BE61
  5
BE67
331
BA02
  5
BEC0
331
BDEB
  5
BDF1
331
BDB4
  5
BDBA
331
BF97
  5
BF97
331
BCFF
  5
BD05
331
BD3E
  5
BD44
331
BE2A
  5
BE30
331
BEA8
  5
BEAF
331
BE69
  5
BE6F
331
89E3
  5
8D50
331
BDBC
  5
BDC2
331
BD46
  5
BD4C
331
BFF6
  5
BFF6
331
BF9F
  5
BF9F
331
BD07
  5
BD0D
331
BD7D
  5
BD83
331
BDF3
  5
BDF9
331
BA62
  5
BA62
331
86BC
  5
86BC
331
BD4E
  5
BD54
331
BD0F
  5
BD15
331
BD85
  5
BD8B
331
BDFB
  5
BE01
331
BE71
  5
BE77
331
BEB0
  5
BA6F
331
BFA7
  5
BFA7
331
BE42
  5
BE48
331
B70B
  5
B70C
331
86C4
  5
86C4
331
BDCC
  5
BDD2
331
BFAF
  5
BFAF
331
BD17
  5
BD1E
331
BD8D
  5
BD93
331
BE03
  5
BE09
331
BE79
  5
BE7F
331
BE4A
  5
BE50
331
86CC
  5
86CC
331
BDD4
  5
BDDA
331
BD5E
  5
BD64
331
BFB7
  5
BFB7
331
BD1F
  5
BD25
331
BE0B
  5
BE11
331
BE81
  5
BE87
331
BF78
  5
BF78
331
BCEA
  5
BCF0
331
BE52
  5
BE58
331
B9DB
  5
B9DC
331
BDDC
  5
BDE3
331
BD66
  5
BD6C
331
BFBF
  5
BFBF
331
BD27
  5
BD2D
331
BD9D
  5
BDA5
331
BE13
  5
BE19
331
BE89
  5
BE8F
331
BE91
  5
BE97
331
8685
  5
8685
331
BD2F
  5
BD35
331
BDA5
  5
BDAB
331
BE1B
  5
BE21
331
BF80
  5
BF80
331
BFC7
  5
BFC7
331
BF88
  5
BF88
331
BCF0
  5
BCF6
331
BE99
  5
BE9F
331
BE5A
  5
BE60
331
B9FB
  5
B9FC
331
BDE4
  5
BDEA
331
868D
  5
868D
331
BD6E
  5
BD74
331
BFCF
  5
BFCF
331
BF90
  5
BF90
331
BCF8
  5
BCFE
331
BD37
  5
BD3F
331
BDAD
  5
BDB3
331
BE23
  5
BE29
331
BEA1
  5
BEA7
331
BE62
  5
BE68
331
BA03
  5
BA57
331
BDEC
  5
BDF2
331
BD76
  5
BD7C
331
BF98
  5
BF98
331
BD00
  5
BD06
331
BD3F
  5
BD45
331
BDB5
  5
BDBB
331
BE2B
  5
BE31
331
BE33
  5
BE39
331
86B5
  5
86B5
331
BDBD
  5
BDC3
331
BFF7
  5
BFF7
331
BD08
  5
BD0E
331
BD47
  5
BD4D
331
BD7E
  5
BD84
331
BDF4
  5
BDFA
331
BE6A
  5
BE70
331
BA63
  5
BA63
331
BE3B
  5
BE41
331
B704
  5
B705
331
86BD
  5
86BD
331
BDC5
  5
BDCB
331
BD4F
  5
BD55
331
BD86
  5
BD8C
331
BDFC
  5
BE02
331
BE72
  5
BE78
331
BFA0
  5
BFA0
331
BD10
  5
BD16
331
BFA8
  5
BFA8
331
BA6B
  5
BC3D
331
BE43
  5
BE49
331
86C5
  5
86C5
331
BDCD
  5
BDD3
331
865E
  5
865D
331
BD57
  5
BD5D
331
BD8E
  5
BD94
331
BE04
  5
BE0A
331
BE7A
  5
BE80
331
BFB0
  5
BFB0
331
BE4B
  5
BE51
331
86CD
  5
86CD
331
BDD5
  5
BDDB
331
BD5F
  5
BD65
331
BD20
  5
BD26
331
BD96
  5
BD9C
331
BE0C
  5
BE13
331
BE82
  5
BE88
331
BFB8
  5
BFB8
331
BE8A
  5
BE90
331
BCEB
  5
BCF1
331
B9DC
  5
B9DD
331
867E
  5
867E
331
BE14
  5
BE1A
331
BD67
  5
BD6D
331
BD28
  5
BD2E
331
BE53
  5
BE59
331
BF79
  5
BF79
331
BE92
  5
BE98
331
8686
  5
8686
331
BDA6
  5
BDAC
331
BE1C
  5
BE22
331
BFC0
  5
BFC0
331
BF81
  5
BF81
331
BCF1
  5
BCF7
331
BD30
  5
BD37
331
BFC8
  5
BFC8
331
BF89
  5
BF89
331
BE9A
  5
BEA1
331
BE5B
  5
BE61
331
B9FC
  5
B9FD
331
BDE5
  5
BDEC
331
868E
  5
868E
331
BCF9
  5
BCFF
331
BD6F
  5
BD75
331
BDAE
  5
BDB6
331
BE24
  5
BE2A
331
BF91
  5
BF91
331
BEA2
  5
BEA8
331
BE63
  5
BE69
331
BDED
  5
BDF3
331
BD40
  5
BD48
331
BD01
  5
BD07
331
BD77
  5
BD7D
331
BDB6
  5
BDBC
331
BE2C
  5
BE32
331
BF99
  5
BF99
331
BA5C
  5
BA5C
331
BE34
  5
BE3A
331
86B6
  5
86B6
331
BDBE
  5
BDC4
331
BD48
  5
BD4E
331
BD09
  5
BD0F
331
BD7F
  5
BD85
331
BDF5
  5
BDFC
331
BE6B
  5
BE71
331
BA64
  5
BA64
331
BE3C
  5
BE42
331
B705
  5
B706
331
BDC6
  5
BDCC
331
BD87
  5
BD8D
331
BDFD
  5
BE03
331
BE73
  5
BE79
331
BFF8
  5
BFF8
331
BFA1
  5
BFA1
331
BD50
  5
BD57
331
BD11
  5
BD17
331
BFA9
  5
BFA9
331
BED2
  5
865F
331
BE44
  5
BE4A
331
86C6
  5
86C6
331
BDCE
  5
BDD4
331
865F
  5
865E
331
BD58
  5
BD5E
331
BD19
  5
BD1F
331
BD8F
  5
BD95
331
BE05
  5
BE0B
331
BE7B
  5
BE81
331
BFB1
  5
BFB1
331
86CE
  5
86CE
331
BDD6
  5
BDDC
331
BD60
  5
BD66
331
BD21
  5
BD27
331
BD97
  5
BD9D
331
BE4C
  5
BE52
331
BE83
  5
BE89
331
BFB9
  5
BFB9
331
BF7A
  5
BF7A
331
BCEC
  5
BCF2
331
BE54
  5
BE5A
331
B9DD
  5
B9DE
331
867F
  5
867F
331
BDDE
  5
BDE4
331
BD29
  5
BD2F
331
BE15
  5
BE1B
331
BE8B
  5
BE91
331
B9F5
  5
B9F6
331
8687
  5
8687
331
BDA7
  5
BDAD
331
BE1D
  5
BE23
331
BE93
  5
BE99
331
BFC1
  5
BFC1
331
BF82
  5
BF82
331
BCF2
  5
BCF8
331
BD68
  5
BD6E
331
BFC9
  5
BFC9
331
BF8A
  5
BF8A
331
BE5C
  5
BE62
331
B9FD
  5
B9FE
331
BCFA
  5
BD00
331
BD70
  5
BD76
331
BE25
  5
BE2B
331
BF92
  5
BF92
331
BEA3
  5
BEA9
331
BE64
  5
BE6A
331
BDEE
  5
BDF5
331
BD02
  5
BD08
331
BD78
  5
BD80
331
BDB7
  5
BDBF
331
BE2D
  5
BE33
331
BF9A
  5
BF9A
331
86B7
  5
86B7
331
BD49
  5
BD4F
331
BD0A
  5
BD10
331
BD80
  5
BD86
331
BDBF
  5
BDC5
331
BE35
  5
BE3B
331
BE6C
  5
BE72
331
BEB3
  5
BEB3
331
BA65
  5
BA65
331
BE3D
  5
BE43
331
B706
  5
B707
331
86BF
  5
86BF
331
BDC7
  5
BDCD
331
BDFE
  5
BE05
331
BE74
  5
BE7A
331
BFF9
  5
BFF9
331
BFA2
  5
BFA2
331
BD12
  5
BD18
331
BD88
  5
BD8F
331
BFAA
  5
BFAA
331
BE45
  5
BE4B
331
BDCF
  5
BDD5
331
BE06
  5
BE0C
331
BE7C
  5
BE82
331
BD90
  5
BD96
331
86C7
  5
86C7
331
BD59
  5
BD5F
331
BD1A
  5
BD21
331
BFB2
  5
BFB2
331
8660
  5
8660
331
BE4D
  5
BE53
331
BE0E
  5
BE14
331
BE84
  5
BE8A
331
BDD7
  5
BDDE
331
B9D6
  5
B9D7
331
BD61
  5
BD6A
331
BD22
  5
BD2A
331
BD98
  5
BD9E
331
BFBA
  5
BFBA
331
86CF
  5
86CF
331
BF7B
  5
BF7B
331
BE55
  5
BE5B
331
BE8C
  5
BE92
331
BE16
  5
BE1C
331
BCED
  5
BCF3
331
BDDF
  5
BDE5
331
BDA0
  5
BDA6
331
BD2A
  5
BD30
331
8680
  5
8680
331
B9DE
  5
B9F5
331
BE94
  5
BE9A
331
BE1E
  5
BE24
331
B9F6
  5
B9F7
331
BFC2
  5
BFC2
331
BF83
  5
BF83
331
BDA8
  5
BDAF
331
BD69
  5
BD6F
331
BCF3
  5
BCF9
331
BD32
  5
BD39
331
BFCA
  5
BFCA
331
BF8B
  5
BF8B
331
8688
  5
8688
331
BE9C
  5
BEA2
331
BE5D
  5
BE63
331
BE26
  5
BE2C
331
BDE7
  5
BDED
331
B9FE
  5
B9FF
331
BD71
  5
BD77
331
BCFB
  5
BD01
331
BD3A
  5
BD40
331
BFE2
  5
BFE2
331
BF93
  5
BF93
331
89AF
  5
89AF
331
BEA4
  5
BEAA
331
BE65
  5
BE6C
331
BD03
  5
BD09
331
BE2E
  5
BE35
331
BF9B
  5
BF9B
331
BEAC
  5
BA6B
331
BE36
  5
BE3C
331
BE6D
  5
BE74
331
BDC0
  5
BDC6
331
BDF7
  5
BDFD
331
BD4A
  5
BD51
331
BD0B
  5
BD11
331
BD81
  5
BD87
331
86B8
  5
86B8
331
BA5E
  5
BA5E
331
BEB4
  5
BEB4
331
BE3E
  5
BE44
331
BE75
  5
BE7B
331
B707
  5
B708
331
BFFA
  5
BFFA
331
BFA3
  5
BFA3
331
BDC8
  5
BDCE
331
BD52
  5
BD58
331
BD13
  5
BD19
331
BFAB
  5
BFAB
331
86C0
  5
86C0
331
BE46
  5
BE4E
331
BDD0
  5
BDD6
331
BE07
  5
BE0E
331
BE7D
  5
BE83
331
BD91
  5
BD97
331
86C8
  5
86C8
331
BD5A
  5
BD60
331
BFB3
  5
BFB3
331
8661
  5
867D
331
BF74
  5
BF74
331
BE4E
  5
BE54
331
BE0F
  5
BE15
331
BE85
  5
BE8C
331
BD99
  5
BD9F
331
BFBB
  5
BFBB
331
86D0
  5
86D0
331
B9D7
  5
B9DB
331
BF7C
  5
BF7C
331
BE56
  5
BE5C
331
BE8D
  5
BE93
331
BDA1
  5
BDA7
331
BE17
  5
BE1D
331
BCEE
  5
BCF4
331
BD2B
  5
BD32
331
8681
  5
8681
331
BE1F
  5
BE25
331
BE95
  5
BE9B
331
B9F7
  5
B9F8
331
BF84
  5
BF84
331
BFC3
  5
BFC3
331
BDE0
  5
BDE6
331
BD6A
  5
BD70
331
BCF4
  5
BCFA
331
BFCB
  5
BFCB
331
BF8C
  5
BF8C
331
8689
  5
8689
331
BE5E
  5
BE64
331
BE27
  5
BE2D
331
BE9D
  5
BEA3
331
BDE8
  5
BDEE
331
B9FF
  5
BA01
331
BD72
  5
BD79
331
BCFC
  5
BD02
331
BD3B
  5
BD41
331
BDB1
  5
BDB7
331
BF94
  5
BF94
331
89B0
  5
89B0
331
BD43
  5
BD49
331
BD04
  5
BD0A
331
BDF0
  5
BDF6
331
BEA5
  5
BEAB
331
BFF3
  5
BFF3
331
BF9C
  5
BF9C
331
BE37
  5
BE3D
331
BEAD
  5
BA6C
331
BDC1
  5
BDC8
331
BDF8
  5
BDFE
331
BD0C
  5
BD12
331
BD82
  5
BD88
331
86B9
  5
86B9
331
BA5F
  5
BA5F
331
BE3F
  5
BE45
331
BE76
  5
BE7C
331
BEB5
  5
BEB5
  0
DIMASSOC
  5
C070
102
{ACAD_REACTORS
330
C06F
102
}
330
C06F
100
AcDbDimAssoc
330
C06E
 90
        1
 70
     0
 71
     0
  1
AcDbOsnapPointRef
 72
     1
331
89E3
 73
     2
 91
        3
 40
0.9999999999999998
 10
0.0
 20
0.0
 30
2.000000000000000E+50
 75
     0
  0
DIMASSOC
  5
C073
102
{ACAD_REACTORS
330
C072
102
}
330
C072
100
AcDbDimAssoc
330
C071
 90
        1
 70
     0
 71
     0
  1
AcDbOsnapPointRef
 72
    13
331
BA02
 73
     2
 91
        1
 40
0.0
 10
0.0
 20
0.0
 30
2.000000000000000E+50
 75
     0
  0
DIMASSOC
  5
C076
102
{ACAD_REACTORS
330
C075
102
}
330
C075
100
AcDbDimAssoc
330
C074
 90
        1
 70
     0
 71
     0
  1
AcDbOsnapPointRef
 72
    10
331
865F
 73
     2
 91
        2
 40
0.3886293047977602
 10
0.0
 20
0.0
 30
0.0
 75
     0
  0
DIMASSOC
  5
C079
102
{ACAD_REACTORS
330
C078
102
}
330
C078
100
AcDbDimAssoc
330
C077
 90
        1
 70
     0
 71
     0
  1
AcDbOsnapPointRef
 72
     1
331
BA58
 73
     2
 91
        2
 40
1.0
 10
0.0
 20
0.0
 30
2.000000000000000E+50
 75
     0
  0
DIMASSOC
  5
C07C
102
{ACAD_REACTORS
330
C07B
102
}
330
C07B
100
AcDbDimAssoc
330
C07A
 90
        1
 70
     0
 71
     0
  1
AcDbOsnapPointRef
 72
    10
331
BEAE
 73
     2
 91
        0
 40
0.5442906661789008
 10
0.0
 20
0.0
 30
0.0
 75
     0
  0
DIMASSOC
  5
C07F
102
{ACAD_REACTORS
330
C07E
102
}
330
C07E
100
AcDbDimAssoc
330
C07D
 90
        1
 70
     0
 71
     0
  1
AcDbOsnapPointRef
 72
    10
331
8660
 73
     2
 91
        4
 40
0.3649835749565848
 10
0.0
 20
0.0
 30
0.0
 75
     0
  0
DIMASSOC
  5
C082
102
{ACAD_REACTORS
330
C081
102
}
330
C081
100
AcDbDimAssoc
330
C080
 90
        1
 70
     0
 71
     0
  1
AcDbOsnapPointRef
 72
     1
331
BE31
 73
     2
 91
        0
 40
1.0
 10
0.0
 20
0.0
 30
2.000000000000000E+50
 75
     0
  0
LAYOUT
  5
59
102
{ACAD_REACTORS
330
1A
102
}
330
1A
100
AcDbPlotSettings
  1

  2
None
  4

  6

 40
0.0
 41
0.0
 42
0.0
 43
0.0
 44
0.0
 45
0.0
 46
0.0
 47
0.0
 48
0.0
 49
0.0
140
0.0
141
0.0
142
1.0
143
1.0
 70
   688
 72
     0
 73
     0
 74
     5
  7
NETAFIM.ctb
 75
    16
147
1.0
 76
     0
 77
     2
 78
   300
148
0.0
149
0.0
100
AcDbLayout
  1
Layout1
 70
     1
 71
     1
 10
0.0
 20
0.0
 11
12.0
 21
9.0
 12
0.0
 22
0.0
 32
0.0
 14
0.0
 24
0.0
 34
0.0
 15
0.0
 25
0.0
 35
0.0
146
0.0
 13
0.0
 23
0.0
 33
0.0
 16
1.0
 26
0.0
 36
0.0
 17
0.0
 27
1.0
 37
0.0
 76
     0
330
58
  0
LAYOUT
  5
5E
102
{ACAD_REACTORS
330
1A
102
}
330
1A
100
AcDbPlotSettings
  1

  2
None
  4

  6

 40
0.0
 41
0.0
 42
0.0
 43
0.0
 44
0.0
 45
0.0
 46
0.0
 47
0.0
 48
0.0
 49
0.0
140
0.0
141
0.0
142
1.0
143
1.0
 70
   688
 72
     0
 73
     0
 74
     5
  7
NETAFIM.ctb
 75
    16
147
1.0
 76
     0
 77
     2
 78
   300
148
0.0
149
0.0
100
AcDbLayout
  1
Layout2
 70
     1
 71
     2
 10
0.0
 20
0.0
 11
12.0
 21
9.0
 12
0.0
 22
0.0
 32
0.0
 14
0.0
 24
0.0
 34
0.0
 15
0.0
 25
0.0
 35
0.0
146
0.0
 13
0.0
 23
0.0
 33
0.0
 16
1.0
 26
0.0
 36
0.0
 17
0.0
 27
1.0
 37
0.0
 76
     0
330
5D
  0
LAYOUT
  5
22
102
{ACAD_XDICTIONARY
360
6F0
102
}
102
{ACAD_REACTORS
330
1A
102
}
330
1A
100
AcDbPlotSettings
  1

  2
Adobe PDF
  4
Letter
  6

 40
3.174999952316284
 41
3.174999952316284
 42
3.175003051757812
 43
3.17498779296875
 44
215.8999938964844
 45
279.3999938964844
 46
14.2785401840796
 47
21.4207111596605
 48
0.0
 49
0.0
140
0.0
141
0.0
142
1.0
143
1.0
 70
 11940
 72
     0
 73
     1
 74
     1
  7
NETAFIM.ctb
 75
     0
147
1.157762431345048
 76
     0
 77
     2
 78
   300
148
0.0036992588868209
149
0.0018768700144889
100
AcDbLayout
  1
Model
 70
     1
 71
     0
 10
0.0
 20
0.0
 11
12.0
 21
9.0
 12
0.0
 22
0.0
 32
0.0
 14
0.0
 24
0.0
 34
0.0
 15
0.0
 25
0.0
 35
0.0
146
0.0
 13
0.0
 23
0.0
 33
0.0
 16
1.0
 26
0.0
 36
0.0
 17
0.0
 27
1.0
 37
0.0
 76
     0
330
1F
331
94
1001
ACAD_PSEXT
1000
Adobe PDF
1000
Adobe PDF Converter
1000
My Documents\*.pdf
1000

1070
     0
  0
MATERIAL
  5
97
102
{ACAD_XDICTIONARY
360
C1B8
102
}
102
{ACAD_REACTORS
330
72
102
}
330
72
100
AcDbMaterial
  1
ByBlock
  0
MATERIAL
  5
96
102
{ACAD_XDICTIONARY
360
C1B6
102
}
102
{ACAD_REACTORS
330
72
102
}
330
72
100
AcDbMaterial
  1
ByLayer
  0
MATERIAL
  5
98
102
{ACAD_XDICTIONARY
360
110
102
}
102
{ACAD_REACTORS
330
72
102
}
330
72
100
AcDbMaterial
  1
Global
 43
0.0208000000566244
 43
0.0
 43
0.0
 43
0.0
 43
0.0
 43
0.0208000000566244
 43
0.0
 43
0.0
 43
0.0
 43
0.0
 43
1.0
 43
0.0
 43
0.0
 43
0.0
 43
0.0
 43
1.0
 49
0.0208000000566244
 49
0.0
 49
0.0
 49
0.0
 49
0.0
 49
0.0208000000566244
 49
0.0
 49
0.0
 49
0.0
 49
0.0
 49
1.0
 49
0.0
 49
0.0
 49
0.0
 49
0.0
 49
1.0
142
0.0208000000566244
142
0.0
142
0.0
142
0.0
142
0.0
142
0.0208000000566244
142
0.0
142
0.0
142
0.0
142
0.0
142
1.0
142
0.0
142
0.0
142
0.0
142
0.0
142
1.0
144
0.0208000000566244
144
0.0
144
0.0
144
0.0
144
0.0
144
0.0208000000566244
144
0.0
144
0.0
144
0.0
144
0.0
144
1.0
144
0.0
144
0.0
144
0.0
144
0.0
144
1.0
1001
ACAD
1070
    -1
1070
     3
1070
     0
1000

1071
        0
1070
     0
  0
MLEADERSTYLE
  5
C048
102
{ACAD_REACTORS
330
D7
330
C06E
330
C071
330
C074
330
C077
330
C07A
330
C07D
330
C080
330
C083
102
}
330
D7
100
AcDbMLeaderStyle
170
     2
171
     1
172
     0
 90
        2
 40
0.0
 41
0.0
173
     1
 91
-1056964608
340
14
 92
       -2
290
     1
 42
0.09
291
     1
 43
0.36
  3
Standard
 44
0.12
300

342
C045
174
     1
178
     1
175
     1
176
     0
 93
-1056964608
 45
0.09
292
     0
297
     0
 46
0.18
 94
-1056964608
 47
1.0
 49
1.0
140
1.0
293
     1
141
0.0
294
     1
177
     0
142
1.0
295
     0
296
     0
143
0.125
1001
ACAD_MLEADERVER
1070
     2
  0
MLEADERSTYLE
  5
D8
102
{ACAD_REACTORS
330
D7
102
}
330
D7
100
AcDbMLeaderStyle
170
     2
171
     1
172
     0
 90
        2
 40
0.0
 41
0.0
173
     1
 91
-1056964608
340
14
 92
       -2
290
     1
 42
0.09
291
     1
 43
0.36
  3
Standard
 44
0.18
300

342
11
174
     1
178
     1
175
     1
176
     0
 93
-1056964608
 45
0.18
292
     0
297
     0
 46
0.18
 94
-1056964608
 47
1.0
 49
1.0
140
1.0
293
     1
141
0.0
294
     1
177
     0
142
1.0
295
     0
296
     0
143
0.125
1001
ACAD_MLEADERVER
1070
     2
  0
MLINESTYLE
  5
18
102
{ACAD_REACTORS
330
17
102
}
330
17
100
AcDbMlineStyle
  2
STANDARD
 70
     0
  3

 62
   256
 51
90.0
 52
90.0
 71
     2
 49
0.5
 62
   256
  6
BYLAYER
 49
-0.5
 62
   256
  6
BYLAYER
  0
ACDBPLACEHOLDER
  5
F
102
{ACAD_REACTORS
330
E
102
}
330
E
  0
SCALE
  5
B7
102
{ACAD_REACTORS
330
B6
102
}
330
B6
100
AcDbScale
 70
     0
300
1:1
140
1.0
141
1.0
290
     1
  0
SCALE
  5
124
102
{ACAD_REACTORS
330
B6
102
}
330
B6
100
AcDbScale
 70
     0
300
1:2
140
1.0
141
2.0
290
     0
  0
SCALE
  5
125
102
{ACAD_REACTORS
330
B6
102
}
330
B6
100
AcDbScale
 70
     0
300
1:4
140
1.0
141
4.0
290
     0
  0
SCALE
  5
126
102
{ACAD_REACTORS
330
B6
102
}
330
B6
100
AcDbScale
 70
     0
300
1:5
140
1.0
141
5.0
290
     0
  0
SCALE
  5
127
102
{ACAD_REACTORS
330
B6
102
}
330
B6
100
AcDbScale
 70
     0
300
1:8
140
1.0
141
8.0
290
     0
  0
SCALE
  5
128
102
{ACAD_REACTORS
330
B6
102
}
330
B6
100
AcDbScale
 70
     0
300
1:10
140
1.0
141
10.0
290
     0
  0
SCALE
  5
129
102
{ACAD_REACTORS
330
B6
102
}
330
B6
100
AcDbScale
 70
     0
300
1:16
140
1.0
141
16.0
290
     0
  0
SCALE
  5
12A
102
{ACAD_REACTORS
330
B6
102
}
330
B6
100
AcDbScale
 70
     0
300
1:20
140
1.0
141
20.0
290
     0
  0
SCALE
  5
12B
102
{ACAD_REACTORS
330
B6
102
}
330
B6
100
AcDbScale
 70
     0
300
1:30
140
1.0
141
30.0
290
     0
  0
SCALE
  5
12C
102
{ACAD_REACTORS
330
B6
102
}
330
B6
100
AcDbScale
 70
     0
300
1:40
140
1.0
141
40.0
290
     0
  0
SCALE
  5
12D
102
{ACAD_REACTORS
330
B6
102
}
330
B6
100
AcDbScale
 70
     0
300
1:50
140
1.0
141
50.0
290
     0
  0
SCALE
  5
12E
102
{ACAD_REACTORS
330
B6
102
}
330
B6
100
AcDbScale
 70
     0
300
1:100
140
1.0
141
100.0
290
     0
  0
SCALE
  5
12F
102
{ACAD_REACTORS
330
B6
102
}
330
B6
100
AcDbScale
 70
     0
300
2:1
140
2.0
141
1.0
290
     0
  0
SCALE
  5
130
102
{ACAD_REACTORS
330
B6
102
}
330
B6
100
AcDbScale
 70
     0
300
4:1
140
4.0
141
1.0
290
     0
  0
SCALE
  5
131
102
{ACAD_REACTORS
330
B6
102
}
330
B6
100
AcDbScale
 70
     0
300
8:1
140
8.0
141
1.0
290
     0
  0
SCALE
  5
132
102
{ACAD_REACTORS
330
B6
102
}
330
B6
100
AcDbScale
 70
     0
300
10:1
140
10.0
141
1.0
290
     0
  0
SCALE
  5
133
102
{ACAD_REACTORS
330
B6
102
}
330
B6
100
AcDbScale
 70
     0
300
100:1
140
100.0
141
1.0
290
     0
  0
SCALE
  5
134
102
{ACAD_REACTORS
330
B6
102
}
330
B6
100
AcDbScale
 70
     0
300
1/128" = 1'-0"
140
0.0078125
141
12.0
290
     0
  0
SCALE
  5
135
102
{ACAD_REACTORS
330
B6
102
}
330
B6
100
AcDbScale
 70
     0
300
1/64" = 1'-0"
140
0.015625
141
12.0
290
     0
  0
SCALE
  5
136
102
{ACAD_REACTORS
330
B6
102
}
330
B6
100
AcDbScale
 70
     0
300
1/32" = 1'-0"
140
0.03125
141
12.0
290
     0
  0
SCALE
  5
137
102
{ACAD_REACTORS
330
B6
102
}
330
B6
100
AcDbScale
 70
     0
300
1/16" = 1'-0"
140
0.0625
141
12.0
290
     0
  0
SCALE
  5
138
102
{ACAD_REACTORS
330
B6
102
}
330
B6
100
AcDbScale
 70
     0
300
3/32" = 1'-0"
140
0.09375
141
12.0
290
     0
  0
SCALE
  5
139
102
{ACAD_REACTORS
330
B6
102
}
330
B6
100
AcDbScale
 70
     0
300
1/8" = 1'-0"
140
0.125
141
12.0
290
     0
  0
SCALE
  5
13A
102
{ACAD_REACTORS
330
B6
102
}
330
B6
100
AcDbScale
 70
     0
300
3/16" = 1'-0"
140
0.1875
141
12.0
290
     0
  0
SCALE
  5
13B
102
{ACAD_REACTORS
330
B6
102
}
330
B6
100
AcDbScale
 70
     0
300
1/4" = 1'-0"
140
0.25
141
12.0
290
     0
  0
SCALE
  5
13C
102
{ACAD_REACTORS
330
B6
102
}
330
B6
100
AcDbScale
 70
     0
300
3/8" = 1'-0"
140
0.375
141
12.0
290
     0
  0
SCALE
  5
13D
102
{ACAD_REACTORS
330
B6
102
}
330
B6
100
AcDbScale
 70
     0
300
1/2" = 1'-0"
140
0.5
141
12.0
290
     0
  0
SCALE
  5
13E
102
{ACAD_REACTORS
330
B6
102
}
330
B6
100
AcDbScale
 70
     0
300
3/4" = 1'-0"
140
0.75
141
12.0
290
     0
  0
SCALE
  5
13F
102
{ACAD_REACTORS
330
B6
102
}
330
B6
100
AcDbScale
 70
     0
300
1" = 1'-0"
140
1.0
141
12.0
290
     0
  0
SCALE
  5
140
102
{ACAD_REACTORS
330
B6
102
}
330
B6
100
AcDbScale
 70
     0
300
1-1/2" = 1'-0"
140
1.5
141
12.0
290
     0
  0
SCALE
  5
141
102
{ACAD_REACTORS
330
B6
102
}
330
B6
100
AcDbScale
 70
     0
300
3" = 1'-0"
140
3.0
141
12.0
290
     0
  0
SCALE
  5
142
102
{ACAD_REACTORS
330
B6
102
}
330
B6
100
AcDbScale
 70
     0
300
6" = 1'-0"
140
6.0
141
12.0
290
     0
  0
SCALE
  5
143
102
{ACAD_REACTORS
330
B6
102
}
330
B6
100
AcDbScale
 70
     0
300
1'-0" = 1'-0"
140
12.0
141
12.0
290
     0
  0
TABLESTYLE
  5
181
102
{ACAD_XDICTIONARY
360
C171
102
}
102
{ACAD_REACTORS
330
86
102
}
330
86
100
AcDbTableStyle
  3

 70
     0
 71
     3
 40
0.06
 41
0.06
280
     0
281
     0
  7
Legend
140
0.4
170
     4
 62
     0
 63
     7
283
     0
274
    -2
284
     0
 64
     0
275
    -2
285
     0
 65
     0
276
    -2
286
     0
 66
     0
277
    -2
287
     0
 67
     0
278
    -2
288
     0
 68
     0
279
    -2
289
     0
 69
     0
  7
Legend
140
0.5
170
     5
 62
     0
 63
     7
283
     0
274
    -2
284
     0
 64
     0
275
    -2
285
     0
 65
     0
276
    -2
286
     0
 66
     0
277
    -2
287
     0
 67
     0
278
    -2
288
     0
 68
     0
279
    -2
289
     0
 69
     0
  7
Legend
140
0.4
170
     4
 62
     0
 63
     7
283
     0
274
    -2
284
     0
 64
     0
275
    -2
285
     0
 65
     0
276
    -2
286
     0
 66
     0
277
    -2
287
     0
 67
     0
278
    -2
288
     0
 68
     0
279
    -2
289
     0
 69
     0
  0
TABLESTYLE
  5
87
102
{ACAD_XDICTIONARY
360
104
102
}
102
{ACAD_REACTORS
330
86
102
}
330
86
100
AcDbTableStyle
  3
Standard
 70
     0
 71
     0
 40
0.06
 41
0.06
280
     0
281
     0
  7
Standard
140
0.18
170
     2
 62
     0
 63
     7
283
     0
274
    -2
284
     1
 64
     0
275
    -2
285
     1
 65
     0
276
    -2
286
     1
 66
     0
277
    -2
287
     1
 67
     0
278
    -2
288
     1
 68
     0
279
    -2
289
     1
 69
     0
  7
Standard
140
0.25
170
     5
 62
     0
 63
     7
283
     0
274
    -2
284
     1
 64
     0
275
    -2
285
     1
 65
     0
276
    -2
286
     1
 66
     0
277
    -2
287
     1
 67
     0
278
    -2
288
     1
 68
     0
279
    -2
289
     1
 69
     0
  7
Standard
140
0.18
170
     5
 62
     0
 63
     7
283
     0
274
    -2
284
     1
 64
     0
275
    -2
285
     1
 65
     0
276
    -2
286
     1
 66
     0
277
    -2
287
     1
 67
     0
278
    -2
288
     1
 68
     0
279
    -2
289
     1
 69
     0
  0
VISUALSTYLE
  5
9F
102
{ACAD_XDICTIONARY
360
C1C5
102
}
102
{ACAD_REACTORS
330
99
102
}
330
99
100
AcDbVisualStyle
  2
2dWireframe
 70
     4
 71
     0
 72
     2
 73
     1
 90
        0
 40
-0.6
 41
-30.0
 62
     5
 63
     7
421
 16777215
 74
     1
 91
        4
 64
     7
 65
   257
 75
     1
175
     1
 42
1.0
 92
        0
 66
   257
 43
1.0
 76
     1
 77
     6
 78
     2
 67
     7
 79
     5
170
     0
171
     0
290
     0
174
     0
 93
        1
 44
0.0
173
     0
291
     0
 45
0.0
1001
ACAD
1000
AcDbSavedByObjectVersion
1070
     0
  0
VISUALSTYLE
  5
A1
102
{ACAD_XDICTIONARY
360
C1C9
102
}
102
{ACAD_REACTORS
330
99
102
}
330
99
100
AcDbVisualStyle
  2
3D Hidden
 70
     6
 71
     1
 72
     2
 73
     2
 90
        0
 40
-0.6
 41
-30.0
 62
     5
 63
     7
421
 16777215
 74
     2
 91
        2
 64
     7
 65
   257
 75
     2
175
     1
 42
40.0
 92
        0
 66
   257
 43
1.0
 76
     1
 77
     6
 78
     2
 67
     7
 79
     3
170
     0
171
     0
290
     0
174
     0
 93
        1
 44
0.0
173
     0
291
     0
 45
0.0
1001
ACAD
1000
AcDbSavedByObjectVersion
1070
     0
  0
VISUALSTYLE
  5
A0
102
{ACAD_XDICTIONARY
360
C1C7
102
}
102
{ACAD_REACTORS
330
99
102
}
330
99
100
AcDbVisualStyle
  2
3dWireframe
 70
     5
 71
     0
 72
     2
 73
     1
 90
        0
 40
-0.6
 41
-30.0
 62
     5
 63
     7
421
 16777215
 74
     1
 91
        4
 64
     7
 65
   257
 75
     1
175
     1
 42
1.0
 92
        0
 66
   257
 43
1.0
 76
     1
 77
     6
 78
     2
 67
     7
 79
     5
170
     0
171
     0
290
     0
174
     0
 93
        1
 44
0.0
173
     0
291
     0
 45
0.0
1001
ACAD
1000
AcDbSavedByObjectVersion
1070
     0
  0
VISUALSTYLE
  5
9E
102
{ACAD_XDICTIONARY
360
C1C3
102
}
102
{ACAD_REACTORS
330
99
102
}
330
99
100
AcDbVisualStyle
  2
Basic
 70
     7
 71
     1
 72
     0
 73
     1
 90
        0
 40
-0.6
 41
-30.0
 62
     5
 63
     7
421
 16777215
 74
     0
 91
        4
 64
     7
 65
   257
 75
     1
175
     1
 42
1.0
 92
        8
 66
     7
 43
1.0
 76
     1
 77
     6
 78
     2
 67
     7
 79
     5
170
     0
171
     0
290
     0
174
     0
 93
        1
 44
0.0
173
     0
291
     1
 45
0.0
1001
ACAD
1000
AcDbSavedByObjectVersion
1070
     0
  0
VISUALSTYLE
  5
A5
102
{ACAD_XDICTIONARY
360
C1D1
102
}
102
{ACAD_REACTORS
330
99
102
}
330
99
100
AcDbVisualStyle
  2
Brighten
 70
    12
 71
     2
 72
     2
 73
     1
 90
        0
 40
-0.6
 41
-30.0
 62
     5
 63
     7
421
 16777215
 74
     1
 91
        4
 64
     7
 65
   257
 75
     1
175
     1
 42
1.0
 92
        8
 66
     7
 43
1.0
 76
     1
 77
     6
 78
     2
 67
     7
 79
     5
170
     0
171
     0
290
     0
174
     0
 93
        1
 44
50.0
173
     0
291
     1
 45
0.0
1001
ACAD
1000
AcDbSavedByObjectVersion
1070
     0
  0
VISUALSTYLE
  5
A9
102
{ACAD_XDICTIONARY
360
C1D9
102
}
102
{ACAD_REACTORS
330
99
102
}
330
99
100
AcDbVisualStyle
  2
ColorChange
 70
    16
 71
     2
 72
     2
 73
     3
 90
        0
 40
-0.6
 41
-30.0
 62
     5
 63
     8
421
  8421504
 74
     1
 91
        4
 64
     7
 65
   257
 75
     1
175
     1
 42
1.0
 92
        8
 66
     8
424
  8421504
 43
1.0
 76
     1
 77
     6
 78
     2
 67
     7
 79
     5
170
     0
171
     0
290
     0
174
     0
 93
        1
 44
0.0
173
     0
291
     1
 45
0.0
1001
ACAD
1000
AcDbSavedByObjectVersion
1070
     0
  0
VISUALSTYLE
  5
A2
102
{ACAD_XDICTIONARY
360
C1CB
102
}
102
{ACAD_REACTORS
330
99
102
}
330
99
100
AcDbVisualStyle
  2
Conceptual
 70
     9
 71
     3
 72
     2
 73
     1
 90
        0
 40
-0.6
 41
-30.0
 62
     5
 63
     7
421
 16777215
 74
     2
 91
        2
 64
     7
 65
   257
 75
     1
175
     1
 42
40.0
 92
        8
 66
     7
 43
1.0
 76
     1
 77
     6
 78
     2
 67
     7
 79
     3
170
     0
171
     0
290
     0
174
     0
 93
        1
 44
0.0
173
     0
291
     0
 45
0.0
1001
ACAD
1000
AcDbSavedByObjectVersion
1070
     0
  0
VISUALSTYLE
  5
A4
102
{ACAD_XDICTIONARY
360
C1CF
102
}
102
{ACAD_REACTORS
330
99
102
}
330
99
100
AcDbVisualStyle
  2
Dim
 70
    11
 71
     2
 72
     2
 73
     1
 90
        0
 40
-0.6
 41
-30.0
 62
     5
 63
     7
421
 16777215
 74
     1
 91
        4
 64
     7
 65
   257
 75
     1
175
     1
 42
1.0
 92
        8
 66
     7
 43
1.0
 76
     1
 77
     6
 78
     2
 67
     7
 79
     5
170
     0
171
     0
290
     0
174
     0
 93
        1
 44
-50.0
173
     0
291
     1
 45
0.0
1001
ACAD
1000
AcDbSavedByObjectVersion
1070
     0
  0
VISUALSTYLE
  5
175
102
{ACAD_XDICTIONARY
360
C1DF
102
}
102
{ACAD_REACTORS
330
99
102
}
330
99
100
AcDbVisualStyle
  2
EdgeColorOff
 70
    22
 71
     2
 72
     2
 73
     0
 90
        0
 40
-0.6
 41
-30.0
 62
     5
 63
     7
421
 16777215
 74
     1
 91
        4
 64
     7
 65
   257
 75
     1
175
     1
 42
1.0
 92
        8
 66
     7
 43
1.0
 76
     1
 77
     6
 78
     2
 67
     7
 79
     5
170
     0
171
     0
290
     0
174
     0
 93
        1
 44
0.0
173
     0
291
     1
 45
0.0
1001
ACAD
1000
AcDbSavedByObjectVersion
1070
     0
  0
VISUALSTYLE
  5
A8
102
{ACAD_XDICTIONARY
360
C1D7
102
}
102
{ACAD_REACTORS
330
99
102
}
330
99
100
AcDbVisualStyle
  2
Facepattern
 70
    15
 71
     2
 72
     2
 73
     1
 90
        0
 40
-0.6
 41
-30.0
 62
     5
 63
     7
421
 16777215
 74
     1
 91
        4
 64
     7
 65
   257
 75
     1
175
     1
 42
1.0
 92
        8
 66
     7
 43
1.0
 76
     1
 77
     6
 78
     2
 67
     7
 79
     5
170
     0
171
     0
290
     0
174
     0
 93
        1
 44
0.0
173
     0
291
     1
 45
0.0
1001
ACAD
1000
AcDbSavedByObjectVersion
1070
     0
  0
VISUALSTYLE
  5
9A
102
{ACAD_XDICTIONARY
360
C1BB
102
}
102
{ACAD_REACTORS
330
99
102
}
330
99
100
AcDbVisualStyle
  2
Flat
 70
     0
 71
     2
 72
     1
 73
     1
 90
        2
 40
-0.6
 41
30.0
 62
     5
 63
     7
421
 16777215
 74
     0
 91
        4
 64
     7
 65
   257
 75
     1
175
     1
 42
1.0
 92
        8
 66
     7
 43
1.0
 76
     1
 77
     6
 78
     2
 67
     7
 79
     5
170
     0
171
     0
290
     0
174
     0
 93
        1
 44
0.0
173
     0
291
     1
 45
0.0
1001
ACAD
1000
AcDbSavedByObjectVersion
1070
     0
  0
VISUALSTYLE
  5
9B
102
{ACAD_XDICTIONARY
360
C1BD
102
}
102
{ACAD_REACTORS
330
99
102
}
330
99
100
AcDbVisualStyle
  2
FlatWithEdges
 70
     1
 71
     2
 72
     1
 73
     1
 90
        2
 40
-0.6
 41
30.0
 62
     5
 63
     7
421
 16777215
 74
     1
 91
        4
 64
     7
 65
   257
 75
     1
175
     1
 42
1.0
 92
        0
 66
   257
 43
1.0
 76
     1
 77
     6
 78
     2
 67
     7
 79
     5
170
     0
171
     0
290
     0
174
     0
 93
        1
 44
0.0
173
     0
291
     1
 45
0.0
1001
ACAD
1000
AcDbSavedByObjectVersion
1070
     0
  0
VISUALSTYLE
  5
9C
102
{ACAD_XDICTIONARY
360
C1BF
102
}
102
{ACAD_REACTORS
330
99
102
}
330
99
100
AcDbVisualStyle
  2
Gouraud
 70
     2
 71
     2
 72
     2
 73
     1
 90
        2
 40
-0.6
 41
30.0
 62
     5
 63
     7
421
 16777215
 74
     0
 91
        4
 64
     7
 65
   257
 75
     1
175
     1
 42
1.0
 92
        0
 66
     7
 43
1.0
 76
     1
 77
     6
 78
     2
 67
     7
 79
     5
170
     0
171
     0
290
     0
174
     0
 93
        1
 44
0.0
173
     0
291
     1
 45
0.0
1001
ACAD
1000
AcDbSavedByObjectVersion
1070
     0
  0
VISUALSTYLE
  5
9D
102
{ACAD_XDICTIONARY
360
C1C1
102
}
102
{ACAD_REACTORS
330
99
102
}
330
99
100
AcDbVisualStyle
  2
GouraudWithEdges
 70
     3
 71
     2
 72
     2
 73
     1
 90
        2
 40
-0.6
 41
30.0
 62
     5
 63
     7
421
 16777215
 74
     1
 91
        4
 64
     7
 65
   257
 75
     1
175
     1
 42
1.0
 92
        0
 66
   257
 43
1.0
 76
     1
 77
     6
 78
     2
 67
     7
 79
     5
170
     0
171
     0
290
     0
174
     0
 93
        1
 44
0.0
173
     0
291
     1
 45
0.0
1001
ACAD
1000
AcDbSavedByObjectVersion
1070
     0
  0
VISUALSTYLE
  5
1AE
102
{ACAD_XDICTIONARY
360
1AF
102
}
102
{ACAD_REACTORS
330
99
102
}
330
99
100
AcDbVisualStyle
  2
Hidden
 70
     6
 71
     1
 72
     2
 73
     2
 90
        0
 40
-0.6
 41
-30.0
 62
     5
 63
     7
421
 16777215
 74
     2
 91
        2
 64
     7
 65
   257
 75
     2
175
     1
 42
40.0
 92
        0
 66
   257
 43
1.0
 76
     1
 77
     6
 78
     2
 67
     7
 79
     3
170
     0
171
     0
290
     0
174
     0
 93
        1
 44
0.0
173
     0
291
     0
 45
0.0
1001
ACAD
1000
AcDbSavedByObjectVersion
1070
     0
  0
VISUALSTYLE
  5
173
102
{ACAD_XDICTIONARY
360
C1DB
102
}
102
{ACAD_REACTORS
330
99
102
}
330
99
100
AcDbVisualStyle
  2
JitterOff
 70
    20
 71
     2
 72
     2
 73
     0
 90
        0
 40
-0.6
 41
-30.0
 62
     5
 63
     7
421
 16777215
 74
     1
 91
        4
 64
     7
 65
   257
 75
     1
175
     1
 42
1.0
 92
       10
 66
     7
 43
1.0
 76
     1
 77
     6
 78
     2
 67
     7
 79
     5
170
     0
171
     0
290
     0
174
     0
 93
        1
 44
0.0
173
     0
291
     1
 45
0.0
1001
ACAD
1000
AcDbSavedByObjectVersion
1070
     0
  0
VISUALSTYLE
  5
A7
102
{ACAD_XDICTIONARY
360
C1D5
102
}
102
{ACAD_REACTORS
330
99
102
}
330
99
100
AcDbVisualStyle
  2
Linepattern
 70
    14
 71
     2
 72
     2
 73
     1
 90
        0
 40
-0.6
 41
-30.0
 62
     5
 63
     7
421
 16777215
 74
     1
 91
        4
 64
     7
 65
   257
 75
     7
175
     7
 42
1.0
 92
        8
 66
     7
 43
1.0
 76
     1
 77
     6
 78
     2
 67
     7
 79
     5
170
     0
171
     0
290
     0
174
     0
 93
        1
 44
0.0
173
     0
291
     1
 45
0.0
1001
ACAD
1000
AcDbSavedByObjectVersion
1070
     0
  0
VISUALSTYLE
  5
174
102
{ACAD_XDICTIONARY
360
C1DD
102
}
102
{ACAD_REACTORS
330
99
102
}
330
99
100
AcDbVisualStyle
  2
OverhangOff
 70
    21
 71
     2
 72
     2
 73
     0
 90
        0
 40
-0.6
 41
-30.0
 62
     5
 63
     7
421
 16777215
 74
     1
 91
        4
 64
     7
 65
   257
 75
     1
175
     1
 42
1.0
 92
        9
 66
     7
 43
1.0
 76
     1
 77
     6
 78
     2
 67
     7
 79
     5
170
     0
171
     0
290
     0
174
     0
 93
        1
 44
0.0
173
     0
291
     1
 45
0.0
1001
ACAD
1000
AcDbSavedByObjectVersion
1070
     0
  0
VISUALSTYLE
  5
A3
102
{ACAD_XDICTIONARY
360
C1CD
102
}
102
{ACAD_REACTORS
330
99
102
}
330
99
100
AcDbVisualStyle
  2
Realistic
 70
     8
 71
     2
 72
     2
 73
     1
 90
        0
 40
-0.6
 41
-30.0
 62
     5
 63
     7
421
 16777215
 74
     1
 91
        0
 64
     7
 65
   257
 75
     1
175
     1
 42
1.0
 92
        8
 66
     8
424
  7895160
 43
1.0
 76
     1
 77
     6
 78
     2
 67
     7
 79
     5
170
     0
171
     0
290
     0
174
     0
 93
       13
 44
0.0
173
     0
291
     0
 45
0.0
1001
ACAD
1000
AcDbSavedByObjectVersion
1070
     0
  0
VISUALSTYLE
  5
1B1
102
{ACAD_XDICTIONARY
360
1B2
102
}
102
{ACAD_REACTORS
330
99
102
}
330
99
100
AcDbVisualStyle
  2
Shaded
 70
    27
 71
     2
 72
     2
 73
     1
 90
        2
 40
-0.6
 41
30.0
 62
     5
 63
     7
421
 16777215
 74
     0
 91
        4
 64
     7
 65
   257
 75
     1
175
     1
 42
1.0
 92
        8
 66
   257
 43
1.0
 76
     1
 77
     6
 78
     2
 67
     8
425
  7895160
 79
     3
170
     0
171
     0
290
     0
174
     0
 93
        5
 44
0.0
173
     0
291
     0
 45
0.0
1001
ACAD
1000
AcDbSavedByObjectVersion
1070
     0
  0
VISUALSTYLE
  5
1B4
102
{ACAD_XDICTIONARY
360
1B5
102
}
102
{ACAD_REACTORS
330
99
102
}
330
99
100
AcDbVisualStyle
  2
Shaded with edges
 70
    26
 71
     2
 72
     2
 73
     1
 90
        2
 40
-0.6
 41
30.0
 62
     5
 63
     7
421
 16777215
 74
     1
 91
       10
 64
     7
 65
   257
 75
     2
175
     1
 42
1.0
 92
        8
 66
   257
 43
1.0
 76
     1
 77
     6
 78
     2
 67
     7
 79
     3
170
     0
171
     0
290
     0
174
     0
 93
        5
 44
0.0
173
     0
291
     0
 45
0.0
1001
ACAD
1000
AcDbSavedByObjectVersion
1070
     0
  0
VISUALSTYLE
  5
1B7
102
{ACAD_XDICTIONARY
360
1B8
102
}
102
{ACAD_REACTORS
330
99
102
}
330
99
100
AcDbVisualStyle
  2
Shades of Gray
 70
    23
 71
     2
 72
     2
 73
     3
 90
        0
 40
-0.6
 41
-30.0
 62
     5
 63
     7
421
 16777215
 74
     2
 91
        2
 64
     7
 65
     7
 75
     1
175
     1
 42
40.0
 92
        8
 66
     7
 43
1.0
 76
     1
 77
     6
 78
     2
 67
     7
 79
     3
170
     0
171
     0
290
     0
174
     0
 93
        1
 44
0.0
173
     0
291
     0
 45
0.0
1001
ACAD
1000
AcDbSavedByObjectVersion
1070
     0
  0
VISUALSTYLE
  5
1BA
102
{ACAD_XDICTIONARY
360
1BB
102
}
102
{ACAD_REACTORS
330
99
102
}
330
99
100
AcDbVisualStyle
  2
Sketchy
 70
    24
 71
     1
 72
     2
 73
     2
 90
        0
 40
-0.6
 41
-30.0
 62
     5
 63
     7
421
 16777215
 74
     2
 91
        2
 64
     7
 65
     7
 75
     1
175
     1
 42
40.0
 92
       11
 66
     7
 43
1.0
 76
     1
 77
     6
 78
     2
 67
     7
 79
     6
170
     0
171
     0
290
     0
174
     0
 93
        1
 44
0.0
173
     0
291
     0
 45
0.0
1001
ACAD
1000
AcDbSavedByObjectVersion
1070
     0
  0
VISUALSTYLE
  5
A6
102
{ACAD_XDICTIONARY
360
C1D3
102
}
102
{ACAD_REACTORS
330
99
102
}
330
99
100
AcDbVisualStyle
  2
Thicken
 70
    13
 71
     2
 72
     2
 73
     1
 90
        0
 40
-0.6
 41
-30.0
 62
     5
 63
     7
421
 16777215
 74
     1
 91
        4
 64
     7
 65
   257
 75
     1
175
     1
 42
1.0
 92
       12
 66
     7
 43
1.0
 76
     1
 77
     6
 78
     2
 67
     7
 79
     5
170
     0
171
     0
290
     0
174
     0
 93
        1
 44
0.0
173
     0
291
     1
 45
0.0
1001
ACAD
1000
AcDbSavedByObjectVersion
1070
     0
  0
VISUALSTYLE
  5
1BD
102
{ACAD_XDICTIONARY
360
1BE
102
}
102
{ACAD_REACTORS
330
99
102
}
330
99
100
AcDbVisualStyle
  2
Wireframe
 70
     5
 71
     0
 72
     2
 73
     0
 90
        0
 40
-0.6
 41
-30.0
 62
     5
 63
     7
421
 16777215
 74
     1
 91
        4
 64
     7
 65
   257
 75
     1
175
     1
 42
1.0
 92
        0
 66
   257
 43
1.0
 76
     1
 77
     6
 78
     2
 67
     7
 79
     3
170
     0
171
     0
290
     0
174
     0
 93
        1
 44
0.0
173
     0
291
     0
 45
0.0
1001
ACAD
1000
AcDbSavedByObjectVersion
1070
     0
  0
VISUALSTYLE
  5
1C0
102
{ACAD_XDICTIONARY
360
1C1
102
}
102
{ACAD_REACTORS
330
99
102
}
330
99
100
AcDbVisualStyle
  2
X-Ray
 70
    25
 71
     2
 72
     2
 73
     1
 90
        1
 40
0.5
 41
-30.0
 62
     5
 63
     7
421
 16777215
 74
     1
 91
        0
 64
     7
 65
   257
 75
     1
175
     1
 42
1.0
 92
        8
 66
     7
 43
1.0
 76
     1
 77
     6
 78
     2
 67
     7
 79
     3
170
     0
171
     0
290
     0
174
     0
 93
       13
 44
0.0
173
     0
291
     0
 45
0.0
1001
ACAD
1000
AcDbSavedByObjectVersion
1070
     0
  0
DICTIONARYVAR
  5
F0
102
{ACAD_REACTORS
330
66
102
}
330
66
100
DictionaryVariables
280
     0
  1
1:1
  0
DICTIONARYVAR
  5
EF
102
{ACAD_REACTORS
330
66
102
}
330
66
100
DictionaryVariables
280
     0
  1
Netafim Detail
  0
DICTIONARYVAR
  5
89
102
{ACAD_REACTORS
330
66
102
}
330
66
100
DictionaryVariables
280
     0
  1
STANDARD
  0
DICTIONARYVAR
  5
67
102
{ACAD_REACTORS
330
66
102
}
330
66
100
DictionaryVariables
280
     0
  1
2
  0
DICTIONARYVAR
  5
C150
102
{ACAD_REACTORS
330
66
102
}
330
66
100
DictionaryVariables
280
     0
  1
1
  0
DICTIONARYVAR
  5
6B
102
{ACAD_REACTORS
330
66
102
}
330
66
100
DictionaryVariables
280
     0
  1
1
  0
DICTIONARYVAR
  5
14D
102
{ACAD_REACTORS
330
66
102
}
330
66
100
DictionaryVariables
280
     0
  1
0
  0
DICTIONARYVAR
  5
14E
102
{ACAD_REACTORS
330
66
102
}
330
66
100
DictionaryVariables
280
     0
  1
0
  0
DICTIONARYVAR
  5
6D8
102
{ACAD_REACTORS
330
66
102
}
330
66
100
DictionaryVariables
280
     0
  1
0
  0
DICTIONARYVAR
  5
C1A3
102
{ACAD_REACTORS
330
66
102
}
330
66
100
DictionaryVariables
280
     0
  1
1
  0
DICTIONARYVAR
  5
C1A4
102
{ACAD_REACTORS
330
66
102
}
330
66
100
DictionaryVariables
280
     0
  1
100.000000
  0
DICTIONARYVAR
  5
C1B1
102
{ACAD_REACTORS
330
66
102
}
330
66
100
DictionaryVariables
280
     0
  1
2
  0
XRECORD
  5
C1B0
102
{ACAD_REACTORS
330
18F
102
}
330
18F
100
AcDbXrecord
280
     1
1000
ADE02C001
1070
     1
1070
     0
1002
{
1002
}
1002
{
1002
}
1002
{
1002
}
1000

  0
XRECORD
  5
1FB
102
{ACAD_REACTORS
330
1FA
102
}
330
1FA
100
AcDbXrecord
280
     1
330
0
  0
DMSTYLIZEDENTITIESTABLE
  5
189
102
{ACAD_REACTORS
330
179
102
}
330
179
100
AcMapDMStylizedEntitiesTable
 70
     1
  0
DICTIONARY
  5
18A
102
{ACAD_REACTORS
330
179
102
}
330
179
100
AcDbDictionary
280
     1
281
     1
  0
DATATABLE
  5
17D
102
{ACAD_REACTORS
330
179
102
}
330
179
100
AcDbDataTable
 70
     2
 90
        4
 91
       15
  1

 92
        3
  2
OriginalClassName
  3
AcMapDMDefaultStyle
  3
AcMapDMEntityStyle
  3
AcMapDMRasterStyle
  3
AcMapDMSEAnnotationStyle
  3
AcMapDMSEHatchStyle
  3
AcMapDMSETextStyle
  3
AcMapDMThematicStyle
  3
AcMapDMBaseElement
  3
AcMapDMAttachedDwgsQueryElement
  3
AcMapDMFeatureElement
  3
AcMapDMLayerElement
  3
AcMapDMCurrentDwgQueryElement
  3
AcMapDMRasterElement
  3
AcMapDMTopoElement
  3
AcMapDMTopoQueryElement
 92
        3
  2
ProxyDisplayName
  3
Default
  3
Entity
  3
Raster
  3
Annotation
  3
Hatch
  3
Text
  3
Thematic
  3
Map Base
  3
Ade Query
  3
Feature Class
  3
Layer
  3
Ade Project Query
  3
Raster
  3
Topology
  3
Topology Query
 92
        1
  2
CustomObjectType
 93
        2
 93
        2
 93
        2
 93
        2
 93
        2
 93
        2
 93
        2
 93
        1
 93
        1
 93
        1
 93
        1
 93
        1
 93
        1
 93
        1
 93
        1
 92
        1
  2
StyleCoExistanceType
 93
        1
 93
        1
 93
        1
 93
        1
 93
        1
 93
        1
 93
        2
 93
        0
 93
        0
 93
        0
 93
        0
 93
        0
 93
        0
 93
        0
 93
        0
  0
DMMAPMANAGER
  5
17A
102
{ACAD_REACTORS
330
179
102
}
330
179
100
AcDbDictionary
281
     1
  3
DisplayMap1
350
17F
100
AcDbDictionaryWithDefault
340
17F
100
AcMapDMMapManager
 70
     1
340
17F
  0
DMSTYLELIBRARY
  5
17B
102
{ACAD_REACTORS
330
179
102
}
330
179
100
AcMapDMStyleLibrary
 70
     1
 70
     1
360
17C
  0
DICTIONARY
  5
17E
102
{ACAD_REACTORS
330
179
102
}
330
179
100
AcDbDictionary
281
     1
  0
DICTIONARY
  5
6F0
330
22
100
AcDbDictionary
280
     1
281
     1
  3
AcPublish_PlotSettingsOverride
360
C155
  3
ADSK_XREC_LAYOUTTHUMBNAIL
360
6F1
  0
DICTIONARY
  5
C1B8
330
97
100
AcDbDictionary
280
     1
281
     1
  3
ACAD_XREC_ROUNDTRIP
360
C1B9
  0
DICTIONARY
  5
C1B6
330
96
100
AcDbDictionary
280
     1
281
     1
  3
ACAD_XREC_ROUNDTRIP
360
C1B7
  0
DICTIONARY
  5
110
330
98
100
AcDbDictionary
280
     1
281
     1
  3
ACAD_XREC_ROUNDTRIP
360
C1BA
  3
BUMPTILE
360
112
  3
DIFFUSETILE
360
111
  3
OPACITYTILE
360
113
  3
REFLECTIONTILE
360
114
  0
DICTIONARY
  5
C171
330
181
100
AcDbDictionary
280
     1
281
     1
  3
ACAD_ROUNDTRIP_2008_TABLESTYLE_CELLSTYLEMAP
360
C1B3
  3
ACAD_XREC_ROUNDTRIP
360
C1E1
  0
DICTIONARY
  5
104
330
87
100
AcDbDictionary
280
     1
281
     1
  3
ACAD_ROUNDTRIP_2008_TABLESTYLE_CELLSTYLEMAP
360
C1B2
  3
ACAD_XREC_ROUNDTRIP
360
C1B5
  0
DICTIONARY
  5
C1C5
330
9F
100
AcDbDictionary
280
     1
281
     1
  3
ACAD_XREC_ROUNDTRIP
360
C1C6
  0
DICTIONARY
  5
C1C9
330
A1
100
AcDbDictionary
280
     1
281
     1
  3
ACAD_XREC_ROUNDTRIP
360
C1CA
  0
DICTIONARY
  5
C1C7
330
A0
100
AcDbDictionary
280
     1
281
     1
  3
ACAD_XREC_ROUNDTRIP
360
C1C8
  0
DICTIONARY
  5
C1C3
330
9E
100
AcDbDictionary
280
     1
281
     1
  3
ACAD_XREC_ROUNDTRIP
360
C1C4
  0
DICTIONARY
  5
C1D1
330
A5
100
AcDbDictionary
280
     1
281
     1
  3
ACAD_XREC_ROUNDTRIP
360
C1D2
  0
DICTIONARY
  5
C1D9
330
A9
100
AcDbDictionary
280
     1
281
     1
  3
ACAD_XREC_ROUNDTRIP
360
C1DA
  0
DICTIONARY
  5
C1CB
330
A2
100
AcDbDictionary
280
     1
281
     1
  3
ACAD_XREC_ROUNDTRIP
360
C1CC
  0
DICTIONARY
  5
C1CF
330
A4
100
AcDbDictionary
280
     1
281
     1
  3
ACAD_XREC_ROUNDTRIP
360
C1D0
  0
DICTIONARY
  5
C1DF
330
175
100
AcDbDictionary
280
     1
281
     1
  3
ACAD_XREC_ROUNDTRIP
360
C1E0
  0
DICTIONARY
  5
C1D7
330
A8
100
AcDbDictionary
280
     1
281
     1
  3
ACAD_XREC_ROUNDTRIP
360
C1D8
  0
DICTIONARY
  5
C1BB
330
9A
100
AcDbDictionary
280
     1
281
     1
  3
ACAD_XREC_ROUNDTRIP
360
C1BC
  0
DICTIONARY
  5
C1BD
330
9B
100
AcDbDictionary
280
     1
281
     1
  3
ACAD_XREC_ROUNDTRIP
360
C1BE
  0
DICTIONARY
  5
C1BF
330
9C
100
AcDbDictionary
280
     1
281
     1
  3
ACAD_XREC_ROUNDTRIP
360
C1C0
  0
DICTIONARY
  5
C1C1
330
9D
100
AcDbDictionary
280
     1
281
     1
  3
ACAD_XREC_ROUNDTRIP
360
C1C2
  0
DICTIONARY
  5
1AF
330
1AE
100
AcDbDictionary
280
     1
281
     1
  3
ACAD_XREC_ROUNDTRIP
360
1B0
  0
DICTIONARY
  5
C1DB
330
173
100
AcDbDictionary
280
     1
281
     1
  3
ACAD_XREC_ROUNDTRIP
360
C1DC
  0
DICTIONARY
  5
C1D5
330
A7
100
AcDbDictionary
280
     1
281
     1
  3
ACAD_XREC_ROUNDTRIP
360
C1D6
  0
DICTIONARY
  5
C1DD
330
174
100
AcDbDictionary
280
     1
281
     1
  3
ACAD_XREC_ROUNDTRIP
360
C1DE
  0
DICTIONARY
  5
C1CD
330
A3
100
AcDbDictionary
280
     1
281
     1
  3
ACAD_XREC_ROUNDTRIP
360
C1CE
  0
DICTIONARY
  5
1B2
330
1B1
100
AcDbDictionary
280
     1
281
     1
  3
ACAD_XREC_ROUNDTRIP
360
1B3
  0
DICTIONARY
  5
1B5
330
1B4
100
AcDbDictionary
280
     1
281
     1
  3
ACAD_XREC_ROUNDTRIP
360
1B6
  0
DICTIONARY
  5
1B8
330
1B7
100
AcDbDictionary
280
     1
281
     1
  3
ACAD_XREC_ROUNDTRIP
360
1B9
  0
DICTIONARY
  5
1BB
330
1BA
100
AcDbDictionary
280
     1
281
     1
  3
ACAD_XREC_ROUNDTRIP
360
1BC
  0
DICTIONARY
  5
C1D3
330
A6
100
AcDbDictionary
280
     1
281
     1
  3
ACAD_XREC_ROUNDTRIP
360
C1D4
  0
DICTIONARY
  5
1BE
330
1BD
100
AcDbDictionary
280
     1
281
     1
  3
ACAD_XREC_ROUNDTRIP
360
1BF
  0
DICTIONARY
  5
1C1
330
1C0
100
AcDbDictionary
280
     1
281
     1
  3
ACAD_XREC_ROUNDTRIP
360
1C2
  0
DMMAP
  5
17F
102
{ACAD_REACTORS
330
17A
330
182
102
}
330
17A
100
AcMapDMMap
 70
     1
  1
Default
 70
     1
330
0
100
AcMapDMMap
 70
     1
 90
        1
360
182
 90
        1
 40
1.797693134862314E+99
 70
     1
100
AcMapDMMap
 70
     2
 70
     0
 40
1.797693134862314E+99
290
     1
290
     1
 40
1.0
 40
3.0
  1
Legend
 90
        1
 40
1.797693134862314E+99
  1

 70
     0
 40
1.0
 70
     1
 90
        0
 90
        1
360
183
  0
DMSTYLECATEGORY
  5
17C
102
{ACAD_REACTORS
330
17B
102
}
330
17B
100
AcMapDMStyleCategory
 70
     1
  1
Display Styles
 70
     0
  0
PLOTSETTINGS
  5
C155
102
{ACAD_REACTORS
330
6F0
102
}
330
6F0
100
AcDbPlotSettings
  1

  2
Adobe PDF
  4
Letter
  6

 40
3.174999952316284
 41
3.174999952316284
 42
3.175003051757812
 43
3.17498779296875
 44
215.8999938964844
 45
279.3999938964844
 46
14.27790312490942
 47
10.059772090804
 48
0.0
 49
0.0
140
0.0
141
0.0
142
1.0
143
1.0
 70
 11940
 72
     0
 73
     1
 74
     1
  7
NETAFIM.ctb
 75
     0
147
1.157762431345048
 76
     0
 77
     2
 78
   300
148
22.74257348782844
149
0.0034861366045241
1001
ACAD_PSEXT
1000
Adobe PDF
1000
Adobe PDF Converter
1000
My Documents\*.pdf
1000

1070
     0
  0
XRECORD
  5
6F1
102
{ACAD_REACTORS
330
6F0
102
}
330
6F0
100
AcDbXrecord
280
     1
310
28000000000100008F0000000100080000000000008F0000000000000000000000010000000000000000000000000000FFFFFF000000000000000000000000000000000000000000000000000000000000000000330000006600000099000000CC000000FF00000000330000333300006633000099330000CC330000FF3300
310
0000660000336600006666000099660000CC660000FF66000000990000339900006699000099990000CC990000FF99000000CC000033CC000066CC000099CC0000CCCC0000FFCC000000FF000033FF000066FF000099FF0000CCFF0000FFFF000000003300330033006600330099003300CC003300FF003300003333003333
310
33006633330099333300CC333300FF33330000663300336633006666330099663300CC663300FF66330000993300339933006699330099993300CC993300FF99330000CC330033CC330066CC330099CC3300CCCC3300FFCC330000FF330033FF330066FF330099FF3300CCFF3300FFFF330000006600330066006600660099
310
006600CC006600FF00660000336600333366006633660099336600CC336600FF33660000666600336666006666660099666600CC666600FF66660000996600339966006699660099996600CC996600FF99660000CC660033CC660066CC660099CC6600CCCC6600FFCC660000FF660033FF660066FF660099FF6600CCFF6600
310
FFFF660000009900330099006600990099009900CC009900FF00990000339900333399006633990099339900CC339900FF33990000669900336699006666990099669900CC669900FF66990000999900339999006699990099999900CC999900FF99990000CC990033CC990066CC990099CC9900CCCC9900FFCC990000FF99
310
0033FF990066FF990099FF9900CCFF9900FFFF99000000CC003300CC006600CC009900CC00CC00CC00FF00CC000033CC003333CC006633CC009933CC00CC33CC00FF33CC000066CC003366CC006666CC009966CC00CC66CC00FF66CC000099CC003399CC006699CC009999CC00CC99CC00FF99CC0000CCCC0033CCCC0066CC
310
CC0099CCCC00CCCCCC00FFCCCC0000FFCC0033FFCC0066FFCC0099FFCC00CCFFCC00FFFFCC000000FF003300FF006600FF009900FF00CC00FF00FF00FF000033FF003333FF006633FF009933FF00CC33FF00FF33FF000066FF003366FF006666FF009966FF00CC66FF00FF66FF000099FF003399FF006699FF009999FF00CC
310
99FF00FF99FF0000CCFF0033CCFF0066CCFF0099CCFF00CCCCFF00FFCCFF0000FFFF0033FFFF0066FFFF0099FFFF00CCFFFF00FFFFFF00000000000D0D0D001A1A1A00282828003535350043434300505050005D5D5D006B6B6B00787878008686860093939300A1A1A100AEAEAE00BBBBBB00C9C9C900D6D6D600E4E4E400
310
F1F1F100FFFFFF0000000000000000000000000000000000000000000000000000000000000000000000000000000000E2E2E2E2E2E2E2E2E2E2E2E2E2E2E2E2E2E2E2E2E2E2E2E2E2E2E2E2BEBEBEBEBEBEBEBEBEBEBEBEBEBEBEBEBEBEBEBEBEBEBEBEBEBEBEBEBEBEBEBEBEBEBEBEBEBEBEBEBEBEBEBEBEBEBEBEBEBEBE
310
BEBEBEBEBEBEBEBEBEBEBEBEBEBEBEBEBEBEBEBEBEBEBEBEBEBEBEBEBEBEBEBEBEBEBEBEBEBEBEBEBEBEBEBEBEBEBEBEBEBEBEBEBEBEBEBEBEBEBEBEBEBEBEBEBEBEBEBEBEBEBEBEBEBEBEBEBEBEBEBEBEBEBEBEBEBEBEBEBEBEBEBEBEBEBEBEBEBEBEBEBEBEBEBEBEBEBEBEBEBEBEBEBEBEBEBEBEBEBEBEBEBEBEBEBEBEBE
310
BEBEBEBEBEBEBEBEBEBEBEBEBEBEBEBEBEBEBEBEBEBEE2E2E2E2E2E2E2E2E2E2E2E2E2E2E2E2E2E2E2E2E2E2E2E2E2E2E2E2E2E2E2E2E2E2E2E2E2E2E2E2E2E2E2E2E2E2E2E2E2E2E2E2E2E2E2E2BEE2E2E2E2E2E2E2E2E2E2E2E2E2E2E2E2E2BEE2E2E2E2E2E2E2E2E2E2E2E2E2E2E2E2E2E2E2E2E2E2E2E2E2E2E2E2E2E2
310
E2E2E2E2E2E2E2E2E2E2E2E2E2E2E2E2E2E2E2E2E2E2E2E2E2E2E2E2E2E2E2E2E2E2E2E2E2E2E2E2E2E2E2E2E2E2E2E2E2E2E2E2E2E2E2E2E2E2E2E2E2E2E2E2E2E2E2E2E2E2E2E2E2E2E2E2E2E2E2E2E2E2E2E2E2E2E2E2E2E2E2E2E2E2E2E2E2E2E2E2E2E2E2E2E2E2E2E2E2E2E2E2E2E2E2E2E2E2E2E2E2E2E2E2E2E2E2
310
E2E2E2E2E2E2E2E2E2E2E2E2E2E2E2E2E2E2E2E2E2E2E2BEE2E2E2E2E2E2E2E2E2E2E2E2E2E2E2E2E2E2E2E2E2E2E2E2E2E2E2E2E2E2E2E2E2E2E2E2E2E2E2E2E2E2E2E2E2E2E2E2E2E2E2E2E2E2E2E2BEE2E2E2E2E2E2E2E2E2E2E2E2E2E2E2E2E2BEE2E2E2E2E2C3C3C3C3C3C3E2E2E2E2E2E2E2E2E2E2E2E2E2E2E2E2E2
310
E2E2E2E2E2E2E2E2E2E2E2E2E2E2E2E2E2E2E2E2E2E2E2E2E2E2E2E2E2E2E2E2E2E2E2E2E2E2E2E2E2E2E2E2E2E2E2E2E2E2E2E2E2E2E2E2E2E2E2E2E2E2E2E2E2E2E2E2E2E2E2E2E2E2E2E2E2E2E2E2E2E2E2E2E2E2E2E2E2E2E2E2E2E2E2E2E2E2E2E2E2E2E2E2E2E2E2E2E2E2E2E2E2E2E2E2E2E2E2E2E2E2E2E2E2E2E2
310
E2E2E2E2E2E2E2E2E2E2E2E2E2E2E2E2E2E2E2E2E2E2E2E2E2BEE2E2E2E2E2E2E2E2E2E2E2E2E2E2E2E2E2E2E2E2E2E2E2E2E2E2E2E2E2E2E2E2E2E2E2E2E2E2E2E2E2E2E2E2E2E2E2E2E2E2E2E2E2E2E2E2BEE2E2E2E2E2E2E2E2E2E2E2E2E2E2E2E2E2BEE2E2E2C3C3E2E2E2E2E2C3C3E2E2E2E2E2DCDCDCDCDCE2E2DCDC
310
DCE2E2DCDCDCDCDCDCDCDCE2E2E2E2E2E2E2E2E2E2E2E2E2E2E2E2E2E2E2E2E2E2E2E2E2E2E2E2E2E2E2E2E2E2E2E2E2E2E2E2E2E2E2E2E2E2E2E2E2E2E2E2E2E2E2E2E2E2E2E2E2E2E2E2E2E2E2E2E2E2E2E2E2E2E2E2E2E2E2E2E2E2E2E2E2E2E2E2E2E2E2E2E2E2E2E2E2E2E2E2E2E2E2E2E2E2E2E2E2E2E2E2E2E2E2E2
310
E2E2DCDCDCDCDCE2DCDCDCE2E2E2E2E2DCDCDCDCDCE2DCE2E2E2E2BEE2E2E2E2E2E2E2E2E2E2E2E2E2E2E2E2E2E2E2E2E2E2E2E2E2E2E2E2E2E2E2E2E2E2E2E2E2E2E2E2E2E2E2E2E2E2E2E2E2E2E2E2E2E2E2E2BEE2E2E2E2E2E2E2E2E2E2E2E2E2E2E2E2E2BEE2E2E2C3E2E2E2E2E2E2E2C3C3E2E2E2E2DCDCDCDCDCE2E2
310
DCDCDCE2E2DCDCDCDCDCDCDCDCE2E2E2E2E2E2E2E2E2E2E2E2E2E2E2E2E2E2E2E2E2E2E2E2E2E2E2E2E2E2E2E2E2E2E2E2E2E2E2E2E2E2E2E2E2E2E2E2E2E2E2E2E2E2E2E2E2E2E2E2E2E2E2E2E2E2E2E2E2E2E2E2E2E2E2E2E2E2E2E2E2E2E2E2E2E2E2E2E2E2E2E2E2E2E2E2E2E2E2E2E2E2E2E2E2E2E2E2E2E2E2E2E2E2
310
E2E2E2E2DCDCDCDCDCDCDCDCE2E2DCDCE2E2DCDCDCDCDCE2DCE2E2E2E2BEE2E2E2E2E2E2E2E2E2E2E2E2E2E2E2E2E2E2E2E2E2E2E2E2E2E2E2E2E2E2E2E2E2E2E2E2E2E2E2E2E2E2E2E2E2E2E2E2E2E2E2E2E2E2E2E2BEE2BEBEE2E2BEBEBEBEBEBEBEBEBEBEE2E2BEE2E2C3E2DCDCDCDCDCDCE2E2C3E2E2E2E2DCDCDCDCDC
310
DCDCDCDCDCE2E2DCDCDCDCDCDCDCDCE2E2E2E2E2E2E2E2E2E2E2E2E2E2E2E2E2E2E2E2E2E2E2E2E2E2E2E2E2E2E2E2E2E2E2E2E2E2E2E2E2E2E2E2E2E2E2E2E2E2E2E2E2E2E2E2E2E2E2E2E2E2E2E2E2E2E2E2E2E2E2E2E2E2E2E2E2E2E2E2E2E2E2E2E2E2E2E2E2E2E2E2E2E2E2E2E2E2E2E2E2E2E2E2E2E2E2E2E2E2E2E2
310
E2E2E2E2E2E2DCDCDCDCDCDCDCDCE2E2E2E2E2E2DCDCDCDCDCDCDCE2E2E2E2BEE2E2E2E2E2E2E2E2E2E2E2E2E2E2E2E2E2E2E2E2E2E2E2E2E2E2E2E2E2E2E2E2E2E2E2E2E2E2E2E2E2E2E2E2E2E2E2E2E2E2E2E2E2E2E2E2BEE2BEBEE2E2BEBEBEBEBEBEBEBEBEBEE2E2BEE2E2C3E2DCE2DCDCE2DCE2E2E2C3E2E2E2E2E2E2
310
E2E2E2E2E2E2E2E2E2E2E2E2E2E2E2E2E2E2E2E2E2E2E2E2E2E2E2E2E2E2E2E2E2E2E2E2E2E2E2E2E2E2E2E2E2E2E2E2E2E2E2E2E2E2E2E2E2E2E2E2E2E2E2E2E2E2E2E2E2E2E2E2E2E2E2E2E2E2E2E2E2E2E2E2E2E2E2E2E2E2E2E2E2E2E2E2E2E2E2E2E2E2E2E2E2E2E2E2E2E2E2E2E2E2E2E2E2E2E2E2E2E2E2E2E2E2E2
310
E2E2E2E2E2E2E2E2E2E2E2E2E2E2E2E2E2E2E2E2E2E2E2E2E2E2E2E2E2E2E2E2E2BEE2E2E2E2E2E2E2E2E2E2E2E2E2E2E2E2E2E2E2E2E2E2E2E2E2E2E2E2E2E2E2E2E2E2E2E2E2E2E2E2E2E2E2E2E2E2E2E2E2E2E2E2E2E2E2E2BEE2BEBEE2E2BEBEBEBEBEBEBEBEBEBEE2E2BEE2E2C3E2DCE2DCDCE2DCE2E2E2C3C3C3DCDC
310
DCDCDCDCDCDCDCDCDCDCDCDCDCDCDCDCDCDCDCDCDCDCDCC3C3DCDCDCDCDCDCDCDCDCDCDCDCDCDCDCDCDCDCDCDCDCDCDCDCDCDCDCDCC3DCDCDCDCDCDCDCDCDCDCDCDCDCDCDCDCDCC3C3DCDCDCDCDCDCDCDCDCDCDCDCDCDCDCDCDCDCDCDCDCDCC3C3DCDCDCDCDCDCC3C3DCDCDCDCDCDCDCDCDCDCDCDCDCDCDCDCDCDCDCDCDCDC
310
DCDCDCDCDCC3C3C3C3C3C3C3C3C3C3C3C3C3C3C3C3C3C3C3C3C3C3C3C3C3C3E2E2E2E2BEE2E2E2E2E2E2E2E2E2E2E2E2E2E2E2E2E2E2E2E2E2E2E2E2E2E2E2E2E2E2E2E2E2E2E2E2E2E2E2E2E2E2E2E2E2E2E2E2E2E2E2E2E2E2E2E2BEE2BEBEE2E2BEBEBEBEBEBEBEBEBEBEE2E2BEE2E2C3E2DCE2DCDCE2DCE2E2E2C3E2E2
310
DCDCDCDCDCDCDCDCDCDCDCDCDCDCDCDCDCDCDCDCDCDCDCDCDCE2E2DCDCDCDCDCDCDCDCDCDCDCDCDCDCDCDCDCDCDCDCDCDCDCDCDCDCDCDCE2DCDCDCDCDCDCDCDCDCDCDCDCDCDCDCDCDCE2E2DCDCDCDCDCDCDCDCDCDCDCDCDCDCDCDCDCDCDCDCDCDCE2E2DCDCDCDCDCDCE2E2DCDCDCDCDCDCDCDCDCDCDCDCDCDCDCDCDCDCDCDC
310
DCDCDCDCDCDCDCE2E2E2E2E2E2E2E2E2E2E2E2E2E2E2E2E2E2E2E2E2E2E2E2E2E2E2E2E2E2BEE2E2E2E2E2E2E2E2E2E2E2E2E2E2E2E2E2E2E2E2E2E2E2E2E2E2E2E2E2E2E2E2E2E2E2E2E2E2E2E2E2E2E2E2E2E2E2E2E2E2E2E2E2E2E2E2BEE2BEBEE2E2BEBEBEBEBEBEBEBEBEBEE2E2BEE2E2C3E2DCDCDCDCDCDCE2E2C3C3
310
E2E2DCDCDCDCDCDCDCDCDCDCDCDCDCDCDCDCDCDCDCDCDCDCDCDCDCE2E2DCDCDCDCDCDCDCDCDCDCDCDCDCDCDCDCDCDCDCDCDCDCDCDCDCDCDCDCE2DCDCDCDCDCDCDCDCDCDCDCDCDCDCDCDCDCE2E2DCDCDCDCDCDCDCDCDCDCDCDCDCDCDCDCDCDCDCDCDCDCE2E2DCDCDCDCDCDCE2E2DCDCDCDCDCDCDCDCDCDCDCDCDCDCDCDCDCDC
310
DCDCDCDCDCDCDCDCDCE2BEBEBEE2E2E2E2E2E2E2E2E2E2E2E2E2E2E2E2E2E2E2E2E2E2E2E2E2E2BEE2E2E2E2E2E2E2E2E2E2E2E2E2E2E2E2E2E2E2E2E2E2E2E2E2E2E2E2E2E2E2E2E2E2E2E2E2E2E2E2E2E2E2E2E2E2E2E2E2E2E2E2E2E2E2E2BEE2BEBEE2E2BEBEBEBEBEBEBEBEBEBEE2E2BEE2E2C3C3E2E2E2E2E2E2E2E2
310
C3E2E2E2DCDCDCDCDCDCDCDCDCDCDCDCDCDCDCDCDCDCDCDCDCDCDCDCDCE2E2DCDCDCDCDCDCDCDCDCDCDCDCDCDCDCDCDCDCDCDCDCDCDCDCDCDCDCDCE2DCDCDCDCDCDCDCDCDCDCDCDCDCDCDCDCDCE2E2DCDCDCDCDCDCDCDCDCDCDCDCDCDCDCDCDCDCDCDCDCDCE2E2DCDCDCDCDCDCE2E2DCDCDCDCDCDCDCDCDCDCDCDCDCDCDCDC
310
DCDCDCDCDCDCDCDCDCDCDCE2BEBEBEE2E2E2E2E2E2E2E2E2E2E2E2E2E2E2E2E2E2E2E2E2E2E2E2E2E2BEE2E2E2E2E2E2E2E2E2E2E2E2E2E2E2E2E2E2E2E2E2E2E2E2E2E2E2E2E2E2E2E2E2E2E2E2E2E2E2E2E2E2E2E2E2E2E2E2E2E2E2E2E2E2E2E2BEE2BEBEE2E2BEBEBEBEBEBEBEBEBEBEE2E2BEE2E2E2C3E2E2E2E2E2E2
310
E2C3E2E2E2E2DCDCDCDCDCDCDCDCDCDCDCDCDCDCDCDCDCDCDCDCDCDCDCDCDCE2E2DCDCDCDCDCDCDCDCDCDCDCDCDCDCDCDCDCDCDCDCDCDCDCDCDCDCDCDCE2DCDCDCDCDCDCDCDCDCDCDCDCDCDCDCDCDCE2E2DCDCDCDCDCDCDCDCDCDCDCDCDCDCDCDCDCDCDCDCDCDCE2E2DCDCDCDCDCDCE2E2DCDCDCDCDCDCDCDCDCDCDCDCDCDC
310
DCDCDCDCDCDCDCDCDCDCDCDCDCE2BEBEBEE2E2E2E2E2E2E2E2E2E2E2E2E2E2E2E2E2E2E2E2E2E2E2E2E2E2BEE2E2E2E2E2E2E2E2E2E2E2E2E2E2E2E2E2E2E2E2E2E2E2E2E2E2E2E2E2E2E2E2E2E2E2E2E2E2E2E2E2E2E2E2E2E2E2E2E2E2E2E2E2E2E2E2BEE2BEBEE2E2BEBEBEBEBEBEBEBEBEBEE2E2BEE2E2E2E2C3C3E2E2
310
E2C3C3E2E2E2E2E2DCDCDCDCDCDCDCDCDCDCDCDCDCDCDCDCDCDCDCDCDCDCDCDCDCE2E2DCDCDCDCDCDCDCDCDCDCDCDCDCDCDCDCDCDCDCDCDCDCDCDCDCDCDCDCE2DCDCDCDCDCDCDCDCDCDCDCDCDCDCDCDCDCE2E2DCDCDCDCDCDCDCDCDCDCDCDCDCDCDCDCDCDCDCDCDCDCE2E2DCDCDCDCDCDCE2E2DCDCDCDCDCDCDCDCDCDCDCDC
310
DCDCDCDCDCDCDCDCDCDCDCDCDCDCDCE2E2BEBEBEBEBEBEBEBEBEBEBEBEBEBEBEBEBEBEBEBEBEBEE2E2E2E2E2E2BEE2E2E2E2E2E2E2E2E2E2E2E2E2E2E2E2E2E2E2E2E2E2E2E2E2E2E2E2E2E2E2E2E2E2E2E2E2E2E2E2E2E2E2E2E2E2E2E2E2E2E2E2E2E2E2E2BEE2BEBEE2E2BEBEBEBEBEBEBEBEBEBEE2E2BEE2E2E2E2E2E2
310
C3C3C3C3E2E2E2E2E2E2E2E2E2E2E2E2E2E2E2E2E2E2E2E2E2E2E2E2E2E2E2E2E2E2E2E2E2E2E2E2E2E2E2E2E2E2E2E2E2E2E2E2E2E2E2E2E2E2E2E2E2E2E2E2E2E2E2E2E2E2E2E2E2E2E2E2E2E2E2E2E2E2E2E2E2E2E2E2E2E2E2E2E2E2E2E2E2E2E2E2E2E2E2E2E2E2E2E2E2E2E2E2E2E2E2E2E2E2E2E2E2E2E2E2E2E2E2
310
E2E2E2E2E2E2E2E2E2E2E2E2E2E2E2E2E2E2E2BEBEBEBEBEBEBEBEBEBEBEBEBEBEBEBEBEBEBEBEBEBEE2E2E2E2E2E2BEE2E2E2E2E2E2E2E2E2E2E2E2E2E2E2E2E2E2E2E2E2E2E2E2E2E2E2E2E2E2E2E2E2E2E2E2E2E2E2E2E2E2E2E2E2E2E2E2E2E2E2E2E2E2E2E2BEE2BEBEE2E2BEBEBEBEBEBEBEBEBEBEE2E2BEE2E2E2E2
310
E2E2E2E2E2E2E2E2E2E2E2E2E2E2E2E2E2E2E2E2E2E2E2E2E2E2E2E2E2E2E2E2E2E2E2E2E2E2E2E2E2E2E2E2E2E2E2E2E2E2E2E2E2E2E2E2E2E2E2E2E2E2E2E2E2E2E2E2E2E2E2E2E2E2E2E2E2E2E2E2E2E2E2E2E2E2E2E2E2E2E2E2E2E2E2E2E2E2E2E2E2E2E2E2E2E2E2E2E2E2E2E2E2E2E2E2E2E2E2E2E2E2E2E2E2E2E2
310
E2E2E2E2E2E2E2E2E2E2E2E2E2E2E2E2E2E2E2E2E2E2E2BEE2BEBEBEBEBEBEBEBEBEBEBEBEBEBEBEBEBEBEBEBEE2E2E2E2BEE2E2E2E2E2E2E2E2E2E2E2E2E2E2E2E2E2E2E2E2E2E2E2E2E2E2E2E2E2E2E2E2E2E2E2E2E2E2E2E2E2E2E2E2E2E2E2E2E2E2E2E2E2E2E2E2BEE2BEBEE2E2BEBEBEBEBEBEBEBEBEBEE2E2BEE2E2
310
E2E2E2E2E2E2E2E2E2E2E2E2E2E2E2E2E2E2E2E2E2E2E2E2E2E2E2E2E2E2E2E2E2E2E2E2E2E2E2E2E2E2E2E2E2E2E2E2E2E2E2E2E2E2E2E2E2E2E2E2E2E2E2E2E2E2E2E2E2E2E2E2E2E2E2E2E2E2E2E2E2E2E2E2E2E2E2E2E2E2E2E2E2E2E2E2E2E2E2E2E2E2E2E2E2E2E2E2E2E2E2E2E2E2E2E2E2E2E2E2E2E2E2E2E2E2E2
310
E2E2E2E2E2E2E2E2E2E2E2E2E2E2E2E2E2E2E2E2E2E2E2E2E2BEE2BEBEBEBEBEBEBEBEBEBEBEBEBEBEBEBEBEBEBEBEE2E2E2E2BEE2E2E2E2E2E2E2E2E2E2E2E2E2E2E2E2E2E2E2E2E2E2E2E2E2E2E2E2E2E2E2E2E2E2E2E2E2E2E2E2E2E2E2E2E2E2E2E2E2E2E2E2E2E2E2E2BEE2E2E2E2E2BEBEBEBEBEBEBEBEBEBEE2E2BE
310
E2E2E2E2E2E2E2E2E2E2E2E2E2E2E2E2E2E2E2E2E2E2E2E2E2E2E2E2E2E2E2E2E2E2E2E2E2E2E2E2E2E2E2E2E2E2E2E2E2E2E2E2E2E2E2E2E2E2E2E2E2E2E2E2E2E2E2E2E2E2E2E2E2E2E2E2E2E2E2E2E2E2E2E2E2E2E2E2E2E2E2E2E2E2E2E2E2E2E2E2E2E2E2E2E2E2E2E2E2E2E2E2E2E2E2E2E2E2E2E2E2E2E2E2E2E2E2
310
E2E2E2E2E2E2E2E2E2E2E2E2E2E2E2E2E2E2E2E2E2E2E2E2E2E2E2E2E2E2E2E2E2E2E2E2E2E2E2E2E2E2E2E2E2E2E2E2E2E2E2E2E2BEE2E2E2E2E2E2E2E2E2E2E2E2E2E2E2E2E2E2E2E2E2E2E2E2E2E2E2E2E2E2E2E2E2E2E2E2E2E2E2E2E2E2E2E2E2E2E2E2E2E2E2E2E2E2E2E2BEE2E2E2E2E2BEBEBEBEBEBEBEBEBEBEE2
310
E2BEE2E2E2E2E2E2E2E2E2E2E2E2E2E2E2E2E2E2E2E2E2E2E2E2E2E2E2E2E2E2E2E2E2E2E2E2E2E2E2E2E2E2E2E2E2E2E2E2E2E2E2E2E2E2E2E2E2E2E2E2E2E2E2E2E2E2E2E2E2E2E2E2E2E2E2E2E2E2E2E2E2E2E2E2E2E2E2E2E2E2E2E2E2E2E2E2E2E2E2E2E2E2E2E2E2E2E2E2E2E2E2E2E2E2E2E2E2E2E2E2E2E2E2E2E2
310
E2E2E2E2E2E2E2E2E2E2E2E2E2E2E2E2E2E2E2E2E2E2E2E2E2E2E2E2E2E2E2E2E2E2E2E2E2E2E2E2E2E2E2E2E2E2E2E2E2E2E2E2E2E2E2BEE2E2E2E2E2E2E2E2E2E2E2E2E2E2E2E2E2E2E2E2E2E2E2E2E2E2E2E2E2E2E2E2E2E2E2E2E2E2E2E2E2E2E2E2E2E2E2E2E2E2E2E2E2E2E2E2BEE2E2E2E2E2BEBEBEBEBEBEBEBEBE
310
BEE2E2BEE2E2E2E2E2E2E2E2E2E2E2E2E2E2E2E2E2E2E2E2E2E2E2E2E2E2E2E2E2E2E2E2E2E2E2E2E2E2E2E2E2E2E2E2E2E2E2E2E2E2E2E2E2E2E2E2E2E2E2E2E2E2E2E2E2E2E2E2E2E2E2E2E2E2E2E2E2E2E2E2E2E2E2E2E2E2E2E2E2E2E2E2E2E2E2E2E2E2E2E2E2E2E2E2E2E2E2E2E2E2E2E2E2E2E2E2E2E2E2E2E2E2E2
310
E2E2E2E2E2E2E2E2E2E2E2E2E2E2E2E2E2E2E2E2E2E2E2E2E2E2E2E2E2E2E2E2E2E2E2E2E2E2E2E2E2E2E2E2E2E2E2E2E2E2E2E2E2E2E2E2E2BEE2E2E2E2E2E2E2E2E2E2E2E2E2E2E2E2E2E2E2E2E2E2E2E2E2E2E2E2E2E2E2E2E2E2E2E2E2E2E2E2E2E2E2E2E2E2E2E2E2E2E2E2E2E2E2E2BEE2E2E2E2E2BEBEBEBEBEBEBE
310
BEBEBEE2E2BEE2E2E2E2E2E2E2E2E2E2E2E2E2E2E2E2E2E2E2E2E2E2E2E2E2E2E2E2E2E2E2E2E2E2E2E2E2E2E2E2E2E2E2E2E2E2E2E2E2E2E2E2E2E2E2E2E2E2E2E2E2E2E2E2E2E2E2E2E2E2E2E2E2E2E2E2E2E2E2E2E2E2E2E2E2E2E2E2E2E2E2E2E2E2E2E2E2E2E2E2E2E2E2E2E2E2E2E2E2E2E2E2E2E2E2E2E2E2E2E2E2
310
E2E2E2E2E2E2E2E2E2E2E2E2E2E2E2E2E2E2E2E2E2E2E2E2E2E2E2E2E2E2E2E2E2E2E2E2E2E2E2E2E2E2E2E2E2E2E2E2E2E2E2E2E2E2E2E2E2E2E2BEE2E2E2E2E2E2E2E2E2E2E2E2E2E2E2E2E2E2E2E2E2E2E2E2E2E2E2E2E2E2E2E2E2E2E2E2E2E2E2E2E2E2E2E2E2E2E2E2E2E2E2E2E2E2E2E2BEE2E2E2E2E2BEBEBEBEBE
310
BEBEBEBEBEE2E2BEE2E2E2E2E2E2E2E2E2E2E2E2E2E2E2E2E2E2E2E2E2E2E2E2E2E2E2E2E2E2E2E2E2E2E2E2E2E2E2E2E2E2E2E2E2E2E2E2E2E2E2E2E2E2E2E2E2E2E2E2E2E2E2E2E2E2E2E2E2E2E2E2E2E2E2E2E2E2E2E2E2E2E2E2E2E2E2E2E2E2E2E2E2E2E2E2E2E2E2E2E2E2E2E2E2E2E2E2E2E2E2E2E2E2E2E2E2E2E2
310
E2E2E2E2E2E2E2E2E2E2E2E2E2E2E2E2E2E2E2E2E2E2E2E2E2E2E2E2E2E2E2E2E2E2E2E2E2E2E2E2E2E2E2E2E2E2E2E2E2E2E2E2E2E2E2E2E2E2E2E2E2BEE2E2E2E2E2E2E2E2E2E2E2E2E2E2E2E2E2E2E2E2E2E2E2E2E2E2E2E2E2E2E2E2E2E2E2E2E2E2E2E2E2E2E2E2E2E2E2E2E2E2E2E2E2E2E2E2BEE2E2E2E2E2BEBEBE
310
BEBEBEBEBEBEBEE2E2BEE2E2E2E2E2E2E2E2E2E2E2E2E2E2E2E2E2E2E2E2E2E2E2E2E2E2E2E2E2E2E2E2E2E2E2E2E2E2E2E2E2E2E2E2E2E2E2E2E2E2E2E2E2E2E2E2E2E2E2E2E2E2E2E2E2E2E2E2E2E2E2E2E2E2E2E2E2E2E2E2E2E2E2E2E2E2E2E2E2E2E2E2E2E2E2E2E2E2E2E2E2E2E2E2E2E2E2E2E2E2E2E2E2E2E2E2E2
310
E2E2E2E2E2E2E2E2E2E2E2E2E2E2E2E2E2E2E2E2E2E2E2E2E2E2E2E2E2E2E2E2E2E2E2E2E2E2E2E2E2E2E2E2E2E2E2E2E2E2E2E2E2E2E2E2E2E2E2E2E2E2E2BEE2E2E2E2E2E2E2E2E2E2E2E2E2E2E2E2E2E2E2E2E2E2E2E2E2E2E2E2E2E2E2E2E2E2E2E2E2E2E2E2E2E2E2E2E2E2E2E2E2E2E2E2E2E2E2E2BEE2E2E2E2E2BE
310
BEBEBEBEBEBEBEBEBEE2E2BEE2E2E2E2E2E2E2E2E2E2E2E2E2E2E2E2E2E2E2E2E2E2E2E2E2E2E2E2E2E2E2E2E2E2E2E2E2E2E2E2E2E2E2E2E2E2E2E2E2E2E2E2E2E2E2E2E2E2E2E2E2E2E2E2E2E2E2E2E2E2E2E2E2E2E2E2E2E2E2E2E2E2E2E2E2E2E2E2E2E2E2E2E2E2E2E2E2E2E2E2E2E2E2E2E2E2E2E2E2E2E2E2E2E2E2
310
E2E2E2E2E2E2E2E2E2E2E2E2E2E2E2E2E2E2E2E2E2E2E2E2E2E2E2E2E2E2E2E2E2E2E2E2E2E2E2E2E2E2E2E2E2E2E2E2E2E2E2E2E2E2E2E2E2E2E2E2E2E2E2E2E2BEE2E2E2E2E2E2E2E2E2E2E2E2E2E2E2E2E2E2E2E2E2E2E2E2E2E2E2E2E2E2E2E2E2E2E2E2E2E2E2E2E2E2E2E2E2E2E2E2E2E2E2E2E2E2E2E2BEE2E2E2E2
310
E2BEBEBEBEBEBEBEBEBEBEE2E2BEE2E2E2E2E2E2E2E2E2E2E2E2E2E2E2E2E2E2E2E2E2E2E2E2E2E2E2E2E2E2E2E2E2E2E2E2E2E2E2E2E2E2E2E2E2E2E2E2E2E2E2E2E2E2E2E2E2E2E2E2E2E2E2E2E2E2E2E2E2E2E2E2E2E2E2E2E2E2E2E2E2E2E2E2E2E2E2E2E2E2E2E2E2E2E2E2E2E2E2E2E2E2E2E2E2E2E2E2E2E2E2E2E2
310
E2E2E2E2E2E2E2E2E2E2E2E2E2E2E2E2E2E2E2E2E2E2E2E2E2E2E2E2E2E2E2E2E2E2E2E2E2E2E2E2E2E2E2E2E2E2E2E2E2E2E2E2E2E2E2E2E2E2E2E2E2E2E2E2E2E2E2BEE2E2E2E2E2E2E2E2E2E2E2E2E2E2E2E2E2E2E2E2E2E2E2E2E2E2E2E2E2E2E2E2E2E2E2E2E2E2E2E2E2E2E2E2E2E2E2E2E2E2E2E2E2E2E2E2BEE2E2
310
E2E2E2BEBEBEBEBEBEBEBEBEBEE2E2BEE2E2E2E2E2E2E2E2E2E2E2E2E2E2E2E2E2E2E2E2E2E2E2E2E2E2E2E2E2E2E2E2E2E2E2E2E2E2E2E2E2E2E2E2E2E2E2E2E2E2E2E2E2E2E2E2E2E2E2E2E2E2E2E2E2E2E2E2E2E2E2E2E2E2E2E2E2E2E2E2E2E2E2E2E2E2E2E2E2E2E2E2E2E2E2E2E2E2E2E2E2E2E2E2E2E2E2E2E2E2E2
310
E2E2E2E2E2E2E2E2E2E2E2E2E2E2E2E2E2E2E2E2E2E2E2E2E2E2E2E2E2E2E2E2E2E2E2E2E2E2E2E2E2E2E2E2E2E2E2E2E2E2E2E2E2E2E2E2E2E2E2E2E2E2E2E2E2E2E2E2E2BEE2E2E2E2E2E2E2E2E2E2E2E2E2E2E2E2E2E2E2E2E2E2E2E2E2E2E2E2E2E2E2E2E2E2E2E2E2E2E2E2E2E2E2E2E2E2E2E2E2E2E2E2E2E2E2E2BE
310
E2E2E2E2E2BEBEBEBEBEBEBEBEBEBEE2E2BEE2E2E2E2E2E2E2E2E2E2E2E2E2E2E2E2E2E2E2E2E2E2E2E2E2E2E2E2E2E2E2E2E2E2E2E2E2E2E2E2E2E2E2E2E2E2E2E2E2E2E2E2E2E2E2E2E2E2E2E2E2E2E2E2E2E2E2E2E2E2E2E2E2E2E2E2E2E2E2E2E2E2E2E2E2E2E2E2E2E2E2E2E2E2E2E2E2E2E2E2E2E2E2E2E2E2E2E2E2
310
E2E2E2E2E2E2E2E2E2E2E2E2E2E2E2E2E2E2E2E2E2E2E2E2E2E2E2E2E2E2E2E2E2E2E2E2E2E2E2E2E2E2E2E2E2E2E2E2E2E2E2E2E2E2E2E2E2E2E2E2E2E2E2E2E2E2E2E2E2E2E2BEE2E2E2E2E2E2E2E2E2E2E2E2E2E2E2E2E2E2E2E2E2E2E2E2E2E2E2E2E2E2E2E2E2E2E2E2E2E2E2E2E2E2E2E2E2E2E2E2E2E2E2E2E2E2E2
310
E2BEE2E2E2E2E2BEBEBEBEBEBEBEBEBEBEE2E2BEE2E2E2E2E2E2E2E2E2E2E2E2E2E2E2E2E2E2E2E2E2E2E2E2E2E2E2E2E2E2E2E2E2E2E2E2E2E2E2E2E2E2E2E2E2E2E2E2E2E2E2E2E2E2E2E2E2E2E2E2E2E2E2E2E2E2E2E2E2E2E2E2E2E2E2E2E2E2E2E2E2E2E2E2E2E2E2E2E2E2E2E2E2E2E2E2E2E2E2E2E2E2E2E2E2E2E2
310
E2E2E2E2E2E2E2E2E2E2E2E2E2E2E2E2E2E2E2E2E2E2E2E2E2E2E2E2E2E2E2E2E2E2E2E2E2E2E2E2E2E2E2E2E2E2E2E2E2E2E2E2E2E2E2E2E2E2E2E2E2E2E2E2E2E2E2E2E2E2E2E2E2BEE2E2E2E2E2E2E2E2E2E2E2E2E2E2E2E2E2E2E2E2E2E2E2E2E2E2E2E2E2E2E2E2E2E2E2E2E2E2E2E2E2E2E2E2E2E2E2E2E2E2E2E2E2
310
E2E2E2BEE2E2E2E2E2BEBEBEBEBEBEBEBEBEBEE2E2BEE2E2E2E2E2E2E2E2E2E2E2E2E2E2E2E2E2E2E2E2E2E2E2E2E2E2E2E2E2E2E2E2E2E2E2E2E2E2E2E2E2E2E2E2E2E2E2E2E2E2E2E2E2E2E2E2E2E2E2E2E2E2E2E2E2E2E2E2E2E2E2E2E2E2E2E2E2E2E2E2E2E2E2E2E2E2E2E2E2E2E2E2E2E2E2E2E2E2E2E2E2E2E2E2E2
310
E2E2E2E2E2E2E2E2E2E2E2E2E2E2E2E2E2E2E2E2E2E2E2E2E2E2E2E2E2E2E2E2E2E2E2E2E2E2E2E2E2E2E2E2E2E2E2E2E2E2E2E2E2E2E2E2E2E2E2E2E2E2E2E2E2E2E2E2E2E2E2E2E2E2E2BEE2E2E2E2E2E2E2E2E2E2E2E2E2E2E2E2E2E2E2E2E2E2E2E2E2E2E2E2E2E2E2E2E2E2E2E2E2E2E2E2E2E2E2E2E2E2E2E2E2E2E2
310
E2E2E2E2E2BEE2E2E2E2E2BEBEBEBEBEBEBEBEBEBEE2E2BEE2E2E2E2E2E2E2E2E2E2E2E2E2E2E2E2E2E2E2E2E2E2E2E2E2E2E2E2E2E2E2E2E2E2E2E2E2E2E2E2E2E2E2E2E2E2E2E2E2E2E2E2E2E2E2E2E2E2E2E2E2E2E2E2E2E2E2E2E2E2E2E2E2E2E2E2E2E2E2E2E2E2E2E2E2E2E2E2E2E2E2E2E2E2E2E2E2E2E2E2E2E2E2
310
E2E2E2E2E2E2E2E2E2E2E2E2E2E2E2E2E2E2E2E2E2E2E2E2E2E2E2E2E2E2E2E2E2E2E2E2E2E2E2E2E2E2E2E2E2E2E2E2E2E2E2E2E2E2E2E2E2E2E2E2E2E2E2E2E2E2E2E2E2E2E2E2E2E2E2E2E2BEE2E2E2E2E2E2E2E2E2E2E2E2E2E2E2E2E2E2E2E2E2E2E2E2E2E2E2E2E2E2E2E2E2E2E2E2E2E2E2E2E2E2E2E2E2E2E2E2E2
310
E2E2E2E2E2E2E2BEE2E2E2E2E2BEBEBEBEBEBEBEBEBEBEE2E2BEE2E2E2E2E2E2E2E2E2E2E2E2E2E2E2E2E2E2E2E2E2E2E2E2E2E2E2E2E2E2E2E2E2E2E2E2E2E2E2E2E2E2E2E2E2E2E2E2E2E2E2E2E2E2E2E2E2E2E2E2E2E2E2E2E2E2E2E2E2E2E2E2E2E2E2E2E2E2E2E2E2E2E2E2E2E2E2E2E2E2E2E2E2E2E2E2E2E2E2E2E2
310
E2E2E2E2E2E2E2E2E2E2E2E2E2E2E2E2E2E2E2E2E2E2E2E2E2E2E2E2E2E2E2E2E2E2E2E2E2E2E2E2E2E2E2E2E2E2E2E2E2E2E2E2E2E2E2E2E2E2E2E2E2E2E2E2E2E2E2E2E2E2E2E2E2E2E2E2E2E2E2BEE2E2E2E2E2E2E2E2E2E2E2E2E2E2E2E2E2E2E2E2E2E2E2E2E2E2E2E2E2E2E2E2E2E2E2E2E2E2E2E2E2E2E2E2E2E2E2
310
E2E2E2E2E2E2E2E2E2BEE2E2E2E2E2BEBEBEBEBEBEBEBEBEBEE2E2BEE2E2E2E2E2E2E2E2E2E2E2E2E2E2E2E2E2E2E2E2E2E2E2E2E2E2E2E2E2E2E2E2E2E2E2E2E2E2E2E2E2E2E2E2E2E2E2E2E2E2E2E2E2E2E2E2E2E2E2E2E2E2E2E2E2E2E2E2E2E2E2E2E2E2E2E2E2E2E2E2E2E2E2E2E2E2E2E2E2E2E2E2E2E2E2E2E2E2E2
310
E2E2E2E2E2E2E2E2E2E2E2E2E2E2E2E2E2E2E2E2E2E2E2E2E2E2E2E2E2E2E2E2E2E2E2E2E2E2E2E2E2E2E2E2E2E2E2E2E2E2E2E2E2E2E2E2E2E2E2E2E2E2E2E2E2E2E2E2E2E2E2E2E2E2E2E2E2E2E2E2E2BEE2E2E2E2E2E2E2E2E2E2E2E2E2E2E2E2E2E2E2E2E2E2E2E2E2E2E2E2E2E2E2E2E2E2E2E2E2E2E2E2E2E2E2E2E2
310
E2E2E2E2E2E2E2E2E2E2E2BEE2E2E2E2E2BEBEBEBEBEBEBEBEBEBEE2E2BEE2E2E2E2E2E2E2E2E2E2E2E2E2E2E2E2E2E2E2E2E2E2E2E2E2E2E2E2E2E2E2E2E2E2E2E2E2E2E2E2E2E2E2E2E2E2E2E2E2E2E2E2E2E2E2E2E2E2E2E2E2E2E2E2E2E2E2E2E2E2E2E2E2E2E2E2E2E2E2E2E2E2E2E2E2E2E2E2E2E2E2E2E2E2E2E2E2
310
E2E2E2E2E2E2E2E2E2E2E2E2E2E2E2E2E2E2E2E2E2E2E2E2E2E2E2E2E2E2E2E2E2E2E2E2E2E2E2E2E2E2E2E2E2E2E2E2E2E2E2E2E2E2E2E2E2E2E2E2E2E2E2E2E2E2E2E2E2E2E2E2E2E2E2E2E2E2E2E2E2E2E2BEE2E2E2E2E2E2E2E2E2E2E2E2E2E2E2E2E2E2E2E2E2E2E2E2E2E2E2E2E2E2E2E2E2E2E2E2E2E2E2E2E2E2E2
310
E2E2E2E2E2E2E2E2E2E2E2E2E2BEE2E2E2E2E2BEBEBEBEBEBEBEBEBEBEE2E2BEE2E2E2E2E2E2E2E2E2E2E2E2E2E2E2E2E2E2E2E2E2E2E2E2E2E2E2E2E2E2E2E2E2E2E2E2E2E2E2E2E2E2E2E2E2E2E2E2E2E2E2E2E2E2E2E2E2E2E2E2E2E2E2E2E2E2E2E2E2E2E2E2E2E2E2E2E2E2E2E2E2E2E2E2E2E2E2E2E2E2E2E2E2E2E2
310
E2E2E2E2E2E2E2E2E2E2E2E2E2E2E2E2E2E2E2E2E2E2E2E2E2E2E2E2E2E2E2E2E2E2E2E2E2E2E2E2E2E2E2E2E2E2E2E2E2E2E2E2E2E2E2E2E2E2E2E2E2E2E2E2E2E2E2E2E2E2E2E2E2E2E2E2E2E2E2E2E2E2E2E2E2BEE2E2E2E2E2E2E2E2E2E2E2E2E2E2E2E2E2E2E2E2E2E2E2E2E2E2E2E2E2E2E2E2E2E2E2E2E2E2E2E2E2
310
E2E2E2E2E2E2E2E2E2E2E2E2E2E2E2BEE2E2E2E2E2BEBEBEBEBEBEBEBEBEBEE2E2BEE2E2E2E2E2E2E2E2E2E2E2E2E2E2E2E2E2E2E2E2E2E2E2E2E2E2E2E2E2E2E2E2E2E2E2E2E2E2E2E2E2E2E2E2E2E2E2E2E2E2E2E2E2E2E2E2E2E2E2E2E2E2E2E2E2E2E2E2E2E2E2E2E2E2E2E2E2E2E2E2E2E2E2E2E2E2E2E2E2E2E2E2E2
310
E2E2E2E2E2E2E2E2E2E2E2E2E2E2E2E2E2E2E2E2E2E2E2E2E2E2E2E2E2E2E2E2E2E2E2E2E2E2E2E2E2E2E2E2E2E2E2E2E2E2E2E2E2E2E2E2E2E2E2E2E2E2E2E2E2E2E2E2E2E2E2E2E2E2E2E2E2E2E2E2E2E2E2E2E2E2E2BEE2E2E2E2E2E2E2E2E2E2E2E2E2E2E2E2E2E2E2E2E2E2E2E2E2E2E2E2E2E2E2E2E2E2E2E2E2E2E2
310
E2E2E2E2E2E2E2E2E2E2E2E2E2E2E2E2E2BEE2E2E2E2E2BEBEBEBEBEBEBEBEBEBEE2E2BEE2E2E2E2E2E2E2E2E2E2E2E2E2E2E2E2E2E2E2E2E2E2E2E2E2E2E2E2E2E2E2E2E2E2E2E2E2E2E2E2E2E2E2E2E2E2E2E2E2E2E2E2E2E2E2E2E2E2E2E2E2E2E2E2E2E2E2E2E2E2E2E2E2E2E2E2E2E2E2E2E2E2E2E2E2E2E2E2E2E2E2
310
E2E2E2E2E2E2E2E2E2E2E2E2E2E2E2E2E2E2E2E2E2E2E2E2E2E2E2E2E2E2E2E2E2E2E2E2E2E2E2E2E2E2E2E2E2E2E2E2E2E2E2E2E2E2E2E2E2E2E2E2E2E2E2E2E2E2E2E2E2E2E2E2E2E2E2E2E2E2E2E2E2E2E2E2E2E2E2E2E2BEE2E2E2E2E2E2E2E2E2E2E2E2E2E2E2E2E2E2E2E2E2E2E2E2E2E2E2E2E2E2E2E2E2E2E2E2E2
310
E2E2E2E2E2E2E2E2E2E2E2E2E2E2E2E2E2E2E2BEE2E2E2E2E2BEBEBEBEBEBEBEBEBEBEE2E2BEE2E2E2E2E2E2E2E2E2E2E2E2E2E2E2E2E2E2E2E2E2E2E2E2E2E2E2E2E2E2E2E2E2E2E2E2E2E2E2E2E2E2E2E2E2E2E2E2E2E2E2E2E2E2E2E2E2E2E2E2E2E2E2E2E2E2E2E2E2E2E2E2E2E2E2E2E2E2E2E2E2E2E2E2E2E2E2E2E2
310
E2E2E2E2E2E2E2E2E2E2E2E2E2E2E2E2E2E2E2E2E2E2E2E2E2E2E2E2E2E2E2E2E2E2E2E2E2E2E2E2E2E2E2E2E2E2E2E2E2E2E2E2E2E2E2E2E2E2E2E2E2E2E2E2E2E2E2E2E2E2E2E2E2E2E2E2E2E2E2E2E2E2E2E2E2E2E2E2E2E2E2BEE2E2E2E2E2E2E2E2E2E2E2E2E2E2E2E2E2E2E2E2E2E2E2E2E2E2E2E2E2E2E2E2E2E2E2
310
E2E2E2E2E2E2E2E2E2E2E2E2E2E2E2E2E2E2E2E2E2BEE2E2E2E2E2BEBEBEBEBEBEBEBEBEBEE2E2BEE2E2E2E2E2E2E2E2E2E2E2E2E2E2E2E2E2E2E2E2E2E2E2E2E2E2E2E2E2E2E2E2E2E2E2E2E2E2E2E2E2E2E2E2E2E2E2E2E2E2E2E2E2E2E2E2E2E2E2E2E2E2E2E2E2E2E2E2E2E2E2E2E2E2E2E2E2E2E2E2E2E2E2E2E2E2E2
310
E2E2E2E2E2E2E2E2E2E2E2E2E2E2E2E2E2E2E2E2E2E2E2E2E2E2E2E2E2E2E2E2E2E2E2E2E2E2E2E2E2E2E2E2E2E2E2E2E2E2E2E2E2E2E2E2E2E2E2E2E2E2E2E2E2E2E2E2E2E2E2E2E2E2E2E2E2E2E2E2E2E2E2E2E2E2E2E2E2E2E2E2E2BEE2E2E2E2E2E2E2E2E2E2E2E2E2E2E2E2E2E2E2E2E2E2E2E2E2E2E2E2E2E2E2E2E2
310
E2E2E2E2E2E2E2E2E2E2E2E2E2E2E2E2E2E2E2E2E2E2E2BEE2E2E2E2E2BEBEBEBEBEBEBEBEBEBEE2E2BEE2E2E2E2E2E2E2E2E2E2E2E2E2E2E2E2E2E2E2E2E2E2E2E2E2E2E2DCE2E2E2E2E2E2E2E2E2E2E2E2E2E2E2E2E2E2E2DCE2E2E2E2E2E2E2E2E2E2E2E2E2E2E2E2E2E2E2E2E2E2E2E2E2E2E2E2E2E2E2E2E2E2E2E2E2
310
E2E2E2E2E2E2E2E2E2E2E2E2E2E2E2E2E2E2E2E2E2E2E2E2E2E2E2E2E2E2E2E2E2E2E2E2E2E2E2E2E2E2E2E2E2E2E2E2E2E2E2E2E2E2E2E2E2E2E2E2E2E2E2E2E2E2E2E2E2E2E2E2E2E2E2E2E2E2E2E2E2E2E2E2E2E2E2E2E2E2E2E2E2E2E2BEE2E2E2E2E2E2E2E2E2E2E2E2E2E2E2E2E2E2E2E2E2E2E2E2E2E2E2E2E2E2E2
310
E2E2E2E2E2E2E2E2E2E2E2E2E2E2E2E2E2E2E2E2E2E2E2E2E2BEE2E2E2E2E2BEBEBEBEBEBEBEBEBEBEE2E2BEE2E2E2E2E2E2E2E2E2E2E2E2E2E2E2E2E2E2E2E2E2E2E2E2E2E2DCDCDCE2E2DCDCDCDCDCDCDCDCE2E2DCDCDCDCDCDCDCDCE2E2E2E2E2E2E2E2E2E2E2E2E2E2E2E2E2E2E2E2E2E2E2E2E2E2E2E2E2E2E2E2E2E2
310
E2E2E2E2E2E2E2E2E2E2E2E2E2E2E2E2E2E2E2E2E2E2E2E2E2E2E2E2E2E2E2E2E2E2E2E2E2E2E2E2E2E2E2E2E2E2E2E2E2E2E2E2E2E2E2E2E2E2E2E2E2E2E2E2E2E2E2E2E2E2E2E2E2E2E2E2E2E2E2E2E2E2E2E2E2E2E2E2E2E2E2E2E2E2E2E2E2BEE2E2E2E2E2E2E2E2E2E2E2E2E2E2E2E2E2E2E2E2E2E2E2E2E2E2E2E2E2
310
E2E2E2E2E2E2E2E2E2E2E2E2E2E2E2E2E2E2E2E2E2E2E2E2E2E2E2BEE2E2E2E2E2BEBEBEBEBEBEBEBEBEBEE2E2BEE2E2E2E2E2E2E2E2E2E2E2E2E2E2E2E2E2E2E2E2E2E2E2E2E2E2DCE2DCE2E2DCDCDCDCDCDCDCDCE2E2DCDCDCDCDCDCE2DCE2E2E2E2E2E2E2E2E2E2E2E2E2E2E2E2E2E2E2E2E2E2E2E2E2E2E2E2E2E2E2E2
310
E2E2E2E2E2E2E2E2E2E2E2E2E2E2E2E2E2E2E2E2E2E2E2E2E2E2E2E2E2E2E2E2E2E2E2E2E2E2E2E2E2E2E2E2E2E2E2E2E2E2E2E2E2E2E2E2E2E2E2E2E2E2E2E2E2E2E2E2E2E2E2E2E2E2E2E2E2E2E2E2E2E2E2E2E2E2E2E2E2E2E2E2E2E2E2E2E2E2E2BEE2E2E2E2E2E2E2E2E2E2E2E2E2E2E2E2E2E2E2E2E2E2E2E2E2E2E2
310
E2E2E2E2E2E2E2E2E2E2E2E2E2E2E2E2E2E2E2E2E2E2E2E2E2E2E2E2E2BEE2E2E2E2E2BEBEBEBEBEBEBEBEBEBEE2E2BEE2E2E2E2E2E2E2E2E2E2E2E2E2E2E2E2E2E2E2E2E2E2E2E2E2E2DCDCDCE2E2DCDCDCDCDCDCDCDCE2E2DCDCDCDCDCDCDCE2E2E2E2E2E2E2E2E2E2E2E2E2E2E2E2E2E2E2E2E2E2E2E2E2E2E2E2E2E2E2
310
E2E2E2E2E2E2E2E2E2E2E2E2E2E2E2E2E2E2E2E2E2E2E2E2E2E2E2E2E2E2E2E2E2E2E2E2E2E2E2E2E2E2E2E2E2E2E2E2E2E2E2E2E2E2E2E2E2E2E2E2E2E2E2E2E2E2E2E2E2E2E2E2E2E2E2E2E2E2E2E2E2E2E2E2E2E2E2E2E2E2E2E2E2E2E2E2E2E2E2E2E2BEE2E2E2E2E2E2E2E2E2E2E2E2E2E2E2E2E2E2E2E2E2E2E2E2E2
310
E2E2E2E2E2E2E2E2E2E2E2E2E2E2E2E2E2E2E2E2E2E2E2E2E2E2E2E2E2E2E2BEE2E2E2E2E2BEBEBEBEBEBEBEBEBEBEE2E2BEE2E2E2E2E2E2E2E2E2E2E2E2E2E2E2E2E2E2E2E2E2DCDCDCE2DCE2E2E2E2DCDCDCDCDCDCDCDCDCDCE2DCDCDCDCDCDCDCE2E2E2E2E2E2E2E2E2E2E2E2E2E2E2E2E2E2E2E2E2E2E2E2E2E2E2E2E2
310
E2E2E2E2E2E2E2E2E2E2E2E2E2E2E2E2E2E2E2E2E2E2E2E2E2E2E2E2E2E2E2E2E2E2E2E2E2E2E2E2E2E2E2E2E2E2E2E2E2E2E2E2E2E2E2E2E2E2E2E2E2E2E2E2E2E2E2E2E2E2E2E2E2E2E2E2E2E2E2E2E2E2E2E2E2E2E2E2E2E2E2E2E2E2E2E2E2E2E2E2E2E2E2BEE2E2E2E2E2E2E2E2E2E2E2E2E2E2E2E2E2E2E2E2E2E2E2
310
E2E2E2E2E2E2E2E2E2E2E2E2E2E2E2E2E2E2E2E2E2E2E2E2E2E2E2E2E2E2E2E2E2BEE2E2E2E2E2BEBEBEBEBEBEBEBEBEBEE2E2BEE2E2E2E2E2E2E2E2E2E2E2E2E2E2E2E2E2E2E2E2E2DCDCE2DCDCDCE2E2DCDCDCDCDCDCDCDCDCDCE2E2DCDCDCDCDCDCDCDCE2DCDCDCDCDCDCDCDCDCDCE2E2E2E2E2E2E2E2E2E2E2E2E2E2E2
310
E2E2E2E2E2E2E2E2E2E2E2E2E2E2E2E2E2E2E2E2E2E2E2E2E2E2E2E2E2E2E2E2E2E2E2E2E2E2E2E2E2E2E2E2E2E2E2E2E2E2E2E2E2E2E2E2E2E2E2E2E2E2E2E2E2E2E2E2E2E2E2E2E2E2E2E2E2E2E2E2E2E2E2E2E2E2E2E2E2E2E2E2E2E2E2E2E2E2E2E2E2E2E2E2E2BEE2E2E2E2E2E2E2E2E2E2E2E2E2E2E2E2E2E2E2E2E2
310
E2E2E2E2E2E2E2E2E2E2E2E2E2E2E2E2E2E2E2E2E2E2E2E2E2E2E2E2E2E2E2E2E2E2E2BEE2E2E2E2E2BEBEBEBEBEBEBEBEBEBEE2E2BEE2E2E2E2E2E2E2E2E2E2E2E2E2E2E2E2E2E2E2E2E2DCDCE2DCDCDCDCE2DCDCDCDCDCDCE2DCDCDCE2E2DCDCDCDCE2DCDCDCE2E2E2E2E2E2E2E2E2E2E2DCDCDCDCE2E2E2E2E2E2E2E2E2
310
E2E2E2E2E2E2E2E2E2E2E2E2E2E2E2E2E2E2E2E2E2E2E2E2E2E2E2E2E2E2E2E2E2E2E2E2E2E2E2E2E2E2E2E2E2E2E2E2E2E2E2E2E2E2E2E2E2E2E2E2E2E2E2E2E2E2E2E2E2E2E2E2E2E2E2E2E2E2E2E2E2E2E2E2E2E2E2E2E2E2E2E2E2E2E2E2E2E2E2E2E2E2E2E2E2E2E2BEE2E2E2E2E2E2E2E2E2E2E2E2E2E2E2E2E2E2E2
310
E2E2E2E2E2E2E2E2E2E2E2E2E2E2E2E2E2E2E2E2E2E2E2E2E2E2E2E2E2E2E2E2E2E2E2E2E2BEE2E2E2E2E2BEBEBEBEBEBEBEBEBEBEE2E2BEE2E2E2E2E2E2E2E2E2E2E2E2E2E2E2E2E2E2E2E2E2E2E2E2E2E2E2E2E2E2E2E2E2E2E2E2E2E2E2E2E2E2E2E2E2E2E2E2E2E2E2E2E2E2E2E2E2E2E2E2E2E2E2E2DCDCDCDCE2E2E2
310
DCE2E2E2E2E2E2E2E2E2E2E2E2E2E2E2E2E2E2E2E2E2E2E2E2E2E2E2E2E2E2E2E2E2E2E2E2E2E2E2E2E2E2E2E2E2E2E2E2DCDCE2E2E2E2E2E2E2E2E2E2E2E2E2E2E2E2E2E2E2E2E2E2E2E2E2E2E2E2E2E2E2E2E2E2E2E2E2E2E2E2E2E2E2E2E2E2E2E2E2E2E2E2E2E2E2E2E2E2BEE2E2E2E2E2E2E2E2E2E2E2E2E2E2E2E2E2
310
E2E2E2E2E2E2E2E2E2E2E2E2E2E2E2E2E2E2E2E2E2E2E2E2E2E2E2E2E2E2E2E2E2E2E2E2E2E2E2BEE2E2E2E2E2BEBEBEBEBEBEBEBEBEBEE2E2BEE2E2E2E2E2E2E2E2E2E2E2E2E2E2E2E2E2E2E2E2E2E2E2E2E2E2E2E2E2E2E2E2E2E2E2E2E2E2E2E2E2E2E2E2E2E2E2E2E2E2E2E2E2E2E2E2E2E2E2E2E2E2E2E2E2E2E2E2DC
310
DCDCDCE2E2E2E2E2E2E2E2E2E2E2E2E2E2E2E2E2E2E2E2E2E2E2E2E2E2E2E2E2E2E2E2E2E2E2E2E2E2E2E2E2E2E2E2E2E2E2E2E2E2E2E2E2E2E2E2E2E2E2E2E2E2E2E2E2E2E2E2E2E2E2E2E2E2E2E2E2E2E2E2E2E2E2E2E2E2E2E2E2E2E2E2E2E2E2E2E2E2E2E2E2E2E2E2E2E2E2E2BEE2E2E2E2E2E2E2E2E2E2E2E2E2E2E2
310
E2E2E2E2E2E2E2E2E2E2E2E2E2E2E2E2E2E2E2E2E2E2E2E2E2E2E2E2E2E2E2E2E2E2E2E2E2E2E2E2E2BEE2E2E2E2E2BEBEBEBEBEBEBEBEBEBEE2E2BEE2E2E2E2E2E2E2E2E2E2E2E2E2E2E2E2E2E2E2E2E2E2E2E2E2E2E2E2E2E2E2E2E2E2E2E2E2E2E2E2E2E2E2E2E2E2E2E2E2E2E2E2E2E2E2E2E2E2E2E2E2E2E2E2E2E2E2
310
E2E2E2E2E2DCDCDCDCDCE2E2E2E2E2E2E2E2E2E2E2E2E2E2E2E2E2E2E2E2E2E2E2E2E2E2E2E2E2E2E2E2E2E2E2E2E2E2E2DCDCE2E2E2E2E2E2E2E2E2E2E2E2E2E2E2E2E2E2E2E2E2E2E2E2E2E2E2E2E2E2E2E2E2E2E2E2E2E2E2E2E2E2E2E2E2E2E2E2E2E2E2E2E2E2E2E2E2E2E2E2E2E2BEE2E2E2E2E2E2E2E2E2E2E2E2E2
310
E2E2E2E2E2E2E2E2E2E2E2E2E2E2E2E2E2E2E2E2E2E2E2E2E2E2E2E2E2E2E2E2E2E2E2E2E2E2E2E2E2E2E2BEE2E2E2E2E2BEBEBEBEBEBEBEBEBEBEE2E2BEE2E2E2E2E2E2E2E2E2E2E2E2E2E2E2E2E2E2E2E2E2E2E2E2E2E2E2E2E2E2E2E2E2E2E2E2E2E2E2E2E2E2E2E2E2E2E2E2E2E2E2E2E2E2E2E2E2E2E2E2E2E2E2E2E2
310
E2E2E2E2E2E2E2E2E2E2E2E2DCDCDCDCE2E2E2E2E2E2E2E2E2E2E2E2E2E2E2E2E2E2E2E2E2E2E2E2E2E2E2E2E2E2E2E2E2E2E2E2E2E2E2E2E2E2E2E2E2E2E2E2E2E2E2E2E2E2E2E2E2E2E2E2E2E2E2E2E2E2E2E2E2E2E2E2E2E2E2E2E2E2E2E2E2E2E2E2E2E2E2E2E2E2E2E2E2E2E2E2E2E2E2BEE2E2E2E2E2E2E2E2E2E2E2
310
E2E2E2E2E2E2E2E2E2E2E2E2E2E2E2E2E2E2E2E2E2E2E2E2E2E2E2E2E2E2E2E2E2E2E2E2E2E2E2E2E2E2E2E2E2BEE2E2E2E2E2BEBEBEBEBEBEBEBEBEBEE2E2BEE2E2E2E2E2E2E2E2E2E2E2E2E2E2E2E2E2E2E2E2E2E2E2E2E2E2E2E2E2E2E2E2E2E2E2E2E2E2E2E2E2E2E2E2E2E2E2E2E2E2E2E2E2E2E2E2E2E2E2E2E2E2E2
310
E2E2E2E2E2E2E2E2E2E2E2E2E2E2E2E2E2E2DCDCDCDCE2E2E2E2E2E2E2E2E2E2E2E2E2E2E2E2E2E2E2E2E2E2E2E2E2E2E2E2E2E2E2E2E2E2E2E2E2E2E2E2E2E2E2E2E2E2E2E2E2E2E2E2E2E2E2E2E2E2E2E2E2E2E2E2E2E2E2E2E2E2E2E2E2E2E2E2E2E2E2E2E2E2E2E2E2E2E2E2E2E2E2E2E2E2E2BEE2E2E2E2E2E2E2E2E2
310
E2E2E2E2E2E2E2E2E2E2E2E2E2E2E2E2E2E2E2E2E2E2E2E2E2E2E2E2E2E2E2E2E2E2E2E2E2E2E2E2E2E2E2E2E2E2E2BEE2E2E2E2E2BEBEBEBEBEBEBEBEBEBEE2E2BEE2E2E2E2E2E2E2E2E2E2E2E2E2E2E2E2E2E2E2E2E2E2E2E2E2E2E2E2E2E2E2E2E2E2E2E2E2E2E2E2E2E2E2E2E2E2E2E2E2E2E2E2E2E2E2E2E2E2E2E2E2
310
E2E2E2E2E2E2E2E2E2E2E2E2E2E2E2E2E2E2E2E2E2E2E2E2DCDCDCDCE2BEE2BEBEBEBEE2BEE2BEE2BEBEE2BEE2BEE2E2E2E2E2E2E2E2E2E2E2E2E2E2E2E2E2E2E2E2E2E2E2E2E2E2E2E2E2E2E2E2E2E2E2E2E2E2E2E2E2E2E2E2E2E2E2E2E2E2E2E2E2E2E2E2E2E2E2E2E2E2E2E2E2E2E2E2E2E2E2E2E2BEE2E2E2E2E2E2E2
310
E2E2E2E2E2E2E2E2E2E2E2E2E2E2E2E2E2E2E2E2E2E2E2E2E2E2E2E2E2E2E2E2E2E2E2E2E2E2E2E2E2E2E2E2E2E2E2E2E2BEE2E2E2E2E2BEBEBEBEBEBEBEBEBEBEE2E2BEE2E2E2E2E2E2E2E2E2E2E2E2E2E2E2E2E2E2E2E2E2E2E2E2E2E2E2E2E2E2E2E2E2E2E2E2E2E2DCE2E2E2E2E2E2E2E2DCE2E2E2E2E2E2E2E2E2E2E2
310
E2E2E2E2E2E2E2DCE2E2E2E2E2DCE2E2E2E2E2E2E2E2E2E2E2E2E2E2E2E2DCDCDCBEE2BEBEE2BEE2BEE2BEBEE2BEE2BEE2BEBEE2BEE2E2E2E2E2E2E2E2DCE2E2E2E2E2E2E2E2E2E2E2E2E2E2E2E2E2E2E2E2E2E2E2E2E2E2E2E2E2E2E2E2E2E2E2E2E2E2E2E2E2E2E2E2E2E2E2E2E2E2E2E2E2E2E2E2E2E2E2BEE2E2E2E2E2
310
E2E2E2E2E2E2E2E2E2E2E2E2E2E2E2E2E2E2E2E2E2E2E2E2E2E2E2E2E2E2E2E2E2E2E2E2E2E2E2E2E2E2E2E2E2E2E2E2E2E2E2BEE2E2E2E2E2BEBEBEBEBEBEBEBEBEBEE2E2BEE2E2E2E2E2E2E2E2E2E2E2E2E2E2E2E2E2E2E2E2E2E2E2E2E2E2E2E2E2E2E2E2E2E2E2E2E2E2DCDCDCE2DCDCDCDCDCDCDCE2E2E2E2E2E2E2E2
310
E2E2E2E2E2E2E2E2E2E2E2E2E2E2E2E2E2E2E2E2E2E2E2E2E2E2E2E2E2E2E2BEE2BEBEDCDCBEE2E2BEBEBEBEBEE2E2BEBEBEBEBEE2E2BEBEBEBEE2E2E2E2E2E2E2E2E2E2E2E2E2E2E2E2E2E2E2E2E2E2E2E2E2E2E2E2E2E2E2E2E2E2E2E2E2E2E2E2E2E2E2E2E2E2E2E2E2E2E2E2E2E2E2E2E2E2E2E2E2E2E2E2E2BEE2E2E2
310
E2E2E2E2E2E2E2E2E2E2E2E2E2E2E2E2E2E2E2E2E2E2E2E2E2E2E2E2E2E2E2E2E2E2E2E2E2E2E2E2E2E2E2E2E2E2E2E2E2E2E2E2E2BEE2E2E2E2E2BEBEBEBEBEBEBEBEBEBEE2E2BEE2E2E2E2E2E2E2E2E2E2E2E2E2E2E2E2E2E2E2E2E2E2E2E2E2E2E2E2E2E2E2E2E2E2E2E2E2E2DCDCDCDCDCDCDCDCDCE2DCE2E2E2E2E2E2
310
E2E2E2E2E2E2E2E2E2E2E2E2E2E2E2E2E2E2E2E2E2E2E2E2E2E2BEBEE2BEBEE2E2BEBEE2BEBEE2E2BEBEE2BEBEE2E2BEBEE2BEBEE2E2BEBEE2BEBEE2E2E2E2E2E2E2E2E2E2E2E2E2E2E2E2E2DCE2E2E2E2E2E2E2E2E2E2E2E2E2E2E2E2E2E2E2E2E2E2E2E2E2E2E2E2E2E2E2E2E2E2E2E2E2E2E2E2E2E2E2E2E2E2E2E2BEE2
310
E2E2E2E2E2E2E2E2E2E2E2E2E2E2E2E2E2E2E2E2E2E2E2E2E2E2E2E2E2E2E2E2E2E2E2E2E2E2E2E2E2E2E2E2E2E2E2E2E2E2E2E2E2E2E2BEE2E2E2E2E2BEBEBEBEBEBEBEBEBEBEE2E2BEE2E2E2E2E2E2E2E2E2E2E2E2E2E2E2E2E2E2E2E2E2E2E2E2E2E2E2E2E2E2E2E2E2E2E2E2E2E2DCDCDCE2DCDCDCDCDCDCE2E2E2E2E2
310
E2E2E2E2E2E2E2E2DCE2E2E2E2E2E2E2E2E2E2E2E2E2E2E2E2E2E2E2BEBEBEBEBEE2E2BEBEBEBEBEE2E2BEBEBEBEBEE2E2BEBEBEBEBEE2E2BEBEBEBEBEE2E2E2E2E2E2E2E2E2E2E2E2E2E2E2E2E2DCE2E2E2E2E2E2E2E2E2E2E2E2E2E2E2E2E2E2E2E2E2E2E2E2E2E2E2E2E2E2E2E2E2E2E2E2E2E2E2E2E2E2E2E2E2E2E2E2
310
BEE2E2E2E2E2E2E2E2E2E2E2E2E2E2E2E2E2E2E2E2E2E2E2E2E2E2E2E2E2E2E2E2E2E2E2E2E2E2E2E2E2E2E2E2E2E2E2E2E2E2E2E2E2E2E2E2BEE2E2E2E2E2BEBEBEBEBEBEBEBEBEBEE2E2BEE2E2E2E2E2E2E2E2E2E2E2E2E2E2E2E2E2E2E2E2E2E2E2E2E2DCDCDCDCDCDCDCDCE2DCDCDCDCDCE2DCE2DCDCE2DCDCDCDCE2E2
310
E2E2E2E2E2E2E2E2E2E2DCE2E2E2E2E2E2DCDCDCDCDCDCDCDCDCDCDCBEBEE2BEBEE2E2BEBEE2BEBEE2E2BEBEE2BEBEE2BEBEBEE2BEBEE2BEBEBEE2DCDCDCDCBEDCDCDCDCDCDCDCDCE2E2E2E2E2E2E2E2E2E2E2E2E2E2E2E2E2E2E2E2E2E2E2E2E2E2E2E2E2E2E2E2E2E2E2E2E2E2E2E2E2E2E2E2E2E2E2E2E2E2E2E2E2E2E2
310
E2E2BEE2E2E2E2E2E2E2E2E2E2E2E2E2E2E2E2E2E2E2E2E2E2E2E2E2E2E2E2E2E2E2E2E2E2E2E2E2E2E2E2E2E2E2E2E2E2E2E2E2E2E2E2E2E2E2E2BEE2E2E2E2E2BEBEBEBEBEBEBEBEBEBEE2E2BEE2E2E2E2E2E2E2E2E2E2E2E2E2E2E2E2E2E2E2E2E2E2E2E2E2DCDCDCDCDCDCDCE2E2DCDCDCDCDCDCDCDCDCDCDCDCDCDCDC
310
E2DCDCDCDCDCDCDCDCDCDCE2E2E2E2E2E2E2E2DCE2E2E2BEE2E2E2BEE2E2BEBEBEBEBEBEBEE2BEBEBEBEBEBEE2BEBEBEBEBEBEE2BEBEBEBEBEBEE2BEBEDCBEE2E2BEE2E2E2BEE2E2BEDCE2E2E2E2E2E2E2E2E2E2E2E2E2E2E2E2E2E2E2E2E2E2E2E2E2E2E2E2E2E2E2E2E2E2E2E2E2E2E2E2E2E2E2E2E2E2E2E2E2E2E2E2E2
310
E2E2E2E2BEE2E2E2E2E2E2E2E2E2E2E2E2E2E2E2E2E2E2E2E2E2E2E2E2E2E2E2E2E2E2E2E2E2E2E2E2E2E2E2E2E2E2E2E2E2E2E2E2E2E2E2E2E2E2E2E2BEE2E2E2E2E2BEBEBEBEBEBEBEBEBEBEE2E2BEE2E2E2E2E2E2E2E2E2E2E2E2E2E2E2E2E2E2E2E2E2E2E2E2E2DCDCDCDCDCDCDCDCE2DCDCDCDCDCDCDCDCDCDCDCDCDC
310
DCDCE2E2E2E2E2E2E2DCE2E2E2DCDCDCDCE2E2DCE2DCBEE2E2E2BEE2E2E2BEE2E2DCBEE2BEE2BEBEBEBEE2BEE2BEBEBEBEE2BEE2BEBEBEBEE2BEE2BEBEBEBEDCE2BEE2E2BEE2E2E2BEE2E2DCE2E2DCE2E2E2E2E2E2E2E2E2E2E2E2E2E2E2E2E2E2E2E2E2E2E2E2E2E2E2E2E2E2E2E2E2E2E2E2E2E2E2E2E2E2E2E2E2E2E2E2
310
E2E2E2E2E2E2BEE2E2E2E2E2E2E2E2E2E2E2E2E2E2E2E2E2E2E2E2E2E2E2E2E2E2E2E2E2E2E2E2E2E2E2E2E2E2E2E2E2E2E2E2E2E2E2E2E2E2E2E2E2E2E2E2BEE2E2E2E2E2BEBEBEBEBEBEBEBEBEBEE2E2BEE2E2E2E2E2E2E2E2E2E2E2E2E2E2E2E2E2E2E2E2E2E2E2E2E2E2E2E2E2E2E2E2E2E2E2E2E2E2E2E2E2E2E2E2E2
310
E2E2E2E2E2E2E2E2E2E2E2E2E2E2E2E2E2E2E2DCDCDCDCDCE2BEE2E2E2BEE2E2BEE2E2BEBEE2BEE2BEE2BEBEE2BEE2BEE2BEBEE2BEE2BEE2BEBEE2BEE2BEE2BEBEDCE2E2BEE2E2BEE2E2E2BEE2DCE2E2E2E2E2E2E2E2E2E2E2E2E2E2E2E2E2E2E2E2E2E2DCDCDCDCDCE2DCDCDCDCDCDCE2E2E2E2E2E2E2E2E2E2E2E2E2E2E2
310
E2E2E2E2E2E2E2E2BEE2E2E2E2E2E2E2E2E2E2E2E2E2E2E2E2E2E2E2E2E2E2E2E2E2E2E2E2E2E2E2E2E2E2E2E2E2E2E2E2E2E2E2E2E2E2E2E2E2E2E2E2E2E2E2E2BEE2E2E2E2E2BEBEBEBEBEBEBEBEBEBEE2E2BEE2E2E2E2E2E2E2E2E2E2E2E2E2E2E2E2E2E2E2E2E2E2E2E2E2E2E2E2E2E2E2E2E2E2E2E2E2E2E2E2E2E2E2
310
E2E2E2E2E2E2E2E2E2E2E2E2E2E2E2E2E2E2E2DCE2E2E2E2E2DCE2E2BEE2E2E2BEE2E2BEE2BEBEE2BEBEBEBEBEBEE2BEBEBEBEBEBEE2BEBEBEBEBEBEE2BEBEBEBEBEBEDCE2E2E2BEE2E2BEE2E2E2BEDCE2E2E2E2E2E2E2E2E2E2E2E2E2E2E2E2E2E2E2E2E2E2DCDCDCDCDCDCDCDCDCDCDCE2E2E2E2E2E2E2E2E2E2E2E2E2E2
310
E2E2E2E2E2E2E2E2E2E2BEE2E2E2E2E2E2E2E2E2E2E2E2E2E2E2E2E2E2E2E2E2E2E2E2E2E2E2E2E2E2E2E2E2E2E2E2E2E2E2E2E2E2E2E2E2E2E2E2E2E2E2E2E2E2E2E2BEE2E2E2E2E2BEBEBEBEBEBEBEBEBEBEE2E2BEE2E2E2E2E2E2E2E2E2E2E2E2E2E2E2E2E2E2E2E2E2E2E2E2E2E2E2E2E2E2E2E2E2E2E2E2E2E2E2E2E2
310
E2E2E2E2E2E2E2E2E2E2E2E2E2E2E2E2E2E2E2E2E2E2E2E2E2E2E2DCBEE2E2BEBEE2E2BEE2E2BEDCBEBEE2BEBEE2E2BEBEE2BEBEE2E2BEBEE2BEBEE2E2BEBEE2BEBEE2E2BEDCBEE2E2E2BEE2E2BEE2E2E2DCE2E2E2E2E2E2E2E2E2E2E2E2E2E2E2E2E2E2E2E2E2E2DCDCDCDCDCDCDCDCDCDCDCDCDCE2E2E2E2E2E2E2E2E2E2
310
E2E2E2E2E2E2E2E2E2E2E2E2BEE2E2E2E2E2E2E2E2E2E2E2E2E2E2E2E2E2E2E2E2E2E2E2E2E2E2E2E2E2E2E2E2E2E2E2E2E2E2E2E2E2E2E2E2E2E2E2E2E2E2E2E2E2E2E2E2BEE2E2E2E2E2BEBEBEBEBEBEBEBEBEBEE2E2BEE2E2E2E2E2E2E2E2E2E2E2E2E2E2E2E2E2E2E2E2E2E2E2E2E2E2E2E2E2E2E2E2E2E2E2E2E2E2E2
310
E2E2E2E2E2E2E2E2E2E2E2E2E2E2E2E2E2E2DCE2E2E2E2E2E2E2E2E2E2DCE2BEE2E2E2BEE2E2BEE2E2DCBEBEBEBEBEE2E2BEBEBEBEBEE2E2BEBEBEBEBEE2E2BEBEBEBEBEE2E2BEDCE2BEE2E2E2BEE2E2BEE2E2DCE2DCE2E2DCE2E2E2E2E2E2E2E2E2E2E2E2E2E2E2E2E2DCE2DCDCDCDCDCDCDCDCDCDCDCE2E2E2E2E2E2E2E2
310
E2E2E2E2E2E2E2E2E2E2E2E2E2E2BEE2E2E2E2E2E2E2E2E2E2E2E2E2E2E2E2E2E2E2E2E2E2E2E2E2E2E2E2E2E2E2E2E2E2E2E2E2E2E2E2E2E2E2E2E2E2E2E2E2E2E2E2E2E2E2E2BEE2E2E2E2E2BEBEBEBEBEBEBEBEBEBEE2E2BEE2E2E2E2E2E2E2E2E2E2E2E2E2E2E2E2E2E2E2E2E2E2E2E2E2E2E2E2E2E2E2E2E2E2E2E2E2
310
E2E2E2E2E2E2E2E2E2E2E2E2E2E2E2E2E2E2E2E2E2E2E2E2E2E2E2E2E2E2E2DCE2E2BEE2E2E2BEE2E2BEE2BEE2BEBEE2BEBEBEE2BEBEE2BEBEBEE2BEBEE2BEBEBEE2BEBEE2BEBEBEE2DCE2E2BEE2E2E2BEE2E2BEE2DCE2E2E2E2DCE2E2E2E2E2E2E2E2DCDCDCDCDCDCDCDCE2DCDCDCDCDCDCDCDCDCDCDCDCDCE2E2E2E2E2E2
310
E2E2E2E2E2E2E2E2E2E2E2E2E2E2E2E2BEE2E2E2E2E2E2E2E2E2E2E2E2E2E2E2E2E2E2E2E2E2E2E2E2E2E2E2E2E2E2E2E2E2E2E2E2E2E2E2E2E2E2E2E2E2E2E2E2E2E2E2E2E2E2E2E2BEE2E2E2E2E2BEBEBEBEBEBEBEBEBEBEE2E2BEE2E2E2E2E2E2E2E2E2E2E2E2E2E2E2E2E2E2E2E2E2E2E2E2E2E2E2E2E2E2E2E2E2E2E2
310
E2E2E2E2E2E2E2E2E2E2E2E2E2E2E2E2E2E2E2E2E2E2E2E2E2E2E2E2E2E2E2E2E2DCE2E2E2BEE2E2E2BEE2E2BEBEBEBEBEBEBEE2BEBEBEBEE2BEE2BEE2BEBEBEBEE2BEBEBEBEE2BEE2BEE2DCBEE2E2BEE2E2E2BEE2E2BEDCE2E2E2E2E2E2E2E2E2E2E2E2DCE2E2E2E2E2E2E2E2E2DCDCDCDCDCDCDCDCDCDCDCE2E2E2E2E2E2
310
E2E2E2E2E2E2E2E2E2E2E2E2E2E2E2E2E2E2BEE2E2E2E2E2E2E2E2E2E2E2E2E2E2E2E2E2E2E2E2E2E2E2E2E2E2E2E2E2E2E2E2E2E2E2E2E2E2E2E2E2E2E2E2E2E2E2E2E2E2E2E2E2E2E2E2BEE2E2E2E2E2BEBEBEBEBEBEBEBEBEBEE2E2BEE2E2E2E2E2E2E2E2E2E2E2E2E2E2E2E2E2E2E2DCDCDCDCDCDCDCDCDCDCE2DCDCDC
310
DCDCDCDCDCDCDCDCDCE2E2DCDCDCDCDCE2E2E2E2E2E2E2E2E2E2E2E2E2E2E2E2E2E2E2DCDCDCDCDCDCDCDCDCDCDCDCDCBEE2BEE2BEBEBEE2E2E2E2E2E2E2E2E2E2E2BEBEBEE2E2E2E2E2E2E2E2DCDCDCDCDCDCDC2D2DDCDCDCDCE2E2E2E2E2E2E2E2E2E2E2DCE2E2E2E2E2E2E2E2E2E2E2E2E2E2E2E2E2E2E2E2E2E2E2E2E2
310
E2E2E2E2E2E2E2E2E2E2E2E2E2E2E2E2E2E2E2E2BEE2E2E2E2E2E2E2E2E2E2E2E2E2E2E2E2E2E2E2E2E2E2E2E2E2E2E2E2E2E2E2E2E2E2E2E2E2E2E2E2E2E2E2E2E2E2E2E2E2E2E2E2E2E2E2E2BEE2E2E2E2E2BEBEBEBEBEBEBEBEBEBEE2E2BEE2E2E2E2E2E2E2E2E2E2E2E2E2E2E2E2E2E2E2E2DCDCE2DCDCDCDCDCDCDCE2
310
DCDCDCDCDCDCDCDCDCDCDCE2DCDCDCDCDCDCE2E2E2E2E2E2E2E2E2E2E2E2E2E2E2E2E2E2E2E2E2E2E22D2DE2E2E2E2E2E2E2E2E2E2E2E2E2E2E2E2E2E2E2E2E2E2E2E2E2E2E2E2E2E2E2E2E2E2E2E2E2E2E2E2E2E2E22D2DE2E2E2E2E2E2E2E2E2E2E2E2E2E2DCE2E2E2E2E2E2E2E2E2E2E2E2E2E2E2E2E2E2E2E2E2E2E2E2
310
E2E2E2E2E2E2E2E2E2E2E2E2E2E2E2E2E2E2E2E2E2E2BEE2E2E2E2E2E2E2E2E2E2E2E2E2E2E2E2E2E2E2E2E2E2E2E2E2E2E2E2E2E2E2E2E2E2E2E2E2E2E2E2E2E2E2E2E2E2E2E2E2E2E2E2E2E2E2E2BEE2E2E2E2E2BEBEBEBEBEBEBEBEBEBEE2E2BEE2E2E2E2E2E2E2E2E2E2E2E2E2E2E2E2E2E2E2E2E2E2E2E2E2E2E2DCDC
310
DCE2E2E2E2E2E2E2E2E2E2E2E2E2E2E2E2E2E2E2E2E2E2E2E2E2E2E2E2E2E2E2E2E2E2E2E2E2E2E2E2E2E22D2DE2E2E2E2E2E2E2E2E2E2E2E2E2E2E2E2E2E2E2E2E2E2E2E2E2E2E2E2E2E2E2E2E2E2E2E2E2E2E2E2E2E2E22D2DE2E2E2E2E2E2E2E2E2E2E2E2E2E2DCE2E2E2E2E2E2E2E2E2E2E2E2E2E2E2E2E2E2E2E2E2E2
310
E2E2E2E2E2E2E2E2E2E2E2E2E2E2E2E2E2E2E2E2E2E2E2E2BEE2E2E2E2E2E2E2E2E2E2E2E2E2E2E2E2E2E2E2E2E2E2E2E2E2E2E2E2E2E2E2E2E2E2E2E2E2E2E2E2E2E2E2E2E2E2E2E2E2E2E2E2E2E2E2E2BEE2E2E2E2E2BEBEBEBEBEBEBEBEBEBEE2E2BEE2E2E2E2E2E2E2E2E2E2E2E2E2E2E2E2E2DCDCDCDCDCDCDCDCDCDC
310
DCDCDCE2DCDCDCDCDCDCDCDCDCDCDCDCDCDCDCDCDCDCE2DCDCDCDCDCDCDCDCDCE2E2E2E2E2E2E2E2E2E2E2E2E22D2DE2E2E2E2E2E2E2E2E2E2E2E2E2E2E2E2E2E2E2E2E2E2E2E2E2E2E2E2E2E2E2E2E2E2E2E2E2E2E2E2E2E2E22D2DE2E2E2E2E2E2E2E2E2E2E2E2E2DCE2E2E2E2E2E2E2E2E2E2E2E2E2E2E2E2E2E2E2E2E2
310
E2E2E2E2E2E2E2E2E2E2E2E2E2E2E2E2E2E2E2E2E2E2E2E2E2E2BEE2E2E2E2E2E2E2E2E2E2E2E2E2E2E2E2E2E2E2E2E2E2E2E2E2E2E2E2E2E2E2E2E2E2E2E2E2E2E2E2E2E2E2E2E2E2E2E2E2E2E2E2E2E2E2E2BEE2E2E2E2E2BEBEBEBEBEBEBEBEBEBEE2E2BEE2E2E2E2E2E2E2E2E2E2E2E2E2E2E2E2DCDCDCDCDCDCDCDCDC
310
DCDCDCDCDCE2DCDCDCDCDCE2E2DCDCDCDCDCDCDCDCDCDCDCE2E2E2E2E2E2E2E2E2E2DCDCDCDCE2E2E2E2E2E2E2E2E22D2DE2E2E2E2E2E2E2E2E2E2E2E2E2E2E2E2E2E2E2E2E2E2E2E2E2E2E2E2E2E2E2E2E2E2E2E2E2E2E2E2E2E2E22D2DE2E2E2E2E2E2E2E2E2DCE2E2DCE2E2E2E2E2E2E2E2E2E2E2E2E2E2E2E2E2E2E2E2
310
E2E2E2E2E2E2E2E2E2E2E2E2E2E2E2E2E2E2E2E2E2E2E2E2E2E2E2E2BEE2E2E2E2E2E2E2E2E2E2E2E2E2E2E2E2E2E2E2E2E2E2E2E2E2E2E2E2E2E2E2E2E2E2E2E2E2E2E2E2E2E2E2E2E2E2E2E2E2E2E2E2E2E2E2E2BEE2E2E2E2E2BEBEBEBEBEBEBEBEBEBEE2E2BEE2E2E2E2E2E2E2E2E2E2E2E2E2E2E2E2E2E2E2E2E2E2E2
310
E2E2E2E2E2E2E2E2E2E2E2E2E2E2E2E2E2E2E2E2E2E2E2E2E2E2E2E2E2E2E2E2E2E2E2E2E2E2E2E2DCDCDCDCE2E2E2E2E22D2DE2E2E2E2E2E2E2E2E2E2E2E2E2E2E2E2E2E2E2E2E2E2E2E2E2E2E2E2E2E2E2E2E2E2E2E2E2E2E2E2E2E22DE22DE2E2E2E2E2E2E2E2E2DCDCDCE2E2E2E2E2E2E2E2E2E2E2E2E2E2E2E2E2E2E2
310
E2E2E2E2E2E2E2E2E2E2E2E2E2E2E2E2E2E2E2E2E2E2E2E2E2E2E2E2E2E2BEE2E2E2E2E2E2E2E2E2E2E2E2E2E2E2E2E2E2E2E2E2E2E2E2E2E2E2E2E2E2E2E2E2E2E2E2E2E2E2E2E2E2E2E2E2E2E2E2E2E2E2E2E2E2E2E2BEE2E2E2E2E2BEBEBEBEBEBEBEBEBEBEE2E2BEE2E2E2E2E2E2E2E2E2E2E2E2E2E2E2E2E2E2E2E2E2
310
E2E2E2E2E2E2E2E2E2E2E2E2E2E2E2E2E2E2E2E2E2E2E2E2E2E2E2E2E2E2E2E2E2E2E2E2E2E2E2E2E2E2E2E2E2E2DCDCDCDCE22D2DE2E2E2E2E2E2E2E2E2E2E2E2E2E2E2E2E2E2E2E2E2E2E2E2E2E2E2E2E2E2E2E2E2E2E2E2E2E2E2E2E2E22DE22DE2E2E2E2E2E2E2E2E2E2DCE2E2E2E2E2E2E2E2E2E2E2E2E2E2E2E2E2E2
310
E2E2E2E2E2E2E2E2E2E2E2E2E2E2E2E2E2E2E2E2E2E2E2E2E2E2E2E2E2E2E2E2BEE2E2E2E2E2E2E2E2E2E2E2E2E2E2E2E2E2E2E2E2E2E2E2E2E2E2E2E2E2E2E2E2E2E2E2E2E2E2E2E2E2E2E2E2E2E2E2E2E2E2E2E2E2E2E2E2BEE2E2E2E2E2BEBEBEBEBEBEBEBEBEBEE2E2BEE2E2E2E2E2E2E2E2E2E2E2E2E2E2E2E2E2E2E2
310
E2E2E2E2E2E2E2E2E2E2E2E2E2E2E2E2E2E2E2E2E2E2E2E2E2E2E2E2E2E2E2E2E2E2E2E2E2E2E2E2E2E2E2E2E2E2E2E2E2E2E2E2DCDCDCDCE2E2E2E2E2E2E2E2E2E2E2E2E2E2E2E2E2E2E2E2E2E2E2E2E2E2E2E2E2E2E2E2E2E2E2E2E2E2E2E2E22D2DE2E2E2E2E2E2E2E2E2E2DCE2E2E2E2E2E2E2E2E2E2E2E2E2E2E2E2E2
310
E2E2E2E2E2E2E2E2E2E2E2E2E2E2E2E2E2E2E2E2E2E2E2E2E2E2E2E2E2E2E2E2E2E2BEE2E2E2E2E2E2E2E2E2E2E2E2E2E2E2E2E2E2E2E2E2E2E2E2E2E2E2E2E2E2E2E2E2E2E2E2E2E2E2E2E2E2E2E2E2E2E2E2E2E2E2E2E2E2E2E2BEE2E2E2E2E2BEBEBEBEBEBEBEBEBEBEE2E2BEE2E2E2E2E2E2E2E2E2E2E2E2E2E2E2E2E2
310
E2E2E2E2E2E2E2E2E2E2E2E2E2E2E2E2E2E2E2E2E2E2E2E2E2E2E2E2E2E2E2E2E2E2E2E2E2E2E2E2E2E2E2E2E2E2E2E2E2E2E2E2E2E2E2E22D2DDCDCDCDCE2E2E2E2E2E2E2E2E2E2E2E2E2E2E2E2E2E2E2E2E2E2E2E2E2E2E2E2E2E2E2E2E2E2E2E2E22D2DE2E2E2E2E2E2E2E2E2DCE2E2E2E2E2E2E2E2E2E2E2E2E2E2E2E2
310
E2E2E2E2E2E2E2E2E2E2E2E2E2E2E2E2E2E2E2E2E2E2E2E2E2E2E2E2E2E2E2E2E2E2E2E2BEE2E2E2E2E2E2E2E2E2E2E2E2E2E2E2E2E2E2E2E2E2E2E2E2E2E2E2E2E2E2E2E2E2E2E2E2E2E2E2E2E2E2E2E2E2E2E2E2E2E2E2E2E2E2E2E2BEE2E2E2E2E2BEBEBEBEBEBEBEBEBEBEE2E2BEE2E2E2E2E2E2E2E2E2E2E2E2E2E2E2
310
E2E2E2E2E2E2E2E2E2E2E2E2E2E2E2E2E2E2E2E2E2E2E2E2E2E2E2E2E2E2E2E2E2E2E2E2E2E2E2E2E2E2E2E2E2E2E2E2E2E2E2E2E2E2DCE2E2E22D2DE2E2E2E2DCDCDCDCE2E2E2E2E2E2E2E2E2E2E2E2E2E2E2E2E2E2E2E2E2E2E2E2E2E2E2E2E2E2E2E2E22D2DE2E2E2E2E2E2E2E2E2DCE2E2E2E2E2E2E2E2E2E2E2E2E2E2
310
E2E2E2E2E2E2E2E2E2E2E2E2E2E2E2E2E2E2E2E2E2E2E2E2E2E2E2E2E2E2E2E2E2E2E2E2E2E2BEE2E2E2E2E2E2E2E2E2E2E2E2E2E2E2E2E2E2E2E2E2E2E2E2E2E2E2E2E2E2E2E2E2E2E2E2E2E2E2E2E2E2E2E2E2E2E2E2E2E2E2E2E2E2E2E2BEE2E2E2E2E2BEBEBEBEBEBEBEBEBEBEE2E2BEE2E2E2E2E2E2E2E2E2E2E2E2E2
310
E2E2E2E2E2E2E2E2E2E2E2E2E2E2E2E2E2E2E2E2E2E2E2E2E2E2E2E2E2E2E2E2E2E2E2E2E2E2E2E2E2E2E2E2E2E2E2DCDCE2E2E2E2E2E2E2E2E2E2E22D2DE2E2E2E2E2E2E2E2DCDCDCDCE2E2E2E2E2E2E2E2E2E2E2E2E2E2E2E2E2E2E2E2E2E2E2E2E2E2E2E2E22D2DE2E2E2E2E2E2E2E2DCE2E2E2E2E2E2E2E2E2E2E2E2E2
310
E2E2E2E2E2E2E2E2E2E2E2E2E2E2E2E2E2E2E2E2E2E2E2E2E2E2E2E2E2E2E2E2E2E2E2E2E2E2E2E2BEE2E2E2E2E2E2E2E2E2E2E2E2E2E2E2E2E2E2E2E2E2E2E2E2E2E2E2E2E2E2E2E2E2E2E2E2E2E2E2E2E2E2E2E2E2E2E2E2E2E2E2E2E2E2E2E2BEE2E2E2E2E2BEBEBEBEBEBEBEBEBEBEE2E2BEE2E2E2E2E2E2E2E2E2E2E2
310
E2E2E2E2E2E2E2E2E2E2E2E2E2E2E2E2E2E2E2E2E2E2E2E2E2E2E2E2E2E2E2E2E2E2E2E2E2E2E2E2E2E2E2E2E2E2E2E2E2E2E2E2E2E2E2E2DCE2E2E2E2E22D2DE2E2E2E2E2E2E2E2E2E2E2E2DCDCDCDCE2E2DCE2E2E2E2E2E2E2E2E22DE2E2E2E2E2E2E2E2E2E2E2E22D2DE2E2E2E2E2E2DCDCE2E2E2E2E2E2E2E2E2E2E2E2
310
E2E2E2E2E2E2E2E2E2E2E2E2E2E2E2E2E2E2E2E2E2E2E2E2E2E2E2E2E2E2E2E2E2E2E2E2E2E2E2E2E2E2BEE2E2E2E2E2E2E2E2E2E2E2E2E2E2E2E2E2E2E2E2E2E2E2E2E2E2E2E2E2E2E2E2E2E2E2E2E2E2E2E2E2E2E2E2E2E2E2E2E2E2E2E2E2E2E2E2BEE2E2E2E2E2BEBEBEBEBEBEBEBEBEBEE2E2BEE2E2E2E2E2E2E2E2E2
310
E2E2E2E2E2E2E2E2E2E2E2DCDCDCDCDCDCDCDCDCDCDCDCDCDCDCE2E2DCDCDCDCDCDCDCDCDCDCDCDCE2E2E2E2E2E2E2E2E2E2E2E2E2E2E2E2E22D2D2D2D2D2D2D2D2D2D2D2D2D2D2D2D2D2D2D2D2DBE2D2D2DDCDCDCDCDCDCDCDCDCE22D2DBE2D2D2D2D2D2D2D2D2D2D2D2D2D2D2D2D2D2D2D2DDC2D2D2D2D2DE2E2E2E2E2E2
310
E2E2E2E2E2E2E2E2E2E2E2E2E2E2E2E2E2E2E2E2E2E2E2E2E2E2E2E2E2E2E2E2E2E2E2E2E2E2E2E2E2E2E2E2BEE2E2E2E2E2E2E2E2E2E2E2E2E2E2E2E2E2E2E2E2E2E2E2E2E2E2E2E2E2E2E2E2E2E2E2E2E2E2E2E2E2E2E2E2E2E2E2E2E2E2E2E2E2E2E2E2BEE2E2E2E2E2BEBEBEBEBEBEBEBEBEBEE2E2BEE2E2E2E2E2E2E2
310
E2E2E2E2E2E2E2E2E2E2E2E2E2DCDCDCDCDCDCE2DCE2DCDCDCDCDCDCE2E2DCDCDCDCDCDCDCDCDCDCDCDCE2E2E2E2E2E2E2E2E2E2E2E2E2E2E2E22D2DE2E2E2E2E2E22D2DE2E2E2E2E2E2E2E2E2BEE2E2BEE2E2DCDCDCDCDCDCDCDCDCDCDCDCE2BEE2BEE2E2E2E2E2E2E2E2E2E22D2DE2E2E2E2E2DCE2E2E2E2E22DE2E2E2E2
310
E2E2E2E2E2E2E2E2E2E2E2E2E2E2E2E2E2E2E2E2E2E2E2E2E2E2E2E2E2E2E2E2E2E2E2E2E2E2E2E2E2E2E2E2E2E2BEE2E2E2E2E2E2E2E2E2E2E2E2E2E2E2E2E2E2E2E2E2E2E2E2E2E2E2E2E2E2E2E2E2E2E2E2E2E2E2E2E2E2E2E2E2E2E2E2E2E2E2E2E2E2E2E2BEE2E2E2E2E2BEBEBEBEBEBEBEBEBEBEE2E2BEE2E2E2E2E2
310
E2E2E2E2E2E2E2E2E2E2E2E2E2E2E2DCDCDCDCDCDCE2DCDCDCDCDCDCDCDCE2E2DCDCDCDCDCDCDCDCDCDCDCDCE2E2E2E2E2E2E2E2E2E2E2DCE2E2E2E22D2DE2E2E2E2E2E22D2DE2E2E2E2E2E2E2E2E2BEE2E2BEE2E22DE2DCE2E2DCDCE2E2DCE22DE2BEE2BEE2E2E2E2E2E2E2E2E2E22D2DE2E2E2E2E2E2E2E2E2E2E22DE2E2
310
E2E2E2E2E2E2E2E2E2E2E2E2E2E2E2E2E2E2E2E2E2E2E2E2E2E2E2E2E2E2E2E2E2E2E2E2E2E2E2E2E2E2E2E2E2E2E2E2BEE2E2E2E2E2E2E2E2E2E2E2E2E2E2E2E2E2E2E2E2E2E2E2E2E2E2E2E2E2E2E2E2E2E2E2E2E2E2E2E2E2E2E2E2E2E2E2E2E2E2E2E2E2E2E2E2BEE2E2E2E2E2BEBEBEBEBEBEBEBEBEBEE2E2BEE2E2E2
310
E2E2E2E2E2E2E2E2E2E2E2E2E2E2E2E2E2E2E2E2E2E2E2DCDCDCE2E2DCE2DCDCE2E2DCDCE2E2DCDCE2DCDCE2DCE2E2E2E2E2E2E2E2E2E2E2E2E2E2E2E2E2E22D2D2DE2E2E2E22D2DE2E2E2E2E2E2E2E2E2BEE2E2BEE2E22DE2DCBEBEDCDCBEBEDCDC2DE2BEE2BEE2E2E2E2E2E2E2E2E2E22D2DE2E2E2E2E2E2E2E2E22D2D2D
310
E2E2E2E2E2E2E2E2E2E2E2E2DCE2E2E2E2E2E2E2E2E2E2E2E2E2E2E2E2E2E2E2E2E2E2E2E2E2E2E2E2E2E2E2E2E2E2E2E2E2BEE2E2E2E2E2E2E2E2E2E2E2E2E2E2E2E2E2E2E2E2E2E2E2E2E2E2E2E2E2E2E2E2E2E2E2E2E2E2E2E2E2E2E2E2E2E2E2E2E2E2E2E2E2E2E2E2BEE2E2E2E2E2BEBEBEBEBEBEBEBEBEBEE2E2BEE2
310
E2E2E2E2E2E2E2E2E2E2E2E2E2E2E2E2E2E2E2E2E2E2E2E2E2DCDCE2DCDCDCE2DCDCE2E2E2DCE2E2DCE2DCDCDCE2DCE2E2DCDCDCDCDCDCDCDCDCDCDCE2E2E2DC2DE2E22DE2E2E2E22D2DE2E2E2E2E2E2E2E2E2BEE2E2BEE2E22DE2DCE2E2DCDCE2E2DCE22DE2BEE2BEE2E2E2E2E2E2E2E2E2E22D2DE2E2E2E2E2E2E2E2E22D
310
E22DE2E2E2E2DCE2E2E2E2E2E2E2DCE2E2E2E2E2E2E2E2E2E2E2E2E2E2E2E2E2E2E2E2E2E2E2E2E2E2E2E2E2E2E2E2E2E2E2E2E2BEE2E2E2E2E2E2E2E2E2E2E2E2E2E2E2E2E2E2E2E2E2E2E2E2E2E2E2E2E2E2E2E2E2E2E2E2E2E2E2E2E2E2E2E2E2E2E2E2E2E2E2E2E2E2E2E2BEE2E2E2E2E2BEBEBEBEBEBEBEBEBEBEE2E2
310
BEE2E2E2E2E2E2E2E2E2E2E2E2E2E2E2E2E2E2E2E2E2E2E2E2E2E2DCDCE2DCE2DCDCDCDCE2E2DCDCE2DCDCE2DCDCDCDCDCDCE2E2E2E2E2E2E2E2E2E2E2E2DCDCDCDCDCDC2D2D2D2D2D2D2D2D2D2D2D2D2D2D2D2D2DBE2DE2BEE22DDCDCE2DCDCE2E2DCDCE2DCDC2DBE2DBE2D2D2D2D2D2D2D2D2D2D2D2D2D2D2D2D2D2D2D2D
310
2D2D2D2DE2E2E2E2E2E2E2E2E2E2E2E2E2E2E2E2E2E2E2E2E2E2E2E2E2E2E2E2E2E2E2E2E2E2E2E2E2E2E2E2E2E2E2E2E2E2E2E2E2E2BEE2E2E2E2E2E2E2E2E2E2E2E2E2E2E2E2E2E2E2E2E2E2E2E2E2E2E2E2E2E2E2E2E2E2E2E2E2E2E2E2E2E2E2E2E2E2E2E2E2E2E2E2E2E2E2E2BEE2E2E2E2E2BEBEBEBEBEBEBEBEBEBE
310
E2E2BEE2E2E2E2E2E2E2E2E2E2E2E2E2E2E2E2E2E2E2E2E2E2E2E2E2E2E2E2E2E2E2E2E2E2E2E2E2E2E2E2E2E2E2E2E2E2E2E2E2E2E2E2E2E2E2E2E2E2E2E2E2E2E2E2E2E2E2DCDCDCDCDCDCDC2DE2E2E2E2E2E2E2E2E22DE22D2D2DE2E2DCE2E2E2E2E2E2E2E2DCE2E22DE22DE2E2E2E2E2E2E2E2E22D2DE2E2E2E2DCDCE2
310
E2E2E2E2E2E2E2E2E2E2E2E2E2E2E2E2E2E2E2E2E2E2E2E2E2E2E2E2E2E2E2E2E2E2E2E2E2E2E2E2E2E2E2E2E2E2E2E2E2E2E2E2E2E2E2E2BEE2E2E2E2E2E2E2E2E2E2E2E2E2E2E2E2E2E2E2E2E2E2E2E2E2E2E2E2E2E2E2E2E2E2E2E2E2E2E2E2E2E2E2E2E2E2E2E2E2E2E2E2E2E2E2E2BEE2E2E2E2E2BEBEBEBEBEBEBEBE
310
BEBEE2E2BEE2E2E2E2E2E2E2E2E2E2E2E2E2E2E2E2E2E2E2E2E2E2E2E2E2E2E2E2E2E2E2E2E2E2E2E2E2E2E2E2E2E2E2E2E2E2E2E2E2E2E2E2E2E2E2E2E2E2E2E2E2E2E2E2DCE2E2E2E2E2E2E2E2E2DCDCDCDCDCDCDCE2E2E2E2E2E2E2E2E2E2DCE2E2E2E2E2E2E2E2DCE2E2E2E2E2E2E2E2E2E2E2E2E2E22D2DE2DCE2E2E2
310
E2E2E2E2E2E2E2E2E2E2E2E2E2E2E2E2E2E2E2E2E2E2E2E2E2E2E2E2E2E2E2E2E2E2E2E2E2E2E2E2E2E2E2E2E2E2E2E2E2E2E2E2E2E2E2E2E2E2BEE2E2E2E2E2E2E2E2E2E2E2E2E2E2E2E2E2E2E2E2E2E2E2E2E2E2E2E2E2E2E2E2E2E2E2E2E2E2E2E2E2E2E2E2E2E2E2E2E2E2E2E2E2E2E2E2BEE2E2E2E2E2BEBEBEBEBEBE
310
BEBEBEBEE2E2BEE2E2E2E2E2E2E2E2E2E2E2E2E2E2E2E2E2E2E2E2E2E2E2E2E2E2E2E2E2E2E2E2E2E2E2E2E2E2E2E2E2E2E2E2E2E2E2E2E2E2E2E2E2E2E2E2E2E2E2E2E2E2E2E2E2E2E2E2E2E2E2E2E2E22D2DE2E2E2E2E2DCDCDCDCDCDCE2E2E2E2DCE2E2E2E2E2E2E2E2DCE2E2E2E2E2E2E2E2E2E2E2E2E2E22D2DE2E2E2
310
E2E2E2E2E2E2E2E2E2E2E2E2E2E2E2E2E2E2E2E2E2E2E2E2E2E2E2E2E2E2E2E2E2E2E2E2E2E2E2E2E2E2E2E2E2E2E2E2E2E2E2E2E2E2E2E2E2E2E2E2BEE2E2E2E2E2E2E2E2E2E2E2E2E2E2E2E2E2E2E2E2E2E2E2E2E2E2E2E2E2E2E2E2E2E2E2E2E2E2E2E2E2E2E2E2E2E2E2E2E2E2E2E2E2E2E2E2BEE2E2E2E2E2BEBEBEBE
310
BEBEBEBEBEBEE2E2BEE2E2E2E2E2E2E2E2E2E2E2E2E2E2E2E2E2E2E2E2E2E2E2E2E2E2E2E2E2E2E2E2E2E2E2E2E2E2E2E2E2E2E2E2E2E2E2E2E2E2E2E2E2E2E2E2E2E2E2E2E2E2E2E2E2E2E2E2E2E2DCDCE2E22D2DE2E2E2E2E2E2E2E2E2E2E2DCDCDCDCDCDCDCDCDCDCDCDCDCDCE2E2E2E2E2E2E2E2E2E2E2E2E2E22D2DE2
310
E2E2E2E2E2E2E2E2E2E2E2E2E2E2E2E2E2E2E2E2E2E2E2E2E2E2E2E2E2E2E2E2E2E2E2E2E2E2E2E2E2E2E2E2E2E2E2E2E2E2E2E2E2E2E2E2E2E2E2E2E2E2BEE2E2E2E2E2E2E2E2E2E2E2E2E2E2E2E2E2E2E2E2E2E2E2E2E2E2E2E2E2E2E2E2E2E2E2E2E2E2E2E2E2E2E2E2E2E2E2E2E2E2E2E2E2E2E2E2BEE2E2E2E2E2BEBE
310
BEBEBEBEBEBEBEBEE2E2BEE2E2E2E2E2E2E2E2E2E2E2E2E2E2E2E2E2E2E2E2E2E2E2E2E2E2E2E2E2E2E2E2E2E2E2E2E2E2E2E2E2E2E2E2E2E2E2E2E2E2E2E2E2E2E2E2E2E2E2E2E2E2E2E2E2E2E2E2E2E2E2E2E2E22D2DE2E2E2E2E2E2E2E2E2E2E2E2E2E2DCDCDCDCBEBEBEBEBEBEDCE2E2E2E2E2E2E2E2E2E2E2E2E2E22D
310
2DE2E2E2E2E2E2E2E2E2E2E2E2E2E2E2E2E2E2E2DCDCE2E2E2E2E2DCE2E2E2E2E2E2E2E2E2E2E2E2E2E2E2E2E2E2E2E2E2E2E2E2E2E2E2E2E2E2E2E2E2E2E2E2BEE2E2E2E2E2E2E2E2E2E2E2E2E2E2E2E2E2E2E2E2E2E2E2E2E2E2E2E2E2E2E2E2E2E2E2E2E2E2E2E2E2E2E2E2E2E2E2E2E2E2E2E2E2E2E2E2BEE2E2E2E2E2
310
BEBEBEBEBEBEBEBEBEBEE2E2BEE2E2E2E2E2E2E2E2E2E2E2E2E2E2E2E2E2E2E2E2E2E2E2E2E2E2E2E2E2E2E2E2E2E2E2E2E2E2E2E2E2E2E2E2E2E2E2E2E2E2E2E2E2E2E2E2E2E2E2E2E2E2E2E2E2E2E2E2E2E2E2E2E2E22D2DE2E2E2E2E2E2E2E2E2E2E2E2E2E2E2E2DCBEBEBEDCBEBEDCDCE2E2E2E2E2E2E2E2E2E2E2E2E2
310
E22D2DE2E2E2E2E2DCE2E2E2E2E2E2E2E2E2E2E2E2E2E2E2E2E2E2E2E2E2E2E2E2E2E2E2E2E2E2E2E2E2E2E2E2E2E2E2E2E2E2E2E2E2E2E2E2E2E2E2E2E2E2E2E2E2BEE2E2E2E2E2E2E2E2E2E2E2E2E2E2E2E2E2E2E2E2E2E2E2E2E2E2E2E2E2E2E2E2E2E2E2E2E2E2E2E2E2E2E2E2E2E2E2E2E2E2E2E2E2E2E2E2BEE2E2E2
310
E2E2BEBEBEBEBEBEBEBEBEBEE2E2BEE2E2E2E2E2E2E2E2E2E2E2E2E2E2E2E2E2E2E2E2E2E2E2E2E2E2E2E2E2E2E2E2E2E2E2E2E2E2E2E2E2E2E2E2E2E2E2E2E2E2E2E2E2E2E2E2E2E2E2E2E2E2E2E2E2E2E2E2E2E2E2E2E2E22D2DE2E2E2E2E2E2E2E2E2E2E2E2E2E2E2E2E2BEBEBEBEBEBEE2E2E2E2E2E2E2E2E2E2E2E2E2
310
E2E2E22D2DE2E2E2E2E2E2E2E2E2E2E2E2E2E2E2E2E2E2E2E2E2E2E2E2E2E2E2E2E2E2E2E2E2E2E2E2E2E2E2E2E2E2E2E2E2E2E2E2E2E2E2E2E2E2E2E2E2E2E2E2E2E2E2BEE2E2E2E2E2E2E2E2E2E2E2E2E2E2E2E2E2E2E2E2E2E2E2E2E2E2E2E2E2E2E2E2E2E2E2E2E2E2E2E2E2E2E2E2E2E2E2E2E2E2E2E2E2E2E2E2BEE2
310
E2E2E2E2BEBEBEBEBEBEBEBEBEBEE2E2BEE2E2E2E2E2E2E2E2E2E2E2E2E2E2E2E2E2E2E2E2E2E2E2E2E2E2E2E2E2E2E2E2E2E2DCDCDCDCDCE2DCDCE2DCDCDCDCDCDCE2E2E2E2E2E2E2E2E2E2E2E2E2E2E2E2E2E2E2E2E2E2DCE2E22D2DE2E2E2E2E2E2E2E2E2E2E2E2E2E2E2E2E2BEBEBEBEDCBEDCE2E2E2E2E2E2E2E2E2E2
310
E2E2E2E2E22D2DE2E2E2E2E2E2E2E2E2E2E2E2E2E2E2E2E2E2E2E2E2E2E2E2E2E2E2E2E2E2E2E2E2E2E2E2E2E2E2E2E2E2E2E2E2E2E2E2E2E2E2E2E2E2E2E2E2E2E2E2E2E2E2BEE2E2E2E2E2E2E2E2E2E2E2E2E2E2E2E2E2E2E2E2E2E2E2E2E2E2E2E2E2E2E2E2E2E2E2E2E2E2E2E2E2E2E2E2E2E2E2E2E2E2E2E2E2E2E2E2
310
BEE2E2E2E2E2BEBEBEBEBEBEBEBEBEBEE2E2BEE2E2E2E2E2E2E2E2E2E2E2E2E2E2E2E2E2E2E2E2E2E2E2E2E2E2E2E2E2E2E2E2E2DCE2DCE2DCDCDCDCDCE2DCDCDCDCDCDCE2E2E2E2E2E2E2E2E2E2E2E2E2E2E2E2E2E2E2E2E2E2E2E2E22D2DE2E2E2E2E2E2E2E2E2E2E2E2E2E2E2E2E2DCDCDCBEDCE2DCE2E2E2E2E2E2E2E2
310
E2E2E2E2E2E2E22D2DE2E2E2E2E2E2E2E2E2E2E2E2E2E2E2E2E2E2E2E2E2E2E2E2E2DCE2E2E2E2E2E2E2E2E2E2E2E2E2E2E2E2E2E2E2E2E2E2E2E2E2E2E2E2E2E2E2E2E2E2E2E2E2BEE2E2E2E2E2E2E2E2E2E2E2E2E2E2E2E2E2E2E2E2E2E2E2E2E2E2E2E2E2E2E2E2E2E2E2E2E2E2E2E2E2E2E2E2E2E2E2E2E2E2E2E2E2E2
310
E2E2BEE2E2E2E2E2BEBEBEBEBEBEBEBEBEBEE2E2BEE2E2E2E2E2E2E2E2E2E2E2E2E2E2E2E2E2E2E2E2E2E2E2E2E2E2E2E2E2E2E2E2E2E2E2E2E2E2E2E2E2E2E2E2E2E2E2E2E2E2E2E2E2E2E2E2E2E2E2E2E2E2E2E2E2E2E2E2E2DCDCDCDCDCDC2DE2E2E2E2E2E2E2E2E2E2E2E2E2E2E2E2E2DCBEDCDCBEDCDCE2E2E2E2E2E2
310
E2E2E2E2E2E2E2E2E22D2DE2E2DCDCE2E2E2E2E2E2E2E2E2E2E2E2E2E2E2E2E2E2E2E2E2E2E2E2E2E2E2E2E2E2E2E2E2E2E2E2E2E2E2E2E2E2E2E2E2E2E2E2E2E2E2E2E2E2E2E2E2E2E2BEE2E2E2E2E2E2E2E2E2E2E2E2E2E2E2E2E2E2E2E2E2E2E2E2E2E2E2E2E2E2E2E2E2E2E2E2E2E2E2E2E2E2E2E2E2E2E2E2E2E2E2E2
310
E2E2E2E2BEE2E2E2E2E2BEBEBEBEBEBEBEBEBEBEE2E2BEE2E2E2E2E2E2E2E2E2E2E2E2E2E2E2E2E2E2E2E2E2E2E2E2E2E2E2E2E2E2E2E2E2E2DCDCDCE2E2DCDCDCDCDCDCDCDCDCDCE2E2E2E2E2E2E2E2E2E2E2E2DCDCDCDCDCDCDCDCDCDCE2E2DCE22DE2E2E2E2E2E2E2E2E2E2E2E2E2E2E2E2E2DCBEE2E2BEDCE2E2E2E2E2
310
E2E2E2E2E2E2E2E2E2E2E22DE2E2E2E2E2E2E2E2E2E2E2E2E2E2E2E2E2E2E2E2E2E2E2E2E2E2E2E2E2E2E2E2E2E2E2E2E2E2E2E2E2E2E2E2E2E2E2E2E2E2E2E2E2E2E2E2E2E2E2E2E2E2E2E2BEE2E2E2E2E2E2E2E2E2E2E2E2E2E2E2E2E2E2E2E2E2E2E2E2E2E2E2E2E2E2E2E2E2E2E2E2E2E2E2E2E2E2E2E2E2E2E2E2E2E2
310
E2E2E2E2E2E2BEE2E2E2E2E2BEBEBEBEBEBEBEBEBEBEE2E2BEE2E2E2E2E2E2E2E2E2E2E2E2E2E2E2E2E2E2E2E2E2E2E2E2E2E2E2E2E2E2E2E2E2E2DCDCDCDCE2DCDCDCDCDCDCDCDCDCDCE2DCDCDCDCDCDCDCDCDCDCDCE2E2E2E2E2E2E2E2DCDCE2E2E2E22DE2E2E2E2E2E2E2E2E2E2E2E2E2E2DCDCDCDCDCDCDCDCDCE2E2E2
310
E2E2E2E2E2E2E2E2E2E2E2E2E22DE2E2E2E2E2E2E2E2E2E2E2E2E2E2E2E2E2E2E2E2E2E2E2E2DCDCE2E2E2E2E2E2E2E2E2E2E2E2E2E2E2E2E2E2E2E2E2E2E2E2E2E2E2E2E2E2E2E2E2E2E2E2E2E2BEE2E2E2E2E2E2E2E2E2E2E2E2E2E2E2E2E2E2E2E2E2E2E2E2E2E2E2E2E2E2E2E2E2E2E2E2E2E2E2E2E2E2E2E2E2E2E2E2
310
E2E2E2E2E2E2E2E2BEE2E2E2E2E2BEBEBEBEBEBEBEBEBEBEE2E2BEE2E2E2E2E2E2E2E2E2E2E2E2E2E2E2E2E2E2E2E2E2E2E2E2E2E2E2E2E2E2E2E2E2E2E2DCDCDCE2DCDCDCDCDCDCDCDCDCE2E2E2E2E2E2E2E2E2E2E2E2E2E2E2DCE2DCDCE2E2E2DCE2E2E2E22DE2E2E2E2E2E2E2E2E2E2DCDCDCDCE2DCDCDCBEDCDCDCBEE2
310
E2E2E2E2E2E2E2E2E2E2E2E2E2E2E22DE2E2E2E2E2E2E2E2E2E2E2E2E2E2E2E2E2E2E2E2E2E2E2E2E2E2E2E2E2E2E2E2E2E2E2E2E2E2E2E2E2E2E2E2E2E2E2E2E2E2E2E2E2E2E2E2E2E2E2E2E2E2E2E2BEE2E2E2E2E2E2E2E2E2E2E2E2E2E2E2E2E2E2E2E2E2E2E2E2E2E2E2E2E2E2E2E2E2E2E2E2E2E2E2E2E2E2E2E2E2E2
310
E2E2E2E2E2E2E2E2E2E2BEE2E2E2E2E2BEBEBEBEBEBEBEBEBEBEE2E2BEE2E2E2E2E2E2E2E2E2E2E2E2E2E2E2E2E2E2E2E2E2E2E2E2E2E2E2E2E2E2E2E2E2E2E2E2E2E2E2E2E2E2E2E2E2E2E2E2E2E2E2E2E2E2E2E2E2E2E2E2E2E2E2E2E2E2E2E2E2E2E2DCE2E2E22DE2E2E2E2E2E2DCDCDCDCE2E2E2E2E2E2E2E2E2E2E2E2
310
E2E2E2E2E2E2E2E2E2E2E2E2E2E2E2E22D2DE2E2E2E2E2E2DCE2E2E2E2E2E2E2E2E2E2E2E2E2E2E2E2E2E2E2E2E2E2E2E2E2E2E2E2E2E2E2E2E2E2E2E2E2E2E2E2E2E2E2E2E2E2E2E2E2E2E2E2E2E2E2E2E2BEE2E2E2E2E2E2E2E2E2E2E2E2E2E2E2E2E2E2E2E2E2E2E2E2E2E2E2E2E2E2E2E2E2E2E2E2E2E2E2E2E2E2E2E2
310
E2E2E2E2E2E2E2E2E2E2E2E2BEE2E2E2E2E2BEBEBEBEBEBEBEBEBEBEE2E2BEE2E2E2E2E2E2E2E2E2E2E2E2E2E2E2E2E2E2E2E2E2E2E2E2E2E2E2E2E2E2E2E2E2E2E2E2E2E2E2E2E2E2E2E2E2E2E2E2E2E2E2E2E2E2E2E2E2E2E2E2E2E2E2E2E2E2E2E2E2E2E2E2E2E2E22D2DE2DCDCDCDCE2E2E2E2E2E2E2E2E2E2E2E2E2E2
310
E2E2E2E2E2E2E2E2E2E2E2E2E2E2E2E2E2E22D2DE2E2E2E2E2E2E2E2E2E2DCDCE2E2E2E2E2E2E2E2E2E2E2E2E2E2E2E2E2E2E2E2E2E2E2E2E2E2E2E2E2E2E2E2E2E2E2E2E2E2E2E2E2E2E2E2E2E2E2E2E2E2E2E2BEE2E2E2E2E2E2E2E2E2E2E2E2E2E2E2E2E2E2E2E2E2E2E2E2E2E2E2E2E2E2E2E2E2E2E2E2E2E2E2E2E2E2
310
E2E2E2E2E2E2E2E2E2E2E2E2E2E2BEE2E2E2E2E2BEBEBEBEBEBEBEBEBEBEE2E2BEE2E2E2E2E2E2E2E2E2E2E2E2E2E2E2E2E2E2E2E2E2E2E2E2E2E2E2E2E2E2E2E2E2E2E2E2E2E2E2E2E2E2E2E2E2E2E2E2E2E2E2E2E2E2E2E2E2E2E2E2E2E2E2E2E2E2E2E2E2E2E2E2E2E2E2DCDCDCE2E2E2E2E2E2E2E2E2E2E2E2E2E2E2E2
310
E2E2E2E2E2E2E2E2E2E2E2E2E2E2E2E2E2E2E2E22D2DE2E2E2E2E2E2DCDCE2E2E2E2E2E2E2E2E2E2E2E2E2E2E2E2E2E2E2E2E2E2E2E2E2E2E2E2E2E2E2E2E2E2E2E2E2E2E2E2E2E2E2E2E2E2E2E2E2E2E2E2E2E2E2E2BEE2E2E2E2E2E2E2E2E2E2E2E2E2E2E2E2E2E2E2E2E2E2E2E2E2E2E2E2E2E2E2E2E2E2E2E2E2E2E2E2
310
E2E2E2E2E2E2E2E2E2E2E2E2E2E2E2E2BEE2E2E2E2E2BEBEBEBEBEBEBEBEBEBEE2E2BEE2E2E2E2E2E2E2E2E2E2E2E2E2E2E2E2E2E2E2E2E2E2E2E2E2E2E2E2E2E2DCDCDCDCDCDCDCDCE2E2E2DCDCDCDCDCDCDCDCE2E2E2E2E2E2E2E2E2E2E2E2E2E2E2E2E2E2E2E2E2E2DCDCDCDC2D2DE2E2E2E2E2E2E2E2E2E2E2E2E2E2E2
310
E2E2E2E2E2E2E2E2E2E2E2E2E2E2E2E2E2E2E2E2E2E22D2DE2E2E2E2E2E2E2E2E2E2E2E2E2E2E2E2E2DCE2E2E2E2E2E2E2E2DCE2E2E2E2E2E2E2E2E2E2E2E2E2E2E2E2E2E2E2E2E2E2E2E2E2E2E2E2E2E2E2E2E2E2E2E2E2BEE2E2E2E2E2E2E2E2E2E2E2E2E2E2E2E2E2E2E2E2E2E2E2E2E2E2E2E2E2E2E2E2E2E2E2E2E2E2
310
E2E2E2E2E2E2E2E2E2E2E2E2E2E2E2E2E2E2BEE2E2E2E2E2BEBEBEBEBEBEBEBEBEBEE2E2BEE2E2E2E2E2E2E2E2E2E2E2E2E2E2E2E2E2E2E2E2E2E2E2E2E2E2E2E2E2E2DCDCDCDCE2DCDCDCDCE2E2DCDCDCDCE2DCDCE2E2E2E2E2E2E2E2E2E2E2E2E2E2E2E2E2E2E2DCDCDCDCE2E2E2E22D2DE2E2E2E2E2E2E2E2E2E2E2E2E2
310
E2E2E2E2E2E2E2E2E2E2E2E2E2E2E2E2E2E2E2E2E2E2E2E22D2DE2E2E2E2E2E2E2E2E2E2E2E2E2E2E2E2E2DCE2E2E2E2E2DCE2E2E2E2E2E2E2E2E2E2E2E2E2E2E2E2E2E2E2E2E2E2E2E2E2E2E2E2E2E2E2E2E2E2E2E2E2E2E2E2BEE2E2E2E2E2E2E2E2E2E2E2E2E2E2E2E2E2E2E2E2E2E2E2E2E2E2E2E2E2E2E2E2E2E2E2E2
310
E2E2E2E2E2E2E2E2E2E2E2E2E2E2E2E2E2E2E2E2BEE2E2E2E2E2BEBEBEBEBEBEBEBEBEBEE2E2BEE2E2E2E2E2E2E2E2E2E2E2E2E2E2E2E2E2E2E2E2E2E2E2E2E2E2E2E2E2E2DCDCDCDCE2DCDCDCDCE2DCE2DCDCDCDCDCDCDCE2E2E2E2E2E2E2E2E2E2E2E2E2E2DCDCDCDCE2E2E2E2E2E2E2E22D2DE2E2E2E2E2E2E2E2E2E2E2
310
E2E2E2E2E2E2E2E2E2E2E2E2E2E2E2E2E2E2E2E2E2E2E2E2E2E22D2DE2E2E2E2E2E2E2E2E2E2E2E2E2E2E2E2E2E2E2E2E2E2E2E2E2E2E2E2E2E2E2E2E2E2E2E2E2E2E2E2E2E2E2E2E2E2E2E2E2E2E2E2E2E2E2E2E2E2E2E2E2E2E2E2BEE2E2E2E2E2E2E2E2E2E2E2E2E2E2E2E2E2E2E2E2E2E2E2E2E2E2E2E2E2E2E2E2E2E2
310
E2E2E2E2E2E2E2E2E2E2E2E2E2E2E2E2E2E2E2E2E2E2BEE2E2E2E2E2BEBEBEBEBEBEBEBEBEBEE2E2BEE2E2E2E2E2E2E2E2E2E2E2E2E2E2E2E2E2E2E2E2E2E2E2E2E2E2E2E2E2E2E2E2DCDCDCDCDCE2DCDCDCDCDCDCE2DCDCDCDCE2E2E2E2E2E2E2E2E2E2DCDCDCDCE2E2E2E2DCE2E2DCDCE2E2E22D2DE2E2E2E2E2E2E2E2E2
310
E2E2E2E2E2E2E2E2E2E2E2E2E2E2E2E2E2E2E2E2E2E2E2E2E2E2E2E22D2DE2E2E2E2E2E2DCDCE2E2E2DCE2E2E2E2E2E2DCE2E2E2E2E2E2E2E2E2E2E2E2E2E2E2E2E2E2E2E2E2E2E2E2E2E2E2E2E2E2E2E2E2E2E2E2E2E2E2E2E2E2E2E2E2BEE2E2E2E2E2E2E2E2E2E2E2E2E2E2E2E2E2E2E2E2E2E2E2E2E2E2E2E2E2E2E2E2
310
E2E2E2E2E2E2E2E2E2E2E2E2E2E2E2E2E2E2E2E2E2E2E2E2BEE2E2E2E2E2BEBEBEBEBEBEBEBEBEBEE2E2BEE2E2E2E2E2E2E2E2E2E2E2E2E2E2E2E2E2E2E2E2E2E2E2E2E2E2E2E2E2E2E2E2DCDCDCDCDCE2DCDCDCDCDCDCDCDCDCDCDCE2DCDCDCDCDCDCDCDCDCE2E2E2E2E2E2E2E2DCE2E2E2E2E2E2E2E22D2D2DE2E2E2E2E2
310
E2E2E2E2E2E2E2E2E2E2E2E2E2E2E2E2E2E2E2E2E2E2E2E2E2E2E2E22D2D2DE2E2E2E2E2E2E2DCDCE2E2E2DCE2E2E2E2E2E2E2E2E2E2E2E2E2E2E2E2E2E2E2E2E2E2E2E2E2E2E2E2E2E2E2E2E2E2E2E2E2E2E2E2E2E2E2E2E2E2E2E2E2E2E2E2BEE2E2E2E2E2E2E2E2E2E2E2E2E2E2E2E2E2E2E2E2E2E2E2E2E2E2E2E2E2E2
310
E2E2E2E2E2E2E2E2E2E2E2E2E2E2E2E2E2E2E2E2E2E2E2E2E2E2BEE2E2E2E2E2BEBEBEBEBEBEBEBEBEBEE2E2BEE2E2E2E2E2E2E2E2E2E2E2E2E2E2E2E2E2E2E2E2E2E2E2E2E2E2E2E2E2E2E2E2DCDCDCDCE2DCE2DCDCDCDCDCDCE2DCE2DCE2E2E2E2E2E2E2E2E2E2E2E2E2E2E2E2E2E2E2E2E2E2DCDCDCE2E22D2D2D2D2D2D
310
2D2D2D2D2D2D2D2D2D2D2D2D2D2D2D2D2D2D2D2D2D2D2D2D2D2D2D2D2D2D2D2D2DE2E2E2E2DCE2E2E2E2E2E2E2E2E2E2E2E2E2E2E2E2E2E2E2E2E2E2E2E2E2E2E2E2E2E2E2E2E2E2E2E2E2E2E2E2E2E2E2E2E2E2E2E2E2E2E2E2E2E2E2E2E2E2E2E2BEE2E2E2E2E2E2E2E2E2E2E2E2E2E2E2E2E2E2E2E2E2E2E2E2E2E2E2E2
310
E2E2E2E2E2E2E2E2E2E2E2E2E2E2E2E2E2E2E2E2E2E2E2E2E2E2E2E2BEE2E2E2E2E2BEBEBEBEBEBEBEBEBEBEE2E2BEE2E2E2E2E2E2E2E2E2E2E2E2E2E2E2E2E2E2E2E2E2E2E2E2E2E2E2E2E2E2E2E2E2E2E2E2E2DCE2E2E2E2E2E2E2E2E2E2E2E2E2E2E2E2E2E2E2E2E2E2E2E2E2E2E2E2E2E2E2E2E2E2E2E2E2E22D2D2DE2
310
E2E2E2E2E2E2E2E2E2E2E2E2E2E2E2E2E2E2E2E2E2E2E2E2E2E2E2E2E2E2E2E22D2D2DE2E2E2E2E2E2E2E2E2E2E2E2E2E2E2E2E2E2E2E2E2E2E2E2E2E2E2E2E2E2E2E2E2E2E2E2E2E2E2E2E2E2E2E2E2E2E2E2E2E2E2E2E2E2E2E2E2E2E2E2E2E2E2E2E2BEE2E2E2E2E2E2E2E2E2E2E2E2E2E2E2E2E2E2E2E2E2E2E2E2E2E2
310
E2E2E2E2E2E2E2E2E2E2E2E2E2E2E2E2E2E2E2E2E2E2E2E2E2E2E2E2E2E2BEE2E2E2E2E2BEBEBEBEBEBEBEBEBEBEE2E2BEE2E2E2E2E2E2E2E2E2E2E2E2E2E2E2E2E2E2E2E2E2E2E2E2E2E2E2E2E2E2E2E2E2E2E2E2E2E2E2E2E2E2E2E2E2E2E2E2E2E2E2E2E2E2E2E22D2D2D2D2D2D2D2D2D2DDCDCDCDC2D2D2D2D2D2D2D2D
310
2DE2E2E2E2E2E2E2E2E2E2E2E2E2E2E2E2E2E2E2E2E2E2E2E2E2E2E2E2E2E2E2E2E2E22D2D2D2D2D2D2D2D2D2D2D2D2D2D2DE2E2E2E2E2E2E22D2D2D2D2D2D2D2D2DE2E2E2E2E2E2E2E2E2E2E2E2E2E2E2E2E2E2E2E2E2E2E2E2E2E2E2E2E2E2E2E2E2E2E2E2BEE2E2E2E2E2E2E2E2E2E2E2E2E2E2E2E2E2E2E2E2E2E2E2E2
310
E2E2E2E2E2E2E2E2E2E2E2E2E2E2E2E2E2E2E2E2E2E2E2E2E2E2E2E2E2E2E2E2BEE2E2E2E2E2BEBEBEBEBEBEBEBEBEBEE2E2BEE2E2E2E2E2E2E2E2E2E2E2E2E2E2E2E2E2E2E2E2E2E2E2E2E2E2E2E2E2E2E2E2E2E2E2E2E2E2E2E2E2E2E2E2E2E2E2E2E2E2E2E2E2E2E2E2E2E2E2E2E2E2E2E2E2E2E2DCDCE2E2E2E2E2E2E2
310
2D2DE2E2E2E2E2E2E2E2E2E2E2E2E2E2E2E2E2E2E2E2E2E2E2E2E2E2E2E2E2E2E2E2E2E2E22D2DE2E2E2E2E2E2E2E2E2E2E2E2E22D2D2D2D2D2D2DE2E2E2E2E2E2E2E2E2E2E2E2E2E2E2E2E2E2E2E2E2E2E2E2E2E2E2E2E2E2E2E2E2E2E2E2E2E2E2E2E2E2E2E2E2BEE2E2E2E2E2E2E2E2E2E2E2E2E2E2E2E2E2E2E2E2E2E2
310
E2E2E2E2E2E2E2E2E2E2E2E2E2E2E2E2E2E2E2E2E2E2E2E2E2E2E2E2E2E2E2E2E2E2BEE2E2E2E2E2BEBEBEBEBEBEBEBEBEBEE2E2BEE2E2E2E2E2E2E2E2E2E2E2E2E2E2E2E2E2E2E2E2E2E2E2E2E2E2E2E2E2E2E2E2E2E2E2E2E2E2E2E2E2E2E2E2E2E2E2E2E2E2E2E2E2E2E2E2E2E2E2E2E2E2E2E2E2DCDCE2E2E2E2E2E2E2
310
E2E22D2D2D2D2D2D2D2D2D2D2D2D2D2D2D2D2D2D2D2D2D2D2D2D2D2D2D2D2D2D2D2D2D2D2D2D2D2D2DE2E2E2E2E2E2E2E2E2E2E2E2E2E2E2E2E2E2E2E2E2E2E2E2E2E2E2E2E2E2E2E2E2E2E2E2E2E2E2E2E2E2E2E2E2E2E2E2E2E2E2E2E2E2E2E2E2E2E2E2E2E2E2E2E2BEE2E2E2E2E2E2E2E2E2E2E2E2E2E2E2E2E2E2E2E2
310
E2E2E2E2E2E2E2E2E2E2E2E2E2E2E2E2E2E2E2E2E2E2E2E2E2E2E2E2E2E2E2E2E2E2E2E2BEE2E2E2E2E2BEBEBEBEBEBEBEBEBEBEE2E2BEE2E2E2E2E2E2E2E2E2E2E2E2E2E2E2E2E2E2E2E2E2E2E2E2E2E2E2E2E2E2E2E2E2E2E2E2E2E2E2E2E2E2E2E2E2E2E2E2E2E2E2E2E2E2E2E2E2E2E2E2E2E2E2DCDCE2E2E2E2E2E2E2
310
E2E2E2E2E2E2E2E2E2E2E2E2E2E2E2E2E2E2E2E2E2E2E2E2E2E2E2E2E2E2E2E2E2E2E2E2E2E2E2E2E2E2E2E2E2E2E2E2E2E2E2E2E2E2E2E2E2E2E2E2E2E2E2E2E2E2E2E2E2E2E2E2E2E2E2E2E2E2E2E2E2E2E2E2E2E2E2E2E2E2E2E2E2E2E2E2E2E2E2E2E2E2E2E2E2E2E2E2BEE2E2E2E2E2E2E2E2E2E2E2E2E2E2E2E2E2E2
310
E2E2E2E2E2E2E2E2E2E2E2E2E2E2E2E2E2E2E2E2E2E2E2E2E2E2E2E2E2E2E2E2E2E2E2E2E2E2BEE2E2E2E2E2BEBEBEBEBEBEBEBEBEBEE2E2BEE2E2E2E2E2E2E2E2E2E2E2E2E2E2E2E2E2E2E2E2E2E2E2E2E2E2E2E2E2E2E2E2E2E2E2E2E2E2E2E2E2E2E2E2E2E2E2E2E2E2E2E2E2E2E2E2E2E2E2E2E2DCDCE2E2E2E2E2E2E2
310
E2E2E2E2E2E2E2E2E2E2E2E2E2E2E2E2E2E2E2E2E2E2E2E2E2E2E2E2E2E2E2E2E2E2E2E2E2E2E2E2E2E2E2E2E2E2E2E2E2E2E2E2E2E2E2E2E2E2E2E2E2E2E2E2E2E2E2E2E2E2E2E2E2E2E2E2E2E2E2E2E2E2E2E2E2E2E2E2E2E2E2E2E2E2E2E2E2E2E2E2E2E2E2E2E2E2E2E2E2E2BEE2E2E2E2E2E2E2E2E2E2E2E2E2E2E2E2
310
E2E2E2E2E2E2E2E2E2E2E2E2E2E2E2E2E2E2E2E2E2E2E2E2E2E2E2E2E2E2E2E2E2E2E2E2E2E2E2E2BEE2E2E2E2E2BEBEBEBEBEBEBEBEBEBEE2E2BEE2E2E2E2E2E2E2E2E2E2E2E2E2E2E2E2E2E2E2E2E2E2E2E2E2E2E2E2E2E2E2E2E2E2E2E2E2E2E2E2E2E2E2E2E2E2E2E2E2E2E2E2E2E2E2E2E2E2E2DCDCE2E2E2E2E2E2E2
310
E2E2E2E2E2E2E2E2E2E2E2E2E2E2E2E2E2E2E2E2E2E2E2E2E2E2E2E2E2E2E2E2E2E2E2E2E2E2E2E2E2E2E2E2E2E2E2E2E2E2E2E2E2E2E2E2E2E2E2E2E2E2E2E2E2E2E2E2E2E2E2E2E2E2E2E2E2E2E2E2E2E2E2E2E2E2E2E2E2E2E2E2E2E2E2E2E2E2E2E2E2E2E2E2E2E2E2E2E2E2E2E2BEE2E2E2E2E2E2E2E2E2E2E2E2E2E2
310
E2E2E2E2E2E2E2E2E2E2E2E2E2E2E2E2E2E2E2E2E2E2E2E2E2E2E2E2E2E2E2E2E2E2E2E2E2E2E2E2E2E2BEE2E2E2E2E2BEBEBEBEBEBEBEBEBEBEE2E2BEE2E2E2E2E2E2E2E2E2E2E2E2E2E2E2E2E2E2E2E2E2E2E2E2E2E2E2E2E2E2DCDCDCDCDCDCDCDCE2E2DCDCDCDCDCDCDCDCDCE2DCDCDCDCDCDCDCDCDCE2E2E2E2E2E2E2
310
E2E2E2E2E2E2E2E2E2E2E2E2E2E2E2E2E2E2E2E2E2E2E2E2E2E2E2E2E2E2E2E2E2E2E2E2E2E2E2E2E2E2E2E2E2E2E2E2E2E2E2E2E2E2E2E2E2E2E2E2E2E2E2E2E2E2E2E2E2E2E2E2E2E2E2E2E2E2E2E2E2E2E2E2E2E2E2E2E2E2E2E2E2E2E2E2E2E2E2E2E2E2E2E2E2E2E2E2E2E2E2E2E2E2BEE2E2E2E2E2E2E2E2E2E2E2E2
310
E2E2E2E2E2E2E2E2E2E2E2E2E2E2E2E2E2E2E2E2E2E2E2E2E2E2E2E2E2E2E2E2E2E2E2E2E2E2E2E2E2E2E2E2BEE2E2E2E2E2BEBEBEBEBEBEBEBEBEBEE2E2BEE2E2E2E2E2E2E2E2E2E2E2E2E2E2E2E2E2E2E2E2E2E2E2E2E2E2E2E2E2E2DCDCDCDCDCDCDCDCE2E2DCDCDCDCDCDCDCDCDCE2E2E2E2E2E2E2E2E2E2E2E2E2E2E2
310
E2E2E2E2E2E2E2E2E2E2E2E2E2E2E2E2E2E2E2E2E2E2E2E2E2E2E2E2E2E2E2E2E2E2E2E2E2E2E2E2E2E2E2E2E2E2E2E2E2E2E2E2E2E2E2E2E2E2E2E2E2E2E2E2E2E2E2E2E2E2E2E2E2E2E2E2E2E2E2E2E2E2E2E2E2E2E2E2E2E2E2E2E2E2E2E2E2E2E2E2E2E2E2E2E2E2E2E2E2E2E2E2E2E2E2E2BEE2E2E2E2E2E2E2E2E2E2
310
E2E2E2E2E2E2E2E2E2E2E2E2E2E2E2E2E2E2E2E2E2E2E2E2E2E2E2E2E2E2E2E2E2E2E2E2E2E2E2E2E2E2E2E2E2E2BEE2E2E2E2E2BEBEBEBEBEBEBEBEBEBEE2E2BEE2E2E2E2E2E2E2E2E2E2E2E2E2E2E2E2E2E2E2E2E2E2E2E2E2E2E2E2E2E2E2E2E2E2E2E2E2E2E2E2E2E2E2E2E2E2E2E2E2E2E2E2E2E2E2E2E2E2E2E2E2E2
310
E2E2E2E2E2E2E2E2E2E2E2E2E2E2E2E2E2E2E2E2E2E2E2E2E2E2E2E2E2E2E2E2E2E2E2E2E2E2E2E2E2E2E2E2E2E2E2E2E2E2E2E2E2E2E2E2E2E2E2E2E2E2E2E2E2E2E2E2E2E2E2E2E2E2E2E2E2E2E2E2E2E2E2E2E2E2E2E2E2E2E2E2E2E2E2E2E2E2E2E2E2E2E2E2E2E2E2E2E2E2E2E2E2E2E2E2E2E2BEE2E2E2E2E2E2E2E2
310
E2E2E2E2E2E2E2E2E2E2E2E2E2E2E2E2E2E2E2E2E2E2E2E2E2E2E2E2E2E2E2E2E2E2E2E2E2E2E2E2E2E2E2E2E2E2E2E2BEE2E2E2E2E2BEBEBEBEBEBEBEBEBEBEE2E2BEE2E2E2E2E2E2E2E2E2E2E2E2E2E2E2E2E2E2E2E2E2E2E2E2E2E2E2E2E2E2E2E2E2E2E2E2E2E2E2E2E2E2E2E2E2E2E2E2E2E2E2E2E2E2E2E2E2E2E2E2
310
E2E2E2E2E2E2E2E2E2E2E2E2E2E2E2E2E2E2E2E2E2E2E2E2E2E2E2E2E2E2E2E2E2E2E2E2E2E2E2E2E2E2E2E2E2E2E2E2E2E2E2E2E2E2E2E2E2E2E2E2E2E2E2E2E2E2E2E2E2E2E2E2E2E2E2E2E2E2E2E2E2E2E2E2E2E2E2E2E2E2E2E2E2E2E2E2E2E2E2E2E2E2E2E2E2E2E2E2E2E2E2E2E2E2E2E2E2E2E2E2BEE2E2E2E2E2E2
310
E2E2E2E2E2E2E2E2E2E2E2E2E2E2E2E2E2E2E2E2E2E2E2E2E2E2E2E2E2E2E2E2E2E2E2E2E2E2E2E2E2E2E2E2E2E2E2E2E2E2BEE2E2E2E2E2BEBEBEBEBEBEBEBEBEBEE2E2BEE2E2E2E2E2E2E2E2E2E2E2E2E2E2E2E2E2E2E2E2E2E2E2E2E2E2E2E2E2E2E2E2E2E2E2E2E2E2E2E2E2E2E2E2E2E2E2E2E2E2E2E2E2E2E2E2E2E2
310
E2E2E2E2E2E2E2E2E2E2E2E2E2E2E2E2E2E2E2E2E2E2E2E2E2E2E2E2E2E2E2E2E2E2E2E2E2E2E2E2E2E2E2E2E2E2E2E2E2E2E2E2E2E2E2E2E2E2E2E2E2E2E2E2E2E2E2E2E2E2E2E2E2E2E2E2E2E2E2E2E2E2E2E2E2E2E2E2E2E2E2E2E2E2E2E2E2E2E2E2E2E2E2E2E2E2E2E2E2E2E2E2E2E2E2E2E2E2E2E2E2E2BEE2E2E2E2
310
E2E2E2E2E2E2E2E2E2E2E2E2E2E2E2E2E2E2E2E2E2E2E2E2E2E2E2E2E2E2E2E2E2E2E2E2E2E2E2E2E2E2E2E2E2E2E2E2E2E2E2E2BEE2E2E2E2E2BEBEBEBEBEBEBEBEBEBEE2E2BEE2E2E2E2E2E2E2E2E2E2E2E2E2E2E2E2E2E2E2E2E2E2E2E2E2E2E2E2E2E2E2E2E2E2E2E2E2E2E2E2E2E2E2E2E2E2E2E2E2E2E2E2E2E2E2E2
310
E2E2E2E2E2E2E2E2E2E2E2E2E2E2E2E2E2E2E2E2E2E2E2E2E2E2E2E2E2E2E2E2E2E2E2E2E2E2E2E2E2E2E2E2E2E2E2E2E2E2E2E2E2E2E2E2E2E2E2E2E2E2E2E2E2E2E2E2E2E2E2E2E2E2E2E2E2E2E2E2E2E2E2E2E2E2E2E2E2E2E2E2E2E2E2E2E2E2E2E2E2E2E2E2E2E2E2E2E2E2E2E2E2E2E2E2E2E2E2E2E2E2E2E2BEE2E2
310
E2E2E2E2E2E2E2E2E2E2E2E2E2E2E2E2E2E2E2E2E2E2E2E2E2E2E2E2E2E2E2E2E2E2E2E2E2E2E2E2E2E2E2E2E2E2E2E2E2E2E2E2E2E2BEE2E2E2E2E2BEBEBEBEBEBEBEBEBEBEE2E2BEE2E2E2E2E2E2E2E2E2E2E2E2E2E2E2E2E2E2E2E2E2E2E2E2E2E2E2E2E2E2E2E2E2E2E2E2E2E2E2E2E2E2E2E2E2E2E2E2E2E2E2E2E2E2
310
E2E2E2E2E2E2E2E2E2E2E2E2E2E2E2E2E2E2E2E2E2E2E2E2E2E2E2E2E2E2E2E2E2E2E2E2E2E2E2E2E2E2E2E2E2E2E2E2E2E2E2E2E2E2E2E2E2E2E2E2E2E2E2E2E2E2E2E2E2E2E2E2E2E2E2E2E2E2E2E2E2E2E2E2E2E2E2E2E2E2E2E2E2E2E2E2E2E2E2E2E2E2E2E2E2E2E2E2E2E2E2E2E2E2E2E2E2E2E2E2E2E2E2E2E2E2BE
310
E2E2E2E2E2E2E2E2E2E2E2E2E2E2E2E2E2E2E2E2E2E2E2E2E2E2E2E2E2E2E2E2E2E2E2E2E2E2E2E2E2E2E2E2E2E2E2E2E2E2E2E2E2E2E2E2BEE2E2E2E2E2BEBEBEBEBEBEBEBEBEBEE2E2BEE2E2E2E2E2E2E2E2E2E2E2E2E2E2E2E2E2E2E2E2E2E2E2E2E2E2E2E2E2E2E2E2E2E2E2E2E2E2E2E2E2E2E2E2E2E2E2E2E2E2E2E2
310
E2E2E2E2E2E2E2E2E2E2E2E2E2E2E2E2E2E2E2E2E2E2E2E2E2E2E2E2E2E2E2E2E2E2E2E2E2E2E2E2E2E2E2E2E2E2E2E2E2E2E2E2E2E2E2E2E2E2E2E2E2E2E2E2E2E2E2E2E2E2E2E2E2E2E2E2E2E2E2E2E2E2E2E2E2E2E2E2E2E2E2E2E2E2E2E2E2E2E2E2E2E2E2E2E2E2E2E2E2E2E2E2E2E2E2E2E2E2E2E2E2E2E2E2E2E2E2
310
E2BEE2E2E2E2E2E2E2E2E2E2E2E2E2E2E2E2E2E2E2E2E2E2E2E2E2E2E2E2E2E2E2E2E2E2E2E2E2E2E2E2E2E2E2E2E2E2E2E2E2E2E2E2E2E2E2E2BEE2E2E2E2E2BEBEBEBEBEBEBEBEBEBEE2E2BEE2E2E2E2E2E2E2E2E2E2E2E2E2E2E2E2E2E2E2E2E2E2E2E2E2E2E2E2E2E2E2E2E2E2E2E2E2E2E2E2E2E2E2E2E2E2E2E2E2E2
310
E2E2E2E2E2E2E2E2E2E2E2E2E2E2E2E2E2E2E2E2E2E2E2E2E2E2E2E2E2E2E2E2E2E2E2E2E2E2E2E2E2E2E2E2E2E2E2E2E2E2E2E2E2E2E2E2E2E2E2E2E2E2E2E2E2E2E2E2E2E2E2E2E2E2E2E2E2E2E2E2E2E2E2E2E2E2E2E2E2E2E2E2E2E2E2E2E2E2E2E2E2E2E2E2E2E2E2E2E2E2E2E2E2E2E2E2E2E2E2E2E2E2E2E2E2E2E2
310
E2E2E2BEE2E2E2E2E2E2E2E2E2E2E2E2E2E2E2E2E2E2E2E2E2E2E2E2E2E2E2E2E2E2E2E2E2E2E2E2E2E2E2E2E2E2E2E2E2E2E2E2E2E2E2E2E2E2E2E2BEE2E2E2E2E2BEBEBEBEBEBEBEBEBEBEE2E2BEE2E2E2E2E2E2E2E2E2E2E2E2E2E2E2E2E2E2E2E2E2E2E2E2E2E2E2E2E2E2E2E2E2E2E2E2E2E2E2E2E2E2E2E2E2E2E2E2
310
E2E2E2E2E2E2E2E2E2E2E2E2E2E2E2E2E2E2E2E2E2E2E2E2E2E2E2E2E2E2E2E2E2E2E2E2E2E2E2E2E2E2E2E2E2E2E2E2E2E2E2E2E2E2E2E2E2E2E2E2E2E2E2E2E2E2E2E2E2E2E2E2E2E2E2E2E2E2E2E2E2E2E2E2E2E2E2E2E2E2E2E2E2E2E2E2E2E2E2E2E2E2E2E2E2E2E2E2E2E2E2E2E2E2E2E2E2E2E2E2E2E2E2E2E2E2E2
310
E2E2E2E2E2BEE2E2E2E2E2E2E2E2E2E2E2E2E2E2E2E2E2E2E2E2E2E2E2E2E2E2E2E2E2E2E2E2E2E2E2E2E2E2E2E2E2E2E2E2E2E2E2E2E2E2E2E2E2E2E2E2BEE2E2E2E2E2BEBEBEBEBEBEBEBEBEBEE2E2BEE2E2E2E2E2E2E2E2E2E2E2E2E2E2E2E2E2E2E2E2E2E2E2E2E2E2E2E2E2E2E2E2E2E2E2E2E2E2E2E2E2E2E2E2E2E2
310
E2E2E2E2E2E2E2E2E2E2E2E2E2E2E2E2E2E2E2E2E2E2E2E2E2E2E2E2E2E2E2E2E2E2E2E2E2E2E2E2E2E2E2E2E2E2E2E2E2E2E2E2E2E2E2E2E2E2E2E2E2E2E2E2E2E2E2E2E2E2E2E2E2E2E2E2E2E2E2E2E2E2E2E2E2E2E2E2E2E2E2E2E2E2E2E2E2E2E2E2E2E2E2E2E2E2E2E2E2E2E2E2E2E2E2E2E2E2E2E2E2E2E2E2E2E2E2
310
E2E2E2E2E2E2E2BEE2E2E2E2E2E2E2E2E2E2E2E2E2E2E2E2E2E2E2E2E2E2E2E2E2E2E2E2E2E2E2E2E2E2E2E2E2E2E2E2E2E2E2E2E2E2E2E2E2E2E2E2E2E2E2E2BEE2E2E2E2E2BEBEBEBEBEBEBEBEBEBEE2E2BEE2E2E2E2E2E2E2E2E2E2E2E2E2E2E2E2E2E2E2E2E2E2E2E2E2E2E2E2E2E2E2E2E2E2E2E2E2E2E2E2E2E2E2E2
310
E2E2E2E2E2E2E2E2E2E2E2E2E2E2E2E2E2E2E2E2E2E2E2E2E2E2E2E2E2E2E2E2E2E2E2E2E2E2E2E2E2E2E2E2E2E2E2E2E2E2E2E2E2E2E2E2E2E2E2E2E2E2E2E2E2E2E2E2E2E2E2E2E2E2E2E2E2E2E2E2E2E2E2E2E2E2E2E2E2E2E2E2E2E2E2E2E2E2E2E2E2E2E2E2E2E2E2E2E2E2E2E2E2E2E2E2E2E2E2E2E2E2E2E2E2E2E2
310
E2E2E2E2E2E2E2E2E2BEE2E2E2E2E2E2E2E2E2E2E2E2E2E2E2E2E2E2E2E2E2E2E2E2E2E2E2E2E2E2E2E2E2E2E2E2E2E2E2E2E2E2E2E2E2E2E2E2E2E2E2E2E2E2E2E2BEE2E2E2E2E2BEBEBEBEBEBEBEBEBEBEE2E2BEE2E2E2E2E2E2E2E2E2E2E2E2E2E2E2E2E2E2E2E2E2E2E2E2E2E2E2E2E2E2E2E2E2E2E2E2E2E2E2E2E2E2
310
E2E2E2E2E2E2E2E2E2E2E2E2E2E2E2E2E2E2E2E2E2E2E2E2E2E2E2E2E2E2E2E2E2E2E2E2E2E2E2E2E2E2E2E2E2E2E2E2E2E2E2E2E2E2E2E2E2E2E2E2E2E2E2E2E2E2E2E2E2E2E2E2E2E2E2E2E2E2E2E2E2E2E2E2E2E2E2E2E2E2E2E2E2E2E2E2E2E2E2E2E2E2E2E2E2E2E2E2E2E2E2E2E2E2E2E2E2E2E2E2E2E2E2E2E2E2E2
310
E2E2E2E2E2E2E2E2E2E2E2BEE2E2E2E2E2E2E2E2E2E2E2E2E2E2E2E2E2E2E2E2E2E2E2E2E2E2E2E2E2E2E2E2E2E2E2E2E2E2E2E2E2E2E2E2E2E2E2E2E2E2E2E2E2E2E2E2BEE2E2E2E2E2BEBEBEBEBEBEBEBEBEBEE2E2BEE2E2E2E2E2E2E2E2E2E2E2E2E2E2E2E2E2E2E2E2E2E2E2E2E2E2E2E2E2E2E2E2E2E2E2E2E2E2E2E2
310
E2E2E2E2E2E2E2E2E2E2E2E2E2E2E2E2E2E2E2E2E2E2E2E2E2E2E2E2E2E2E2E2E2E2E2E2E2E2E2E2E2E2E2E2E2E2E2E2E2E2E2E2E2E2E2E2E2E2E2E2E2E2E2E2E2E2E2E2E2E2E2E2E2E2E2E2E2E2E2E2E2E2E2E2E2E2E2E2E2E2E2E2E2E2E2E2E2E2E2E2E2E2E2E2E2E2E2E2E2E2E2E2E2E2E2E2E2E2E2E2E2E2E2E2E2E2E2
310
E2E2E2E2E2E2E2E2E2E2E2E2E2BEE2E2E2E2E2E2E2E2E2E2E2E2E2E2E2E2E2E2E2E2E2E2E2E2E2E2E2E2E2E2E2E2E2E2E2E2E2E2E2E2E2E2E2E2E2E2E2E2E2E2E2E2E2E2E2E2BEE2E2E2E2E2BEBEBEBEBEBEBEBEBEBEE2E2BEE2E2E2E2E2E2E2E2E2E2E2E2E2E2E2E2E2E2E2E2E2E2E2E2E2E2E2E2E2E2E2E2E2E2E2E2E2E2
310
E2E2E2E2E2E2E2E2E2E2E2E2E2E2E2E2E2E2E2E2E2E2E2E2E2E2E2E2E2E2E2E2E2E2E2E2E2E2E2E2E2E2E2E2E2E2E2E2E2E2E2E2E2E2E2E2E2E2E2E2E2E2E2E2E2E2E2E2E2E2E2E2E2E2E2E2E2E2E2E2E2E2E2E2E2E2E2E2E2E2E2E2E2E2E2E2E2E2E2E2E2E2E2E2E2E2E2E2E2E2E2E2E2E2E2E2E2E2E2E2E2E2E2E2E2E2E2
310
E2E2E2E2E2E2E2E2E2E2E2E2E2E2E2BEE2E2E2E2E2E2E2E2E2E2E2E2E2E2E2E2E2E2E2E2E2E2E2E2E2E2E2E2E2E2E2E2E2E2E2E2E2E2E2E2E2E2E2E2E2E2E2E2E2E2E2E2E2E2E2E2BEE2E2E2E2E2BEBEBEBEBEBEBEBEBEBEE2E2BEE2E2E2E2E2E2E2E2E2E2E2E2E2E2E2E2E2E2E2E2E2E2E2E2E2E2E2E2E2E2E2E2E2E2E2E2
310
E2E2E2E2E2E2E2E2E2E2E2E2E2E2E2E2E2E2E2E2E2E2E2E2E2E2E2E2E2E2E2E2E2E2E2E2E2E2E2E2E2E2E2E2E2E2E2E2E2E2E2E2E2E2E2E2E2E2E2E2E2E2E2E2E2E2E2E2E2E2E2E2E2E2E2E2E2E2E2E2E2E2E2E2E2E2E2E2E2E2E2E2E2E2E2E2E2E2E2E2E2E2E2E2E2E2E2E2E2E2E2E2E2E2E2E2E2E2E2E2E2E2E2E2E2E2E2
310
E2E2E2E2E2E2E2E2E2E2E2E2E2E2E2E2E2BEE2E2E2E2E2E2E2E2E2E2E2E2E2E2E2E2E2E2E2E2E2E2E2E2E2E2E2E2E2E2E2E2E2E2E2E2E2E2E2E2E2E2E2E2E2E2E2E2E2E2E2E2E2E2E2E2BEE2E2E2E2E2BEBEBEBEBEBEBEBEBEBEE2E2BEE2E2E2E2E2E2E2E2E2E2E2E2E2E2E2E2E2E2E2E2E2E2E2E2E2E2E2E2E2E2E2E2E2E2
310
E2E2E2E2E2E2E2E2E2E2E2E2E2E2E2E2E2E2E2E2E2E2E2E2E2E2E2E2E2E2E2E2E2E2E2E2E2E2E2E2E2E2E2E2E2E2E2E2E2E2E2E2E2E2E2E2E2E2E2E2E2E2E2E2E2E2E2E2E2E2E2E2E2E2E2E2E2E2E2E2E2E2E2E2E2E2E2E2E2E2E2E2E2E2E2E2E2E2E2E2E2E2E2E2E2E2E2E2E2E2E2E2E2E2E2E2E2E2E2E2E2E2E2E2E2E2E2
310
E2E2E2E2E2E2E2E2E2E2E2E2E2E2E2E2E2E2E2BEE2E2E2E2E2E2E2E2E2E2E2E2E2E2E2E2E2E2E2E2E2E2E2E2E2E2E2E2E2E2E2E2E2E2E2E2E2E2E2E2E2E2E2E2E2E2E2E2E2E2E2E2E2E2E2E2BEE2E2E2E2E2BEBEBEBEBEBEBEBEBEBEE2E2BEE2E2E2E2E2E2E2E2E2E2E2E2E2E2E2E2E2E2E2E2E2E2E2E2E2E2E2E2E2E2E2E2
310
E2E2E2E2E2E2E2E2E2E2E2E2E2E2E2E2E2E2E2E2E2E2E2E2E2E2E2E2E2E2E2E2E2E2E2E2E2E2E2E2E2E2E2E2E2E2E2E2E2E2E2E2E2E2E2E2E2E2E2E2E2E2E2E2E2E2E2E2E2E2E2E2E2E2E2E2E2E2E2E2E2E2E2E2E2E2E2E2E2E2E2E2E2E2E2E2E2E2E2E2E2E2E2E2E2E2E2E2E2E2E2E2E2E2E2E2E2E2E2E2E2E2E2E2E2E2E2
310
E2E2E2E2E2E2E2E2E2E2E2E2E2E2E2E2E2E2E2E2E2BEE2E2E2E2E2E2E2E2E2E2E2E2E2E2E2E2E2E2E2E2E2E2E2E2E2E2E2E2E2E2E2E2E2E2E2E2E2E2E2E2E2E2E2E2E2E2E2E2E2E2E2E2E2E2E2E2BEE2E2E2E2E2BEBEBEBEBEBEBEBEBEBEE2E2BEE2E2E2E2E2E2E2E2E2E2E2E2E2E2E2E2E2E2E2E2E2E2E2E2E2E2E2E2E2E2
310
E2E2E2E2E2E2E2E2E2E2E2E2E2E2E2E2E2E2E2E2E2E2E2E2E2E2E2E2E2E2E2E2E2E2E2E2E2E2E2E2E2E2E2E2E2E2E2E2E2E2E2E2E2E2E2E2E2E2E2E2E2E2E2E2E2E2E2E2E2E2E2E2E2E2E2E2E2E2E2E2E2E2E2E2E2E2E2E2E2E2E2E2E2E2E2E2E2E2E2E2E2E2E2E2E2E2E2E2E2E2E2E2E2E2E2E2E2E2E2E2E2E2E2E2E2E2E2
310
E2E2E2E2E2E2E2E2E2E2E2E2E2E2E2E2E2E2E2E2E2E2E2BEE2E2E2E2E2E2E2E2E2E2E2E2E2E2E2E2E2E2E2E2E2E2E2E2E2E2E2E2E2E2E2E2E2E2E2E2E2E2E2E2E2E2E2E2E2E2E2E2E2E2E2E2E2E2E2E2BEE2E2E2E2E2BEBEBEBEBEBEBEBEBEBEE2E2BEE2E2E2E2E2E2E2E2E2E2E2E2E2E2E2E2E2E2E2E2E2E2E2E2E2E2E2E2
310
E2E2E2E2E2E2E2E2E2E2E2E2E2E2E2E2E2E2E2E2E2E2E2E2E2E2E2E2E2E2E2E2E2E2E2E2E2E2E2E2E2E2E2E2E2E2E2E2E2E2E2E2E2E2E2E2E2E2E2E2E2E2E2E2E2E2E2E2E2E2E2E2E2E2E2E2E2E2E2E2E2E2E2E2E2E2E2E2E2E2E2E2E2E2E2E2E2E2E2E2E2E2E2E2E2E2E2E2E2E2E2E2E2E2E2E2E2E2E2E2E2E2E2E2E2E2E2
310
E2E2E2E2E2E2E2E2E2E2E2E2E2E2E2E2E2E2E2E2E2E2E2E2E2BEE2E2E2E2E2E2E2E2E2E2E2E2E2E2E2E2E2E2E2E2E2E2E2E2E2E2E2E2E2E2E2E2E2E2E2E2E2E2E2E2E2E2E2E2E2E2E2E2E2E2E2E2E2E2E2E2BEE2E2E2E2E2BEBEBEBEBEBEBEBEBEBEE2E2BEE2E2E2E2E2E2E2E2E2E2E2E2E2E2E2E2E2E2E2E2E2E2E2E2E2E2
310
E2E2E2E2E2E2E2E2E2E2E2E2E2E2E2E2E2E2E2E2E2E2E2E2E2E2E2E2E2E2E2E2E2E2E2E2E2E2E2E2E2E2E2E2E2E2E2E2E2E2E2E2E2E2E2E2E2E2E2E2E2E2E2E2E2E2E2E2E2E2E2E2E2E2E2E2E2E2E2E2E2E2E2E2E2E2E2E2E2E2E2E2E2E2E2E2E2E2E2E2E2E2E2E2E2E2E2E2E2E2E2E2E2E2E2E2E2E2E2E2E2E2E2E2E2E2E2
310
E2E2E2E2E2E2E2E2E2E2E2E2E2E2E2E2E2E2E2E2E2E2E2E2E2E2E2BEE2E2E2E2E2E2E2E2E2E2E2E2E2E2E2E2E2E2E2E2E2E2E2E2E2E2E2E2E2E2E2E2E2E2E2E2E2E2E2E2E2E2E2E2E2E2E2E2E2E2E2E2E2E2E2E2BEE2E2E2E2E2BEBEBEBEBEBEBEBEBEBEE2E2BEE2E2E2E2E2E2E2E2E2E2E2E2E2E2E2E2E2E2E2E2E2E2E2E2
310
E2E2E2E2E2E2E2E2E2E2E2E2E2E2E2E2E2E2E2E2E2E2E2E2E2E2E2E2E2E2E2E2E2E2E2E2E2E2E2E2E2E2E2E2E2E2E2E2E2E2E2E2E2E2E2E2E2E2E2E2E2E2E2E2E2E2E2E2E2E2E2E2E2E2E2E2E2E2E2E2E2E2E2E2E2E2E2E2E2E2E2E2E2E2E2E2E2E2E2E2E2E2E2E2E2E2E2E2E2E2E2E2E2E2E2E2E2E2E2E2E2E2E2E2E2E2E2
310
E2E2E2E2E2E2E2E2E2E2E2E2E2E2E2E2E2E2E2E2E2E2E2E2E2E2E2E2E2BEE2E2E2E2E2E2E2E2E2E2E2E2E2E2E2E2E2E2E2E2E2E2E2E2E2E2E2E2E2E2E2E2E2E2E2E2E2E2E2E2E2E2E2E2E2E2E2E2E2E2E2E2E2E2E2E2BEE2E2E2E2E2BEBEBEBEBEBEBEBEBEBEE2E2BEE2E2E2E2E2E2E2E2E2E2E2E2E2E2E2E2E2E2E2E2E2E2
310
E2E2E2E2E2E2E2E2E2E2E2E2E2E2E2E2E2E2E2E2E2E2E2E2E2E2E2E2E2E2E2E2E2E2E2E2E2E2E2E2E2E2E2E2E2E2E2E2E2E2E2E2E2E2E2E2E2E2E2E2E2E2E2E2E2E2E2E2E2E2E2E2E2E2E2E2E2E2E2E2E2E2E2E2E2E2E2E2E2E2E2E2E2E2E2E2E2E2E2E2E2E2E2E2E2E2E2E2E2E2E2E2E2E2E2E2E2E2E2E2E2E2E2E2E2E2E2
310
E2E2E2E2E2E2E2E2E2E2E2E2E2E2E2E2E2E2E2E2E2E2E2E2E2E2E2E2E2E2E2BEE2E2E2E2E2E2E2E2E2E2E2E2E2E2E2E2E2E2E2E2E2E2E2E2E2E2E2E2E2E2E2E2E2E2E2E2E2E2E2E2E2E2E2E2E2E2E2E2E2E2E2E2E2E2E2E2BEE2E2E2E2E2BEBEBEBEBEBEBEBEBEBEE2E2BEE2E2E2E2E2E2E2E2E2E2E2E2E2E2E2E2E2E2E2E2
310
E2E2E2E2E2E2E2E2E2E2E2E2E2E2E2E2E2E2E2E2E2E2E2E2E2E2E2E2E2E2E2E2E2E2E2E2E2E2E2E2E2E2E2E2E2E2E2E2E2E2E2E2E2E2E2E2E2E2E2E2E2E2E2E2E2E2E2E2E2E2E2E2E2E2E2E2E2E2E2E2E2E2E2E2E2E2E2E2E2E2E2E2E2E2E2E2E2E2E2E2E2E2E2E2E2E2E2E2E2E2E2E2E2E2E2E2E2E2E2E2E2E2E2E2E2E2E2
310
E2E2E2E2E2E2E2E2E2E2E2E2E2E2E2E2E2E2E2E2E2E2E2E2E2E2E2E2E2E2E2E2E2BEE2E2E2E2E2E2E2E2E2E2E2E2E2E2E2E2E2E2E2E2E2E2E2E2E2E2E2E2E2E2E2E2E2E2E2E2E2E2E2E2E2E2E2E2E2E2E2E2E2E2E2E2E2E2E2E2BEE2E2E2E2E2BEBEBEBEBEBEBEBEBEBEE2E2BEE2E2E2E2E2E2E2E2E2E2E2E2E2E2E2E2E2E2
310
E2E2E2E2E2E2E2E2E2E2E2E2E2E2E2E2E2E2E2E2E2E2E2E2E2E2E2E2E2E2E2E2E2E2E2E2E2E2E2E2E2E2E2E2E2E2E2E2E2E2E2E2E2E2E2E2E2E2E2E2E2E2E2E2E2E2E2E2E2E2E2E2E2E2E2E2E2E2E2E2E2E2E2E2E2E2E2E2E2E2E2E2E2E2E2E2E2E2E2E2E2E2E2E2E2E2E2E2E2E2E2E2E2E2E2E2E2E2E2E2E2E2E2E2E2E2E2
310
E2E2E2E2E2E2E2E2E2E2E2E2E2E2E2E2E2E2E2E2E2E2E2E2E2E2E2E2E2E2E2E2E2E2E2BEE2E2E2E2E2E2E2E2E2E2E2E2E2E2E2E2E2E2E2E2E2E2E2E2E2E2E2E2E2E2E2E2E2E2E2E2E2E2E2E2E2E2E2E2E2E2E2E2E2E2E2E2E2E2E2E2BEE2E2E2E2E2BEBEBEBEBEBEBEBEBEBEE2E2BEE2E2E2E2E2E2E2E2E2E2E2E2E2E2E2E2
310
E2E2E2E2E2E2E2E2E2E2E2E2E2E2E2E2E2E2E2E2E2E2E2E2E2E2E2E2E2E2E2E2E2E2E2E2E2E2E2E2E2E2E2E2E2E2E2E2E2E2E2E2E2E2E2E2E2E2E2E2E2E2E2E2E2E2E2E2E2E2E2E2E2E2E2E2E2E2E2E2E2E2E2E2E2E2E2E2E2E2E2E2E2E2E2E2E2E2E2E2E2E2E2E2E2E2E2E2E2E2E2E2E2E2E2E2E2E2E2E2E2E2E2E2E2E2E2
310
E2E2E2E2E2E2E2E2E2E2E2E2E2E2E2E2E2E2E2E2E2E2E2E2E2E2E2E2E2E2E2E2E2E2E2E2E2BEE2E2E2E2E2E2E2E2E2E2E2E2E2E2E2E2E2E2E2E2E2E2E2E2E2E2E2E2E2E2E2E2E2E2E2E2E2E2E2E2E2E2E2E2E2E2E2E2E2E2E2E2E2E2E2E2BEE2E2E2E2E2BEBEBEBEE2E2BEBEBEBEE2E2BEE2E2E2E2E2E2E2E2E2E2E2E2E2E2
310
E2E2E2E2E2E2E2E2E2E2E2E2E2E2E2E2E2E2E2E2E2E2E2E2E2E2E2E2E2E2E2E2E2E2E2E2E2E2E2E2E2E2E2E2E2E2E2E2E2E2E2E2E2E2E2E2E2E2E2E2E2E2E2E2E2E2E2E2E2E2E2E2E2E2E2E2E2E2E2E2E2E2E2E2E2E2E2E2E2E2E2E2E2E2E2E2E2E2E2E2E2E2E2E2E2E2E2E2E2E2E2E2E2E2E2E2E2E2E2E2E2E2E2E2E2E2E2
310
E2E2E2E2E2E2E2E2E2E2E2E2E2E2E2E2E2E2E2E2E2E2E2E2E2E2E2E2E2E2E2E2E2E2E2E2E2E2E2BEE2E2E2E2E2E2E2E2E2E2E2E2E2E2E2E2E2E2E2E2E2E2E2E2E2E2E2E2E2E2E2E2E2E2E2E2E2E2E2E2E2E2E2E2E2E2E2E2E2E2E2E2E2E2E2E2BEE2E2E2E2E2BEBEBEBEE2E2BEBEE2E2E2E2BEE2E2E2E2E2E2E2E2E2E2E2E2
310
E2E2E2E2E2E2E2E2E2E2E2E2E2E2E2E2E2E2E2E2E2E2E2E2E2E2E2E2E2E2E2E2E2E2E2E2E2E2E2E2E2E2E2E2E2E2E2E2E2E2E2E2E2E2E2E2E2E2E2E2E2E2E2E2E2E2E2E2E2E2E2E2E2E2E2E2E2E2E2E2E2E2E2E2E2E2E2E2E2E2E2E2E2E2E2E2E2E2E2E2E2E2E2E2E2E2E2E2E2E2E2E2E2E2E2E2E2E2E2E2E2E2E2E2E2E2E2
310
E2E2E2E2E2E2E2E2E2E2E2E2E2E2E2E2E2E2E2E2E2E2E2E2E2E2E2E2E2E2E2E2E2E2E2E2E2E2E2E2E2BEE2E2E2E2E2E2E2E2E2E2E2E2E2E2E2E2E2E2E2E2E2E2E2E2E2E2E2E2E2E2E2E2E2E2E2E2E2E2E2E2E2E2E2E2E2E2E2E2E2E2E2E2E2E2E2E2BEE2E2E2E2E2E2E2BEBEE2E2E2E2E2E2E2E2BEE2E2E2E2E2E2E2E2E2E2
310
E2E2E2E2E2E2E2E2E2E2E2E2E2E2E2E2E2E2E2E2E2E2E2E2E2E2E2E2E2E2E2E2E2E2E2E2E2E2E2E2E2E2E2E2E2E2E2E2E2E2E2E2E2E2E2E2E2E2E2E2E2E2E2E2E2E2E2E2E2E2E2E2E2E2E2E2E2E2E2E2E2E2E2E2E2E2E2E2E2E2E2E2E2E2E2E2E2E2E2E2E2E2E2E2E2E2E2E2E2E2E2E2E2E2E2E2E2E2E2E2E2E2E2E2E2E2E2
310
E2E2E2E2E2E2E2E2E2E2E2E2E2E2E2E2E2E2E2E2E2E2E2E2E2E2E2E2E2E2E2E2E2E2E2E2E2E2E2E2E2E2E2BEE2E2E2E2E2E2E2E2E2E2E2E2E2E2E2E2E2E2E2E2E2E2E2E2E2E2E2E2E2E2E2E2E2E2E2E2E2E2E2E2E2E2E2E2E2E2E2E2E2E2E2E2E2E2E2E2BEE2E2E2E2E2E2E2E2E2E2E2E2E2E2E2E2E2BEE2E2E2E2E2E2E2E2
310
E2E2E2E2E2E2E2E2E2E2E2E2E2E2E2E2E2E2E2E2E2E2E2E2E2E2E2E2E2E2E2E2E2E2E2E2E2E2E2E2E2E2E2E2E2E2E2E2E2E2E2E2E2E2E2E2E2E2E2E2E2E2E2E2E2E2E2E2E2E2E2E2E2E2E2E2E2E2E2E2E2E2E2E2E2E2E2E2E2E2E2E2E2E2E2E2E2E2E2E2E2E2E2E2E2E2E2E2E2E2E2E2E2E2E2E2E2E2E2E2E2E2E2E2E2E2E2
310
E2E2E2E2E2E2E2E2E2E2E2E2E2E2E2E2E2E2E2E2E2E2E2E2E2E2E2E2E2E2E2E2E2E2E2E2E2E2E2E2E2E2E2E2E2BEE2E2E2E2E2E2E2E2E2E2E2E2E2E2E2E2E2E2E2E2E2E2E2E2E2E2E2E2E2E2E2E2E2E2E2E2E2E2E2E2E2E2E2E2E2E2E2E2E2E2E2E2E2E2E2E2BEE2E2E2E2E2E2E2E2E2E2E2E2E2E2E2E2E2BEE2E2E2E2E2E2
310
E2E2E2E2E2E2E2E2E2E2E2E2E2E2E2E2E2E2E2E2E2E2E2E2E2E2E2E2E2E2E2E2E2E2E2E2E2E2E2E2E2E2E2E2E2E2E2E2E2E2E2E2E2E2E2E2E2E2E2E2E2E2E2E2E2E2E2E2E2E2E2E2E2E2E2E2E2E2E2E2E2E2E2E2E2E2E2E2E2E2E2E2E2E2E2E2E2E2E2E2E2E2E2E2E2E2E2E2E2E2E2E2E2E2E2E2E2E2E2E2E2E2E2E2E2E2E2
310
E2E2E2E2E2E2E2E2E2E2E2E2E2E2E2E2E2E2E2E2E2E2E2E2E2E2E2E2E2E2E2E2E2E2E2E2E2E2E2E2E2E2E2E2E2E2E2BEE2E2E2E2E2E2E2E2E2E2E2E2E2E2E2E2E2E2E2E2E2E2E2E2E2E2E2E2E2E2E2E2E2E2E2E2E2E2E2E2E2E2E2E2E2E2E2E2E2E2E2E2E2E2E2E2BEE2E2E2E2E2E2E2E2E2E2E2E2E2E2E2E2E2BEE2E2E2E2
310
E2E2E2E2E2E2E2E2E2E2E2E2E2E2E2E2E2E2E2E2E2E2E2E2E2E2E2E2E2E2E2E2E2E2E2E2E2E2E2E2E2E2E2E2E2E2E2E2E2E2E2E2E2E2E2E2E2E2E2E2E2E2E2E2E2E2E2E2E2E2E2E2E2E2E2E2E2E2E2E2E2E2E2E2E2E2E2E2E2E2E2E2E2E2E2E2E2E2E2E2E2E2E2E2E2E2E2E2E2E2E2E2E2E2E2E2E2E2E2E2E2E2E2E2E2E2E2
310
E2E2E2E2E2E2E2E2E2E2E2E2E2E2E2E2E2E2E2E2E2E2E2E2E2E2E2E2E2E2E2E2E2E2E2E2E2E2E2E2E2E2E2E2E2E2E2E2E2BEE2E2E2E2E2E2E2E2E2E2E2E2E2E2E2E2E2E2E2E2E2E2E2E2E2E2E2E2E2E2E2E2E2E2E2E2E2E2E2E2E2E2E2E2E2E2E2E2E2E2E2E2E2E2E2E2BEBEBEBEBEBEBEBEBEBEBEBEBEBEBEBEBEBEBEBEBE
310
BEBEBEBEBEBEBEBEBEBEBEBEBEBEBEBEBEBEBEBEBEBEBEBEBEBEBEBEBEBEBEBEBEBEBEBEBEBEBEBEBEBEBEBEBEBEBEBEBEBEBEBEBEBEBEBEBEBEBEBEBEBEBEBEBEBEBEBEBEBEBEBEBEBEBEBEBEBEBEBEBEBEBEBEBEBEBEBEBEBEBEBEBEBEBEBEBEBEBEBEBEBEBEBEBEBEBEBEBEBEBEBEBEBEBEBEBEBEBEBEBEBEBEBEBEBEBE
310
BEBEBEBEBEBEBEBEBEBEBEBEBEBEBEBEBEBEBEBEBEBEBEBEBEBEBEBEBEBEBEBEBEBEBEBEBEBEBEBEBEBEBEBEBEBEBEBEBEBEBEBEE2E2E2E2E2E2E2E2E2E2E2E2E2E2E2E2E2E2E2E2E2E2E2E2E2E2E2E2
  0
XRECORD
  5
C1B9
102
{ACAD_REACTORS
330
C1B8
102
}
330
C1B8
100
AcDbXrecord
280
     1
102
MATERIAL
148
0.0
149
0.0
149
0.0
 93
        0
 94
       63
282
     0
 72
     1
 77
     1
171
     1
175
     1
179
     1
273
     0
  0
XRECORD
  5
C1B7
102
{ACAD_REACTORS
330
C1B6
102
}
330
C1B6
100
AcDbXrecord
280
     1
102
MATERIAL
148
0.0
149
0.0
149
0.0
 93
        0
 94
       63
282
     0
 72
     1
 77
     1
171
     1
175
     1
179
     1
273
     0
  0
XRECORD
  5
C1BA
102
{ACAD_REACTORS
330
110
102
}
330
110
100
AcDbXrecord
280
     1
102
MATERIAL
148
0.0
149
0.0
149
0.0
 93
        0
 94
       63
282
     0
 72
     1
 77
     1
171
     1
175
     1
179
     1
273
     0
  0
XRECORD
  5
112
102
{ACAD_REACTORS
330
110
102
}
330
110
100
AcDbXrecord
280
     1
270
     1
271
     1
  0
XRECORD
  5
111
102
{ACAD_REACTORS
330
110
102
}
330
110
100
AcDbXrecord
280
     1
270
     1
271
     1
  0
XRECORD
  5
113
102
{ACAD_REACTORS
330
110
102
}
330
110
100
AcDbXrecord
280
     1
270
     1
271
     1
  0
XRECORD
  5
114
102
{ACAD_REACTORS
330
110
102
}
330
110
100
AcDbXrecord
280
     1
270
     1
271
     1
  0
CELLSTYLEMAP
  5
C1B3
102
{ACAD_REACTORS
330
C171
102
}
330
C171
100
AcDbCellStyleMap
 90
        3
300
CELLSTYLE
  1
TABLEFORMAT_BEGIN
 90
        5
170
     1
 91
        0
 92
    32768
 62
   257
 93
        1
300
CONTENTFORMAT
  1
CONTENTFORMAT_BEGIN
 90
        0
 91
        0
 92
      512
 93
        0
300

 40
0.0
140
1.0
 94
        5
 62
     0
340
180
144
0.5
309
CONTENTFORMAT_END
171
     0
 94
        6
 95
        1
302
GRIDFORMAT
  1
GRIDFORMAT_BEGIN
 90
        0
 91
        1
 62
     0
 92
       -2
340
0
 93
        1
 40
0.045
309
GRIDFORMAT_END
 95
        2
302
GRIDFORMAT
  1
GRIDFORMAT_BEGIN
 90
        0
 91
        1
 62
     0
 92
       -2
340
0
 93
        1
 40
0.045
309
GRIDFORMAT_END
 95
        4
302
GRIDFORMAT
  1
GRIDFORMAT_BEGIN
 90
        0
 91
        1
 62
     0
 92
       -2
340
0
 93
        1
 40
0.045
309
GRIDFORMAT_END
 95
        8
302
GRIDFORMAT
  1
GRIDFORMAT_BEGIN
 90
        0
 91
        1
 62
     0
 92
       -2
340
0
 93
        1
 40
0.045
309
GRIDFORMAT_END
 95
       16
302
GRIDFORMAT
  1
GRIDFORMAT_BEGIN
 90
        0
 91
        1
 62
     0
 92
       -2
340
0
 93
        1
 40
0.045
309
GRIDFORMAT_END
 95
       32
302
GRIDFORMAT
  1
GRIDFORMAT_BEGIN
 90
        0
 91
        1
 62
     0
 92
       -2
340
0
 93
        1
 40
0.045
309
GRIDFORMAT_END
309
TABLEFORMAT_END
  1
CELLSTYLE_BEGIN
 90
        1
 91
        1
300
_TITLE
309
CELLSTYLE_END
300
CELLSTYLE
  1
TABLEFORMAT_BEGIN
 90
        5
170
     1
 91
        0
 92
        0
 62
   257
 93
        1
300
CONTENTFORMAT
  1
CONTENTFORMAT_BEGIN
 90
        0
 91
        0
 92
      512
 93
        0
300

 40
0.0
140
1.0
 94
        4
 62
     0
340
180
144
0.4
309
CONTENTFORMAT_END
171
     0
 94
        6
 95
        1
302
GRIDFORMAT
  1
GRIDFORMAT_BEGIN
 90
        0
 91
        1
 62
     0
 92
       -2
340
0
 93
        1
 40
0.045
309
GRIDFORMAT_END
 95
        2
302
GRIDFORMAT
  1
GRIDFORMAT_BEGIN
 90
        0
 91
        1
 62
     0
 92
       -2
340
0
 93
        1
 40
0.045
309
GRIDFORMAT_END
 95
        4
302
GRIDFORMAT
  1
GRIDFORMAT_BEGIN
 90
        0
 91
        1
 62
     0
 92
       -2
340
0
 93
        1
 40
0.045
309
GRIDFORMAT_END
 95
        8
302
GRIDFORMAT
  1
GRIDFORMAT_BEGIN
 90
        0
 91
        1
 62
     0
 92
       -2
340
0
 93
        1
 40
0.045
309
GRIDFORMAT_END
 95
       16
302
GRIDFORMAT
  1
GRIDFORMAT_BEGIN
 90
        0
 91
        1
 62
     0
 92
       -2
340
0
 93
        1
 40
0.045
309
GRIDFORMAT_END
 95
       32
302
GRIDFORMAT
  1
GRIDFORMAT_BEGIN
 90
        0
 91
        1
 62
     0
 92
       -2
340
0
 93
        1
 40
0.045
309
GRIDFORMAT_END
309
TABLEFORMAT_END
  1
CELLSTYLE_BEGIN
 90
        2
 91
        1
300
_HEADER
309
CELLSTYLE_END
300
CELLSTYLE
  1
TABLEFORMAT_BEGIN
 90
        5
170
     1
 91
        0
 92
        0
 62
   257
 93
        1
300
CONTENTFORMAT
  1
CONTENTFORMAT_BEGIN
 90
        0
 91
        0
 92
      512
 93
        0
300

 40
0.0
140
1.0
 94
        4
 62
     0
340
180
144
0.4
309
CONTENTFORMAT_END
171
     0
 94
        6
 95
        1
302
GRIDFORMAT
  1
GRIDFORMAT_BEGIN
 90
        0
 91
        1
 62
     0
 92
       -2
340
0
 93
        1
 40
0.045
309
GRIDFORMAT_END
 95
        2
302
GRIDFORMAT
  1
GRIDFORMAT_BEGIN
 90
        0
 91
        1
 62
     0
 92
       -2
340
0
 93
        1
 40
0.045
309
GRIDFORMAT_END
 95
        4
302
GRIDFORMAT
  1
GRIDFORMAT_BEGIN
 90
        0
 91
        1
 62
     0
 92
       -2
340
0
 93
        1
 40
0.045
309
GRIDFORMAT_END
 95
        8
302
GRIDFORMAT
  1
GRIDFORMAT_BEGIN
 90
        0
 91
        1
 62
     0
 92
       -2
340
0
 93
        1
 40
0.045
309
GRIDFORMAT_END
 95
       16
302
GRIDFORMAT
  1
GRIDFORMAT_BEGIN
 90
        0
 91
        1
 62
     0
 92
       -2
340
0
 93
        1
 40
0.045
309
GRIDFORMAT_END
 95
       32
302
GRIDFORMAT
  1
GRIDFORMAT_BEGIN
 90
        0
 91
        1
 62
     0
 92
       -2
340
0
 93
        1
 40
0.045
309
GRIDFORMAT_END
309
TABLEFORMAT_END
  1
CELLSTYLE_BEGIN
 90
        3
 91
        2
300
_DATA
309
CELLSTYLE_END
  0
XRECORD
  5
C1E1
102
{ACAD_REACTORS
330
C171
102
}
330
C171
100
AcDbXrecord
280
     1
102
ACAD_ROUNDTRIP_PRE2007_TABLESTYLE
 90
      512
 91
        0
  1

 92
      512
 93
        0
  2

 94
      512
 95
        0
  3

  0
CELLSTYLEMAP
  5
C1B2
102
{ACAD_REACTORS
330
104
102
}
330
104
100
AcDbCellStyleMap
 90
        3
300
CELLSTYLE
  1
TABLEFORMAT_BEGIN
 90
        5
170
     1
 91
        0
 92
    32768
 62
   257
 93
        1
300
CONTENTFORMAT
  1
CONTENTFORMAT_BEGIN
 90
        0
 91
        0
 92
      512
 93
        0
300

 40
0.0
140
1.0
 94
        5
 62
     0
340
11
144
0.25
309
CONTENTFORMAT_END
171
     1
301
MARGIN
  1
CELLMARGIN_BEGIN
 40
0.06
 40
0.06
 40
0.06
 40
0.06
 40
0.18
 40
0.18
309
CELLMARGIN_END
 94
        6
 95
        1
302
GRIDFORMAT
  1
GRIDFORMAT_BEGIN
 90
        0
 91
        1
 62
     0
 92
       -2
340
0
 93
        0
 40
0.045
309
GRIDFORMAT_END
 95
        2
302
GRIDFORMAT
  1
GRIDFORMAT_BEGIN
 90
        0
 91
        1
 62
     0
 92
       -2
340
0
 93
        0
 40
0.045
309
GRIDFORMAT_END
 95
        4
302
GRIDFORMAT
  1
GRIDFORMAT_BEGIN
 90
        0
 91
        1
 62
     0
 92
       -2
340
0
 93
        0
 40
0.045
309
GRIDFORMAT_END
 95
        8
302
GRIDFORMAT
  1
GRIDFORMAT_BEGIN
 90
        0
 91
        1
 62
     0
 92
       -2
340
0
 93
        0
 40
0.045
309
GRIDFORMAT_END
 95
       16
302
GRIDFORMAT
  1
GRIDFORMAT_BEGIN
 90
        0
 91
        1
 62
     0
 92
       -2
340
0
 93
        0
 40
0.045
309
GRIDFORMAT_END
 95
       32
302
GRIDFORMAT
  1
GRIDFORMAT_BEGIN
 90
        0
 91
        1
 62
     0
 92
       -2
340
0
 93
        0
 40
0.045
309
GRIDFORMAT_END
309
TABLEFORMAT_END
  1
CELLSTYLE_BEGIN
 90
        1
 91
        1
300
_TITLE
309
CELLSTYLE_END
300
CELLSTYLE
  1
TABLEFORMAT_BEGIN
 90
        5
170
     1
 91
        0
 92
        0
 62
   257
 93
        1
300
CONTENTFORMAT
  1
CONTENTFORMAT_BEGIN
 90
        0
 91
        0
 92
      512
 93
        0
300

 40
0.0
140
1.0
 94
        5
 62
     0
340
11
144
0.18
309
CONTENTFORMAT_END
171
     1
301
MARGIN
  1
CELLMARGIN_BEGIN
 40
0.06
 40
0.06
 40
0.06
 40
0.06
 40
0.18
 40
0.18
309
CELLMARGIN_END
 94
        6
 95
        1
302
GRIDFORMAT
  1
GRIDFORMAT_BEGIN
 90
        0
 91
        1
 62
     0
 92
       -2
340
0
 93
        0
 40
0.045
309
GRIDFORMAT_END
 95
        2
302
GRIDFORMAT
  1
GRIDFORMAT_BEGIN
 90
        0
 91
        1
 62
     0
 92
       -2
340
0
 93
        0
 40
0.045
309
GRIDFORMAT_END
 95
        4
302
GRIDFORMAT
  1
GRIDFORMAT_BEGIN
 90
        0
 91
        1
 62
     0
 92
       -2
340
0
 93
        0
 40
0.045
309
GRIDFORMAT_END
 95
        8
302
GRIDFORMAT
  1
GRIDFORMAT_BEGIN
 90
        0
 91
        1
 62
     0
 92
       -2
340
0
 93
        0
 40
0.045
309
GRIDFORMAT_END
 95
       16
302
GRIDFORMAT
  1
GRIDFORMAT_BEGIN
 90
        0
 91
        1
 62
     0
 92
       -2
340
0
 93
        0
 40
0.045
309
GRIDFORMAT_END
 95
       32
302
GRIDFORMAT
  1
GRIDFORMAT_BEGIN
 90
        0
 91
        1
 62
     0
 92
       -2
340
0
 93
        0
 40
0.045
309
GRIDFORMAT_END
309
TABLEFORMAT_END
  1
CELLSTYLE_BEGIN
 90
        2
 91
        1
300
_HEADER
309
CELLSTYLE_END
300
CELLSTYLE
  1
TABLEFORMAT_BEGIN
 90
        5
170
     1
 91
        0
 92
        0
 62
   257
 93
        1
300
CONTENTFORMAT
  1
CONTENTFORMAT_BEGIN
 90
        0
 91
        0
 92
      512
 93
        0
300

 40
0.0
140
1.0
 94
        2
 62
     0
340
11
144
0.18
309
CONTENTFORMAT_END
171
     1
301
MARGIN
  1
CELLMARGIN_BEGIN
 40
0.06
 40
0.06
 40
0.06
 40
0.06
 40
0.18
 40
0.18
309
CELLMARGIN_END
 94
        6
 95
        1
302
GRIDFORMAT
  1
GRIDFORMAT_BEGIN
 90
        0
 91
        1
 62
     0
 92
       -2
340
0
 93
        0
 40
0.045
309
GRIDFORMAT_END
 95
        2
302
GRIDFORMAT
  1
GRIDFORMAT_BEGIN
 90
        0
 91
        1
 62
     0
 92
       -2
340
0
 93
        0
 40
0.045
309
GRIDFORMAT_END
 95
        4
302
GRIDFORMAT
  1
GRIDFORMAT_BEGIN
 90
        0
 91
        1
 62
     0
 92
       -2
340
0
 93
        0
 40
0.045
309
GRIDFORMAT_END
 95
        8
302
GRIDFORMAT
  1
GRIDFORMAT_BEGIN
 90
        0
 91
        1
 62
     0
 92
       -2
340
0
 93
        0
 40
0.045
309
GRIDFORMAT_END
 95
       16
302
GRIDFORMAT
  1
GRIDFORMAT_BEGIN
 90
        0
 91
        1
 62
     0
 92
       -2
340
0
 93
        0
 40
0.045
309
GRIDFORMAT_END
 95
       32
302
GRIDFORMAT
  1
GRIDFORMAT_BEGIN
 90
        0
 91
        1
 62
     0
 92
       -2
340
0
 93
        0
 40
0.045
309
GRIDFORMAT_END
309
TABLEFORMAT_END
  1
CELLSTYLE_BEGIN
 90
        3
 91
        2
300
_DATA
309
CELLSTYLE_END
  0
XRECORD
  5
C1B5
102
{ACAD_REACTORS
330
104
102
}
330
104
100
AcDbXrecord
280
     1
102
ACAD_ROUNDTRIP_PRE2007_TABLESTYLE
 90
      512
 91
        0
  1

 92
      512
 93
        0
  2

 94
      512
 95
        0
  3

  0
XRECORD
  5
C1C6
102
{ACAD_REACTORS
330
C1C5
102
}
330
C1C5
100
AcDbXrecord
280
     1
102
RTVSPropertyOp0
 70
     1
102
RTVSPropertyOp1
 70
     1
102
RTVSPropertyOp2
 70
     1
102
RTVSPropertyOp3
 70
     1
102
RTVSPropertyOp4
 70
     1
102
RTVSPropertyOp5
 70
     1
102
RTVSPropertyOp6
 70
     1
102
RTVSPropertyOp7
 70
     1
102
RTVSPropertyOp8
 70
     1
102
RTVSPropertyOp9
 70
     1
102
RTVSPropertyOp10
 70
     1
102
RTVSPropertyOp11
 70
     1
102
RTVSPropertyOp12
 70
     1
102
RTVSPropertyOp13
 70
     1
102
RTVSPropertyOp14
 70
     1
102
RTVSPropertyOp15
 70
     1
102
RTVSPropertyOp16
 70
     1
102
RTVSPropertyOp17
 70
     1
102
RTVSPropertyOp18
 70
     1
102
RTVSPropertyOp19
 70
     1
102
RTVSPropertyOp20
 70
     1
102
RTVSPropertyOp21
 70
     1
102
RTVSPropertyOp22
 70
     1
102
RTVSPropertyOp23
 70
     1
102
RTVSPropertyOp24
 70
     1
102
RTVSPropertyOp25
 70
     1
102
RTVSPropertyOp26
 70
     1
102
RTVSPropertyOp27
 70
     1
  0
XRECORD
  5
C1CA
102
{ACAD_REACTORS
330
C1C9
102
}
330
C1C9
100
AcDbXrecord
280
     1
102
RTVSPropertyOp0
 70
     1
102
RTVSPropertyOp1
 70
     1
102
RTVSPropertyOp2
 70
     1
102
RTVSPropertyOp3
 70
     1
102
RTVSPropertyOp4
 70
     1
102
RTVSPropertyOp5
 70
     1
102
RTVSPropertyOp6
 70
     1
102
RTVSPropertyOp7
 70
     1
102
RTVSPropertyOp8
 70
     1
102
RTVSPropertyOp9
 70
     1
102
RTVSPropertyOp10
 70
     1
102
RTVSPropertyOp11
 70
     1
102
RTVSPropertyOp12
 70
     1
102
RTVSPropertyOp13
 70
     1
102
RTVSPropertyOp14
 70
     1
102
RTVSPropertyOp15
 70
     1
102
RTVSPropertyOp16
 70
     1
102
RTVSPropertyOp17
 70
     1
102
RTVSPropertyOp18
 70
     1
102
RTVSPropertyOp19
 70
     1
102
RTVSPropertyOp20
 70
     1
102
RTVSPropertyOp21
 70
     1
102
RTVSPropertyOp22
 70
     1
102
RTVSPropertyOp23
 70
     1
102
RTVSPropertyOp24
 70
     1
102
RTVSPropertyOp25
 70
     1
102
RTVSPropertyOp26
 70
     1
102
RTVSPropertyOp27
 70
     1
  0
XRECORD
  5
C1C8
102
{ACAD_REACTORS
330
C1C7
102
}
330
C1C7
100
AcDbXrecord
280
     1
102
RTVSPropertyOp0
 70
     1
102
RTVSPropertyOp1
 70
     1
102
RTVSPropertyOp2
 70
     1
102
RTVSPropertyOp3
 70
     1
102
RTVSPropertyOp4
 70
     1
102
RTVSPropertyOp5
 70
     1
102
RTVSPropertyOp6
 70
     1
102
RTVSPropertyOp7
 70
     1
102
RTVSPropertyOp8
 70
     1
102
RTVSPropertyOp9
 70
     1
102
RTVSPropertyOp10
 70
     1
102
RTVSPropertyOp11
 70
     1
102
RTVSPropertyOp12
 70
     1
102
RTVSPropertyOp13
 70
     1
102
RTVSPropertyOp14
 70
     1
102
RTVSPropertyOp15
 70
     1
102
RTVSPropertyOp16
 70
     1
102
RTVSPropertyOp17
 70
     1
102
RTVSPropertyOp18
 70
     1
102
RTVSPropertyOp19
 70
     1
102
RTVSPropertyOp20
 70
     1
102
RTVSPropertyOp21
 70
     1
102
RTVSPropertyOp22
 70
     1
102
RTVSPropertyOp23
 70
     1
102
RTVSPropertyOp24
 70
     1
102
RTVSPropertyOp25
 70
     1
102
RTVSPropertyOp26
 70
     1
102
RTVSPropertyOp27
 70
     1
  0
XRECORD
  5
C1C4
102
{ACAD_REACTORS
330
C1C3
102
}
330
C1C3
100
AcDbXrecord
280
     1
102
RTVSPropertyOp0
 70
     1
102
RTVSPropertyOp1
 70
     1
102
RTVSPropertyOp2
 70
     1
102
RTVSPropertyOp3
 70
     1
102
RTVSPropertyOp4
 70
     1
102
RTVSPropertyOp5
 70
     1
102
RTVSPropertyOp6
 70
     1
102
RTVSPropertyOp7
 70
     1
102
RTVSPropertyOp8
 70
     1
102
RTVSPropertyOp9
 70
     1
102
RTVSPropertyOp10
 70
     1
102
RTVSPropertyOp11
 70
     1
102
RTVSPropertyOp12
 70
     1
102
RTVSPropertyOp13
 70
     1
102
RTVSPropertyOp14
 70
     1
102
RTVSPropertyOp15
 70
     1
102
RTVSPropertyOp16
 70
     1
102
RTVSPropertyOp17
 70
     1
102
RTVSPropertyOp18
 70
     1
102
RTVSPropertyOp19
 70
     1
102
RTVSPropertyOp20
 70
     1
102
RTVSPropertyOp21
 70
     1
102
RTVSPropertyOp22
 70
     1
102
RTVSPropertyOp23
 70
     1
102
RTVSPropertyOp24
 70
     1
102
RTVSPropertyOp25
 70
     1
102
RTVSPropertyOp26
 70
     1
102
RTVSPropertyOp27
 70
     1
  0
XRECORD
  5
C1D2
102
{ACAD_REACTORS
330
C1D1
102
}
330
C1D1
100
AcDbXrecord
280
     1
102
RTVSPropertyOp0
 70
     1
102
RTVSPropertyOp1
 70
     1
102
RTVSPropertyOp2
 70
     1
102
RTVSPropertyOp3
 70
     1
102
RTVSPropertyOp4
 70
     1
102
RTVSPropertyOp5
 70
     1
102
RTVSPropertyOp6
 70
     1
102
RTVSPropertyOp7
 70
     1
102
RTVSPropertyOp8
 70
     1
102
RTVSPropertyOp9
 70
     1
102
RTVSPropertyOp10
 70
     1
102
RTVSPropertyOp11
 70
     1
102
RTVSPropertyOp12
 70
     1
102
RTVSPropertyOp13
 70
     1
102
RTVSPropertyOp14
 70
     1
102
RTVSPropertyOp15
 70
     1
102
RTVSPropertyOp16
 70
     1
102
RTVSPropertyOp17
 70
     1
102
RTVSPropertyOp18
 70
     1
102
RTVSPropertyOp19
 70
     1
102
RTVSPropertyOp20
 70
     1
102
RTVSPropertyOp21
 70
     1
102
RTVSPropertyOp22
 70
     1
102
RTVSPropertyOp23
 70
     1
102
RTVSPropertyOp24
 70
     1
102
RTVSPropertyOp25
 70
     1
102
RTVSPropertyOp26
 70
     1
102
RTVSPropertyOp27
 70
     1
  0
XRECORD
  5
C1DA
102
{ACAD_REACTORS
330
C1D9
102
}
330
C1D9
100
AcDbXrecord
280
     1
102
RTVSPropertyOp0
 70
     1
102
RTVSPropertyOp1
 70
     1
102
RTVSPropertyOp2
 70
     1
102
RTVSPropertyOp3
 70
     1
102
RTVSPropertyOp4
 70
     1
102
RTVSPropertyOp5
 70
     1
102
RTVSPropertyOp6
 70
     1
102
RTVSPropertyOp7
 70
     1
102
RTVSPropertyOp8
 70
     1
102
RTVSPropertyOp9
 70
     1
102
RTVSPropertyOp10
 70
     1
102
RTVSPropertyOp11
 70
     1
102
RTVSPropertyOp12
 70
     1
102
RTVSPropertyOp13
 70
     1
102
RTVSPropertyOp14
 70
     1
102
RTVSPropertyOp15
 70
     1
102
RTVSPropertyOp16
 70
     1
102
RTVSPropertyOp17
 70
     1
102
RTVSPropertyOp18
 70
     1
102
RTVSPropertyOp19
 70
     1
102
RTVSPropertyOp20
 70
     1
102
RTVSPropertyOp21
 70
     1
102
RTVSPropertyOp22
 70
     1
102
RTVSPropertyOp23
 70
     1
102
RTVSPropertyOp24
 70
     1
102
RTVSPropertyOp25
 70
     1
102
RTVSPropertyOp26
 70
     1
102
RTVSPropertyOp27
 70
     1
  0
XRECORD
  5
C1CC
102
{ACAD_REACTORS
330
C1CB
102
}
330
C1CB
100
AcDbXrecord
280
     1
102
RTVSPropertyOp0
 70
     1
102
RTVSPropertyOp1
 70
     1
102
RTVSPropertyOp2
 70
     1
102
RTVSPropertyOp3
 70
     1
102
RTVSPropertyOp4
 70
     1
102
RTVSPropertyOp5
 70
     1
102
RTVSPropertyOp6
 70
     1
102
RTVSPropertyOp7
 70
     1
102
RTVSPropertyOp8
 70
     1
102
RTVSPropertyOp9
 70
     1
102
RTVSPropertyOp10
 70
     1
102
RTVSPropertyOp11
 70
     1
102
RTVSPropertyOp12
 70
     1
102
RTVSPropertyOp13
 70
     1
102
RTVSPropertyOp14
 70
     1
102
RTVSPropertyOp15
 70
     1
102
RTVSPropertyOp16
 70
     1
102
RTVSPropertyOp17
 70
     1
102
RTVSPropertyOp18
 70
     1
102
RTVSPropertyOp19
 70
     1
102
RTVSPropertyOp20
 70
     1
102
RTVSPropertyOp21
 70
     1
102
RTVSPropertyOp22
 70
     1
102
RTVSPropertyOp23
 70
     1
102
RTVSPropertyOp24
 70
     1
102
RTVSPropertyOp25
 70
     1
102
RTVSPropertyOp26
 70
     1
102
RTVSPropertyOp27
 70
     1
  0
XRECORD
  5
C1D0
102
{ACAD_REACTORS
330
C1CF
102
}
330
C1CF
100
AcDbXrecord
280
     1
102
RTVSPropertyOp0
 70
     1
102
RTVSPropertyOp1
 70
     1
102
RTVSPropertyOp2
 70
     1
102
RTVSPropertyOp3
 70
     1
102
RTVSPropertyOp4
 70
     1
102
RTVSPropertyOp5
 70
     1
102
RTVSPropertyOp6
 70
     1
102
RTVSPropertyOp7
 70
     1
102
RTVSPropertyOp8
 70
     1
102
RTVSPropertyOp9
 70
     1
102
RTVSPropertyOp10
 70
     1
102
RTVSPropertyOp11
 70
     1
102
RTVSPropertyOp12
 70
     1
102
RTVSPropertyOp13
 70
     1
102
RTVSPropertyOp14
 70
     1
102
RTVSPropertyOp15
 70
     1
102
RTVSPropertyOp16
 70
     1
102
RTVSPropertyOp17
 70
     1
102
RTVSPropertyOp18
 70
     1
102
RTVSPropertyOp19
 70
     1
102
RTVSPropertyOp20
 70
     1
102
RTVSPropertyOp21
 70
     1
102
RTVSPropertyOp22
 70
     1
102
RTVSPropertyOp23
 70
     1
102
RTVSPropertyOp24
 70
     1
102
RTVSPropertyOp25
 70
     1
102
RTVSPropertyOp26
 70
     1
102
RTVSPropertyOp27
 70
     1
  0
XRECORD
  5
C1E0
102
{ACAD_REACTORS
330
C1DF
102
}
330
C1DF
100
AcDbXrecord
280
     1
102
RTVSPropertyOp0
 70
     0
102
RTVSPropertyOp1
 70
     0
102
RTVSPropertyOp2
 70
     0
102
RTVSPropertyOp3
 70
     0
102
RTVSPropertyOp4
 70
     0
102
RTVSPropertyOp5
 70
     0
102
RTVSPropertyOp6
 70
     0
102
RTVSPropertyOp7
 70
     0
102
RTVSPropertyOp8
 70
     0
102
RTVSPropertyOp9
 70
     0
102
RTVSPropertyOp10
 70
     0
102
RTVSPropertyOp11
 70
     0
102
RTVSPropertyOp12
 70
     0
102
RTVSPropertyOp13
 70
     0
102
RTVSPropertyOp14
 70
     2
102
RTVSPropertyOp15
 70
     0
102
RTVSPropertyOp16
 70
     0
102
RTVSPropertyOp17
 70
     0
102
RTVSPropertyOp18
 70
     0
102
RTVSPropertyOp19
 70
     0
102
RTVSPropertyOp20
 70
     0
102
RTVSPropertyOp21
 70
     0
102
RTVSPropertyOp22
 70
     0
102
RTVSPropertyOp23
 70
     0
102
RTVSPropertyOp24
 70
     0
102
RTVSPropertyOp25
 70
     0
102
RTVSPropertyOp26
 70
     0
102
RTVSPropertyOp27
 70
     0
  0
XRECORD
  5
C1D8
102
{ACAD_REACTORS
330
C1D7
102
}
330
C1D7
100
AcDbXrecord
280
     1
102
RTVSPropertyOp0
 70
     1
102
RTVSPropertyOp1
 70
     1
102
RTVSPropertyOp2
 70
     1
102
RTVSPropertyOp3
 70
     1
102
RTVSPropertyOp4
 70
     1
102
RTVSPropertyOp5
 70
     1
102
RTVSPropertyOp6
 70
     1
102
RTVSPropertyOp7
 70
     1
102
RTVSPropertyOp8
 70
     1
102
RTVSPropertyOp9
 70
     1
102
RTVSPropertyOp10
 70
     1
102
RTVSPropertyOp11
 70
     1
102
RTVSPropertyOp12
 70
     1
102
RTVSPropertyOp13
 70
     1
102
RTVSPropertyOp14
 70
     1
102
RTVSPropertyOp15
 70
     1
102
RTVSPropertyOp16
 70
     1
102
RTVSPropertyOp17
 70
     1
102
RTVSPropertyOp18
 70
     1
102
RTVSPropertyOp19
 70
     1
102
RTVSPropertyOp20
 70
     1
102
RTVSPropertyOp21
 70
     1
102
RTVSPropertyOp22
 70
     1
102
RTVSPropertyOp23
 70
     1
102
RTVSPropertyOp24
 70
     1
102
RTVSPropertyOp25
 70
     1
102
RTVSPropertyOp26
 70
     1
102
RTVSPropertyOp27
 70
     1
  0
XRECORD
  5
C1BC
102
{ACAD_REACTORS
330
C1BB
102
}
330
C1BB
100
AcDbXrecord
280
     1
102
RTVSPropertyOp0
 70
     1
102
RTVSPropertyOp1
 70
     1
102
RTVSPropertyOp2
 70
     1
102
RTVSPropertyOp3
 70
     1
102
RTVSPropertyOp4
 70
     1
102
RTVSPropertyOp5
 70
     1
102
RTVSPropertyOp6
 70
     1
102
RTVSPropertyOp7
 70
     1
102
RTVSPropertyOp8
 70
     1
102
RTVSPropertyOp9
 70
     1
102
RTVSPropertyOp10
 70
     1
102
RTVSPropertyOp11
 70
     1
102
RTVSPropertyOp12
 70
     1
102
RTVSPropertyOp13
 70
     1
102
RTVSPropertyOp14
 70
     1
102
RTVSPropertyOp15
 70
     1
102
RTVSPropertyOp16
 70
     1
102
RTVSPropertyOp17
 70
     1
102
RTVSPropertyOp18
 70
     1
102
RTVSPropertyOp19
 70
     1
102
RTVSPropertyOp20
 70
     1
102
RTVSPropertyOp21
 70
     1
102
RTVSPropertyOp22
 70
     1
102
RTVSPropertyOp23
 70
     1
102
RTVSPropertyOp24
 70
     1
102
RTVSPropertyOp25
 70
     1
102
RTVSPropertyOp26
 70
     1
102
RTVSPropertyOp27
 70
     1
  0
XRECORD
  5
C1BE
102
{ACAD_REACTORS
330
C1BD
102
}
330
C1BD
100
AcDbXrecord
280
     1
102
RTVSPropertyOp0
 70
     1
102
RTVSPropertyOp1
 70
     1
102
RTVSPropertyOp2
 70
     1
102
RTVSPropertyOp3
 70
     1
102
RTVSPropertyOp4
 70
     1
102
RTVSPropertyOp5
 70
     1
102
RTVSPropertyOp6
 70
     1
102
RTVSPropertyOp7
 70
     1
102
RTVSPropertyOp8
 70
     1
102
RTVSPropertyOp9
 70
     1
102
RTVSPropertyOp10
 70
     1
102
RTVSPropertyOp11
 70
     1
102
RTVSPropertyOp12
 70
     1
102
RTVSPropertyOp13
 70
     1
102
RTVSPropertyOp14
 70
     1
102
RTVSPropertyOp15
 70
     1
102
RTVSPropertyOp16
 70
     1
102
RTVSPropertyOp17
 70
     1
102
RTVSPropertyOp18
 70
     1
102
RTVSPropertyOp19
 70
     1
102
RTVSPropertyOp20
 70
     1
102
RTVSPropertyOp21
 70
     1
102
RTVSPropertyOp22
 70
     1
102
RTVSPropertyOp23
 70
     1
102
RTVSPropertyOp24
 70
     1
102
RTVSPropertyOp25
 70
     1
102
RTVSPropertyOp26
 70
     1
102
RTVSPropertyOp27
 70
     1
  0
XRECORD
  5
C1C0
102
{ACAD_REACTORS
330
C1BF
102
}
330
C1BF
100
AcDbXrecord
280
     1
102
RTVSPropertyOp0
 70
     1
102
RTVSPropertyOp1
 70
     1
102
RTVSPropertyOp2
 70
     1
102
RTVSPropertyOp3
 70
     1
102
RTVSPropertyOp4
 70
     1
102
RTVSPropertyOp5
 70
     1
102
RTVSPropertyOp6
 70
     1
102
RTVSPropertyOp7
 70
     1
102
RTVSPropertyOp8
 70
     1
102
RTVSPropertyOp9
 70
     1
102
RTVSPropertyOp10
 70
     1
102
RTVSPropertyOp11
 70
     1
102
RTVSPropertyOp12
 70
     1
102
RTVSPropertyOp13
 70
     1
102
RTVSPropertyOp14
 70
     1
102
RTVSPropertyOp15
 70
     1
102
RTVSPropertyOp16
 70
     1
102
RTVSPropertyOp17
 70
     1
102
RTVSPropertyOp18
 70
     1
102
RTVSPropertyOp19
 70
     1
102
RTVSPropertyOp20
 70
     1
102
RTVSPropertyOp21
 70
     1
102
RTVSPropertyOp22
 70
     1
102
RTVSPropertyOp23
 70
     1
102
RTVSPropertyOp24
 70
     1
102
RTVSPropertyOp25
 70
     1
102
RTVSPropertyOp26
 70
     1
102
RTVSPropertyOp27
 70
     1
  0
XRECORD
  5
C1C2
102
{ACAD_REACTORS
330
C1C1
102
}
330
C1C1
100
AcDbXrecord
280
     1
102
RTVSPropertyOp0
 70
     1
102
RTVSPropertyOp1
 70
     1
102
RTVSPropertyOp2
 70
     1
102
RTVSPropertyOp3
 70
     1
102
RTVSPropertyOp4
 70
     1
102
RTVSPropertyOp5
 70
     1
102
RTVSPropertyOp6
 70
     1
102
RTVSPropertyOp7
 70
     1
102
RTVSPropertyOp8
 70
     1
102
RTVSPropertyOp9
 70
     1
102
RTVSPropertyOp10
 70
     1
102
RTVSPropertyOp11
 70
     1
102
RTVSPropertyOp12
 70
     1
102
RTVSPropertyOp13
 70
     1
102
RTVSPropertyOp14
 70
     1
102
RTVSPropertyOp15
 70
     1
102
RTVSPropertyOp16
 70
     1
102
RTVSPropertyOp17
 70
     1
102
RTVSPropertyOp18
 70
     1
102
RTVSPropertyOp19
 70
     1
102
RTVSPropertyOp20
 70
     1
102
RTVSPropertyOp21
 70
     1
102
RTVSPropertyOp22
 70
     1
102
RTVSPropertyOp23
 70
     1
102
RTVSPropertyOp24
 70
     1
102
RTVSPropertyOp25
 70
     1
102
RTVSPropertyOp26
 70
     1
102
RTVSPropertyOp27
 70
     1
  0
XRECORD
  5
1B0
102
{ACAD_REACTORS
330
1AF
102
}
330
1AF
100
AcDbXrecord
280
     1
102
RTVSPropertyOp28
 70
     1
102
RTVSPropertyOp29
 70
     1
102
RTVSPropertyOp30
 70
     1
102
RTVSPropertyOp31
 70
     1
102
RTVSPropertyOp32
 70
     1
102
RTVSPropertyOp0
 70
     1
102
RTVSPropertyOp1
 70
     1
102
RTVSPropertyOp2
 70
     1
102
RTVSPropertyOp3
 70
     1
102
RTVSPropertyOp4
 70
     1
102
RTVSPropertyOp5
 70
     1
102
RTVSPropertyOp6
 70
     1
102
RTVSPropertyOp7
 70
     1
102
RTVSPropertyOp8
 70
     1
102
RTVSPropertyOp9
 70
     1
102
RTVSPropertyOp10
 70
     1
102
RTVSPropertyOp11
 70
     1
102
RTVSPropertyOp12
 70
     1
102
RTVSPropertyOp13
 70
     1
102
RTVSPropertyOp14
 70
     1
102
RTVSPropertyOp15
 70
     1
102
RTVSPropertyOp16
 70
     1
102
RTVSPropertyOp17
 70
     1
102
RTVSPropertyOp18
 70
     1
102
RTVSPropertyOp19
 70
     1
102
RTVSPropertyOp20
 70
     1
102
RTVSPropertyOp21
 70
     1
102
RTVSPropertyOp22
 70
     1
102
RTVSPropertyOp23
 70
     1
102
RTVSPropertyOp24
 70
     1
102
RTVSPropertyOp25
 70
     1
102
RTVSPropertyOp26
 70
     1
102
RTVSPropertyOp27
 70
     1
  0
XRECORD
  5
C1DC
102
{ACAD_REACTORS
330
C1DB
102
}
330
C1DB
100
AcDbXrecord
280
     1
102
RTVSPropertyOp0
 70
     0
102
RTVSPropertyOp1
 70
     0
102
RTVSPropertyOp2
 70
     0
102
RTVSPropertyOp3
 70
     0
102
RTVSPropertyOp4
 70
     0
102
RTVSPropertyOp5
 70
     0
102
RTVSPropertyOp6
 70
     0
102
RTVSPropertyOp7
 70
     0
102
RTVSPropertyOp8
 70
     0
102
RTVSPropertyOp9
 70
     0
102
RTVSPropertyOp10
 70
     0
102
RTVSPropertyOp11
 70
     0
102
RTVSPropertyOp12
 70
     0
102
RTVSPropertyOp13
 70
     0
102
RTVSPropertyOp14
 70
     2
102
RTVSPropertyOp15
 70
     0
102
RTVSPropertyOp16
 70
     0
102
RTVSPropertyOp17
 70
     0
102
RTVSPropertyOp18
 70
     0
102
RTVSPropertyOp19
 70
     0
102
RTVSPropertyOp20
 70
     0
102
RTVSPropertyOp21
 70
     0
102
RTVSPropertyOp22
 70
     0
102
RTVSPropertyOp23
 70
     0
102
RTVSPropertyOp24
 70
     0
102
RTVSPropertyOp25
 70
     0
102
RTVSPropertyOp26
 70
     0
102
RTVSPropertyOp27
 70
     0
  0
XRECORD
  5
C1D6
102
{ACAD_REACTORS
330
C1D5
102
}
330
C1D5
100
AcDbXrecord
280
     1
102
RTVSPropertyOp0
 70
     1
102
RTVSPropertyOp1
 70
     1
102
RTVSPropertyOp2
 70
     1
102
RTVSPropertyOp3
 70
     1
102
RTVSPropertyOp4
 70
     1
102
RTVSPropertyOp5
 70
     1
102
RTVSPropertyOp6
 70
     1
102
RTVSPropertyOp7
 70
     1
102
RTVSPropertyOp8
 70
     1
102
RTVSPropertyOp9
 70
     1
102
RTVSPropertyOp10
 70
     1
102
RTVSPropertyOp11
 70
     1
102
RTVSPropertyOp12
 70
     1
102
RTVSPropertyOp13
 70
     1
102
RTVSPropertyOp14
 70
     1
102
RTVSPropertyOp15
 70
     1
102
RTVSPropertyOp16
 70
     1
102
RTVSPropertyOp17
 70
     1
102
RTVSPropertyOp18
 70
     1
102
RTVSPropertyOp19
 70
     1
102
RTVSPropertyOp20
 70
     1
102
RTVSPropertyOp21
 70
     1
102
RTVSPropertyOp22
 70
     1
102
RTVSPropertyOp23
 70
     1
102
RTVSPropertyOp24
 70
     1
102
RTVSPropertyOp25
 70
     1
102
RTVSPropertyOp26
 70
     1
102
RTVSPropertyOp27
 70
     1
  0
XRECORD
  5
C1DE
102
{ACAD_REACTORS
330
C1DD
102
}
330
C1DD
100
AcDbXrecord
280
     1
102
RTVSPropertyOp0
 70
     0
102
RTVSPropertyOp1
 70
     0
102
RTVSPropertyOp2
 70
     0
102
RTVSPropertyOp3
 70
     0
102
RTVSPropertyOp4
 70
     0
102
RTVSPropertyOp5
 70
     0
102
RTVSPropertyOp6
 70
     0
102
RTVSPropertyOp7
 70
     0
102
RTVSPropertyOp8
 70
     0
102
RTVSPropertyOp9
 70
     0
102
RTVSPropertyOp10
 70
     0
102
RTVSPropertyOp11
 70
     0
102
RTVSPropertyOp12
 70
     0
102
RTVSPropertyOp13
 70
     0
102
RTVSPropertyOp14
 70
     2
102
RTVSPropertyOp15
 70
     0
102
RTVSPropertyOp16
 70
     0
102
RTVSPropertyOp17
 70
     0
102
RTVSPropertyOp18
 70
     0
102
RTVSPropertyOp19
 70
     0
102
RTVSPropertyOp20
 70
     0
102
RTVSPropertyOp21
 70
     0
102
RTVSPropertyOp22
 70
     0
102
RTVSPropertyOp23
 70
     0
102
RTVSPropertyOp24
 70
     0
102
RTVSPropertyOp25
 70
     0
102
RTVSPropertyOp26
 70
     0
102
RTVSPropertyOp27
 70
     0
  0
XRECORD
  5
C1CE
102
{ACAD_REACTORS
330
C1CD
102
}
330
C1CD
100
AcDbXrecord
280
     1
102
RTVSPropertyOp0
 70
     1
102
RTVSPropertyOp1
 70
     1
102
RTVSPropertyOp2
 70
     1
102
RTVSPropertyOp3
 70
     1
102
RTVSPropertyOp4
 70
     1
102
RTVSPropertyOp5
 70
     1
102
RTVSPropertyOp6
 70
     1
102
RTVSPropertyOp7
 70
     1
102
RTVSPropertyOp8
 70
     1
102
RTVSPropertyOp9
 70
     1
102
RTVSPropertyOp10
 70
     1
102
RTVSPropertyOp11
 70
     1
102
RTVSPropertyOp12
 70
     1
102
RTVSPropertyOp13
 70
     1
102
RTVSPropertyOp14
 70
     1
102
RTVSPropertyOp15
 70
     1
102
RTVSPropertyOp16
 70
     1
102
RTVSPropertyOp17
 70
     1
102
RTVSPropertyOp18
 70
     1
102
RTVSPropertyOp19
 70
     1
102
RTVSPropertyOp20
 70
     1
102
RTVSPropertyOp21
 70
     1
102
RTVSPropertyOp22
 70
     1
102
RTVSPropertyOp23
 70
     1
102
RTVSPropertyOp24
 70
     1
102
RTVSPropertyOp25
 70
     1
102
RTVSPropertyOp26
 70
     1
102
RTVSPropertyOp27
 70
     1
  0
XRECORD
  5
1B3
102
{ACAD_REACTORS
330
1B2
102
}
330
1B2
100
AcDbXrecord
280
     1
102
RTVSPropertyOp28
 70
     1
102
RTVSPropertyOp29
 70
     1
102
RTVSPropertyOp30
 70
     1
102
RTVSPropertyOp31
 70
     1
102
RTVSPropertyOp32
 70
     1
102
RTVSPropertyOp0
 70
     1
102
RTVSPropertyOp1
 70
     1
102
RTVSPropertyOp2
 70
     1
102
RTVSPropertyOp3
 70
     1
102
RTVSPropertyOp4
 70
     1
102
RTVSPropertyOp5
 70
     1
102
RTVSPropertyOp6
 70
     1
102
RTVSPropertyOp7
 70
     1
102
RTVSPropertyOp8
 70
     1
102
RTVSPropertyOp9
 70
     1
102
RTVSPropertyOp10
 70
     1
102
RTVSPropertyOp11
 70
     1
102
RTVSPropertyOp12
 70
     1
102
RTVSPropertyOp13
 70
     1
102
RTVSPropertyOp14
 70
     1
102
RTVSPropertyOp15
 70
     1
102
RTVSPropertyOp16
 70
     1
102
RTVSPropertyOp17
 70
     1
102
RTVSPropertyOp18
 70
     1
102
RTVSPropertyOp19
 70
     1
102
RTVSPropertyOp20
 70
     1
102
RTVSPropertyOp21
 70
     1
102
RTVSPropertyOp22
 70
     1
102
RTVSPropertyOp23
 70
     1
102
RTVSPropertyOp24
 70
     1
102
RTVSPropertyOp25
 70
     1
102
RTVSPropertyOp26
 70
     1
102
RTVSPropertyOp27
 70
     1
  0
XRECORD
  5
1B6
102
{ACAD_REACTORS
330
1B5
102
}
330
1B5
100
AcDbXrecord
280
     1
102
RTVSPropertyOp28
 70
     1
102
RTVSPropertyOp29
 70
     1
102
RTVSPropertyOp30
 70
     1
102
RTVSPropertyOp31
 70
     1
102
RTVSPropertyOp32
 70
     1
102
RTVSPropertyOp0
 70
     1
102
RTVSPropertyOp1
 70
     1
102
RTVSPropertyOp2
 70
     1
102
RTVSPropertyOp3
 70
     1
102
RTVSPropertyOp4
 70
     1
102
RTVSPropertyOp5
 70
     1
102
RTVSPropertyOp6
 70
     1
102
RTVSPropertyOp7
 70
     1
102
RTVSPropertyOp8
 70
     1
102
RTVSPropertyOp9
 70
     1
102
RTVSPropertyOp10
 70
     1
102
RTVSPropertyOp11
 70
     1
102
RTVSPropertyOp12
 70
     1
102
RTVSPropertyOp13
 70
     1
102
RTVSPropertyOp14
 70
     1
102
RTVSPropertyOp15
 70
     1
102
RTVSPropertyOp16
 70
     1
102
RTVSPropertyOp17
 70
     1
102
RTVSPropertyOp18
 70
     1
102
RTVSPropertyOp19
 70
     1
102
RTVSPropertyOp20
 70
     1
102
RTVSPropertyOp21
 70
     1
102
RTVSPropertyOp22
 70
     1
102
RTVSPropertyOp23
 70
     1
102
RTVSPropertyOp24
 70
     1
102
RTVSPropertyOp25
 70
     1
102
RTVSPropertyOp26
 70
     1
102
RTVSPropertyOp27
 70
     1
  0
XRECORD
  5
1B9
102
{ACAD_REACTORS
330
1B8
102
}
330
1B8
100
AcDbXrecord
280
     1
102
RTVSPropertyOp28
 70
     1
102
RTVSPropertyOp29
 70
     1
102
RTVSPropertyOp30
 70
     1
102
RTVSPropertyOp31
 70
     1
102
RTVSPropertyOp32
 70
     1
102
RTVSPropertyOp0
 70
     1
102
RTVSPropertyOp1
 70
     1
102
RTVSPropertyOp2
 70
     1
102
RTVSPropertyOp3
 70
     1
102
RTVSPropertyOp4
 70
     1
102
RTVSPropertyOp5
 70
     1
102
RTVSPropertyOp6
 70
     1
102
RTVSPropertyOp7
 70
     1
102
RTVSPropertyOp8
 70
     1
102
RTVSPropertyOp9
 70
     1
102
RTVSPropertyOp10
 70
     1
102
RTVSPropertyOp11
 70
     1
102
RTVSPropertyOp12
 70
     1
102
RTVSPropertyOp13
 70
     1
102
RTVSPropertyOp14
 70
     1
102
RTVSPropertyOp15
 70
     1
102
RTVSPropertyOp16
 70
     1
102
RTVSPropertyOp17
 70
     1
102
RTVSPropertyOp18
 70
     1
102
RTVSPropertyOp19
 70
     1
102
RTVSPropertyOp20
 70
     1
102
RTVSPropertyOp21
 70
     1
102
RTVSPropertyOp22
 70
     1
102
RTVSPropertyOp23
 70
     1
102
RTVSPropertyOp24
 70
     1
102
RTVSPropertyOp25
 70
     1
102
RTVSPropertyOp26
 70
     1
102
RTVSPropertyOp27
 70
     1
  0
XRECORD
  5
1BC
102
{ACAD_REACTORS
330
1BB
102
}
330
1BB
100
AcDbXrecord
280
     1
102
RTVSPropertyOp28
 70
     1
102
RTVSPropertyOp29
 70
     1
102
RTVSPropertyOp30
 70
     1
102
RTVSPropertyOp31
 70
     1
102
RTVSPropertyOp32
 70
     1
102
RTVSPropertyOp0
 70
     1
102
RTVSPropertyOp1
 70
     1
102
RTVSPropertyOp2
 70
     1
102
RTVSPropertyOp3
 70
     1
102
RTVSPropertyOp4
 70
     1
102
RTVSPropertyOp5
 70
     1
102
RTVSPropertyOp6
 70
     1
102
RTVSPropertyOp7
 70
     1
102
RTVSPropertyOp8
 70
     1
102
RTVSPropertyOp9
 70
     1
102
RTVSPropertyOp10
 70
     1
102
RTVSPropertyOp11
 70
     1
102
RTVSPropertyOp12
 70
     1
102
RTVSPropertyOp13
 70
     1
102
RTVSPropertyOp14
 70
     1
102
RTVSPropertyOp15
 70
     1
102
RTVSPropertyOp16
 70
     1
102
RTVSPropertyOp17
 70
     1
102
RTVSPropertyOp18
 70
     1
102
RTVSPropertyOp19
 70
     1
102
RTVSPropertyOp20
 70
     1
102
RTVSPropertyOp21
 70
     1
102
RTVSPropertyOp22
 70
     1
102
RTVSPropertyOp23
 70
     1
102
RTVSPropertyOp24
 70
     1
102
RTVSPropertyOp25
 70
     1
102
RTVSPropertyOp26
 70
     1
102
RTVSPropertyOp27
 70
     1
  0
XRECORD
  5
C1D4
102
{ACAD_REACTORS
330
C1D3
102
}
330
C1D3
100
AcDbXrecord
280
     1
102
RTVSPropertyOp0
 70
     1
102
RTVSPropertyOp1
 70
     1
102
RTVSPropertyOp2
 70
     1
102
RTVSPropertyOp3
 70
     1
102
RTVSPropertyOp4
 70
     1
102
RTVSPropertyOp5
 70
     1
102
RTVSPropertyOp6
 70
     1
102
RTVSPropertyOp7
 70
     1
102
RTVSPropertyOp8
 70
     1
102
RTVSPropertyOp9
 70
     1
102
RTVSPropertyOp10
 70
     1
102
RTVSPropertyOp11
 70
     1
102
RTVSPropertyOp12
 70
     1
102
RTVSPropertyOp13
 70
     1
102
RTVSPropertyOp14
 70
     1
102
RTVSPropertyOp15
 70
     1
102
RTVSPropertyOp16
 70
     1
102
RTVSPropertyOp17
 70
     1
102
RTVSPropertyOp18
 70
     1
102
RTVSPropertyOp19
 70
     1
102
RTVSPropertyOp20
 70
     1
102
RTVSPropertyOp21
 70
     1
102
RTVSPropertyOp22
 70
     1
102
RTVSPropertyOp23
 70
     1
102
RTVSPropertyOp24
 70
     1
102
RTVSPropertyOp25
 70
     1
102
RTVSPropertyOp26
 70
     1
102
RTVSPropertyOp27
 70
     1
  0
XRECORD
  5
1BF
102
{ACAD_REACTORS
330
1BE
102
}
330
1BE
100
AcDbXrecord
280
     1
102
RTVSPropertyOp28
 70
     1
102
RTVSPropertyOp29
 70
     1
102
RTVSPropertyOp30
 70
     1
102
RTVSPropertyOp31
 70
     1
102
RTVSPropertyOp32
 70
     1
102
RTVSPropertyOp0
 70
     1
102
RTVSPropertyOp1
 70
     1
102
RTVSPropertyOp2
 70
     1
102
RTVSPropertyOp3
 70
     1
102
RTVSPropertyOp4
 70
     1
102
RTVSPropertyOp5
 70
     1
102
RTVSPropertyOp6
 70
     1
102
RTVSPropertyOp7
 70
     1
102
RTVSPropertyOp8
 70
     1
102
RTVSPropertyOp9
 70
     1
102
RTVSPropertyOp10
 70
     1
102
RTVSPropertyOp11
 70
     1
102
RTVSPropertyOp12
 70
     1
102
RTVSPropertyOp13
 70
     1
102
RTVSPropertyOp14
 70
     1
102
RTVSPropertyOp15
 70
     1
102
RTVSPropertyOp16
 70
     1
102
RTVSPropertyOp17
 70
     1
102
RTVSPropertyOp18
 70
     1
102
RTVSPropertyOp19
 70
     1
102
RTVSPropertyOp20
 70
     1
102
RTVSPropertyOp21
 70
     1
102
RTVSPropertyOp22
 70
     1
102
RTVSPropertyOp23
 70
     1
102
RTVSPropertyOp24
 70
     1
102
RTVSPropertyOp25
 70
     1
102
RTVSPropertyOp26
 70
     1
102
RTVSPropertyOp27
 70
     1
  0
XRECORD
  5
1C2
102
{ACAD_REACTORS
330
1C1
102
}
330
1C1
100
AcDbXrecord
280
     1
102
RTVSPropertyOp28
 70
     1
102
RTVSPropertyOp29
 70
     1
102
RTVSPropertyOp30
 70
     1
102
RTVSPropertyOp31
 70
     1
102
RTVSPropertyOp32
 70
     1
102
RTVSPropertyOp0
 70
     1
102
RTVSPropertyOp1
 70
     1
102
RTVSPropertyOp2
 70
     1
102
RTVSPropertyOp3
 70
     1
102
RTVSPropertyOp4
 70
     1
102
RTVSPropertyOp5
 70
     1
102
RTVSPropertyOp6
 70
     1
102
RTVSPropertyOp7
 70
     1
102
RTVSPropertyOp8
 70
     1
102
RTVSPropertyOp9
 70
     1
102
RTVSPropertyOp10
 70
     1
102
RTVSPropertyOp11
 70
     1
102
RTVSPropertyOp12
 70
     1
102
RTVSPropertyOp13
 70
     1
102
RTVSPropertyOp14
 70
     1
102
RTVSPropertyOp15
 70
     1
102
RTVSPropertyOp16
 70
     1
102
RTVSPropertyOp17
 70
     1
102
RTVSPropertyOp18
 70
     1
102
RTVSPropertyOp19
 70
     1
102
RTVSPropertyOp20
 70
     1
102
RTVSPropertyOp21
 70
     1
102
RTVSPropertyOp22
 70
     1
102
RTVSPropertyOp23
 70
     1
102
RTVSPropertyOp24
 70
     1
102
RTVSPropertyOp25
 70
     1
102
RTVSPropertyOp26
 70
     1
102
RTVSPropertyOp27
 70
     1
  0
DMBASEELEMENT
  5
182
102
{ACAD_XDICTIONARY
360
186
102
}
102
{ACAD_REACTORS
330
17F
102
}
330
17F
100
AcMapDMBaseElement
 70
     1
  1
Map Base
 70
     1
330
17F
100
AcMapDMBaseElement
 70
     1
  1

 70
     2
  1

 70
     1
 40
1.797693134862314E+99
 70
     1
 70
     1
 70
     1
 70
     1
360
185
100
AcMapDMBaseElement
 70
     1
  0
DMDEFAULTSTYLE
  5
183
102
{ACAD_REACTORS
330
17F
102
}
330
17F
100
AcMapDMDefaultStyle
 70
     1
 90
        1
  1
Default
100
AcMapDMDefaultStyle
 70
     1
280
   100
 90
     0
1001
AcMapDMDisplayStyleRegapp
1070
     2
1071
        1
1000
Default
1000

  0
DICTIONARY
  5
186
330
182
100
AcDbDictionary
280
     1
281
     1
  3
AcMapDMSurrogateStyleSets
360
187
  0
DMSTYLEREFERENCE
  5
185
330
182
100
AcMapDMStyleReference
 70
     1
 70
     0
340
183
330
17F
  0
DMSURROGATESTYLESETS
  5
187
102
{ACAD_REACTORS
330
186
102
}
330
186
100
AcMapDMSurrogateStyleSets
 70
     1
  1
Map Base
 70
     1
 40
1.797693134862314E+99
 70
     1
 70
     1
 70
     1
 70
     1
330
185
 70
     0
  0
ENDSEC
  0
EOF
