  0
SECTION
  2
HEADER
  9
$ACADVER
  1
AC1018
  9
$ACADMAINTVER
 70
   104
  9
$DWGCODEPAGE
  3
ANSI_1252
  9
$LASTSAVEDBY
  1
Joseph H Fortier
  9
$INSBASE
 10
0.0
 20
0.0
 30
0.0
  9
$EXTMIN
 10
-0.8951802582263113
 20
0.0
 30
0.0
  9
$EXTMAX
 10
7.25
 20
7.125000000000001
 30
0.0
  9
$LIMMIN
 10
0.0
 20
0.0
  9
$LIMMAX
 10
12.0
 20
9.0
  9
$ORTHOMODE
 70
     1
  9
$REGENMODE
 70
     1
  9
$FILLMODE
 70
     1
  9
$QTEXTMODE
 70
     0
  9
$MIRRTEXT
 70
     0
  9
$LTSCALE
 40
1.0
  9
$ATTMODE
 70
     1
  9
$TEXTSIZE
 40
0.09
  9
$TRACEWID
 40
0.05
  9
$TEXTSTYLE
  7
DETAIL TEXT
  9
$CLAYER
  8
0
  9
$CELTYPE
  6
ByLayer
  9
$CECOLOR
 62
   256
  9
$CELTSCALE
 40
1.0
  9
$DISPSILH
 70
     0
  9
$DIMSCALE
 40
1.0
  9
$DIMASZ
 40
0.18
  9
$DIMEXO
 40
0.0625
  9
$DIMDLI
 40
0.38
  9
$DIMRND
 40
0.0
  9
$DIMDLE
 40
0.0
  9
$DIMEXE
 40
0.18
  9
$DIMTP
 40
0.0
  9
$DIMTM
 40
0.0
  9
$DIMTXT
 40
0.18
  9
$DIMCEN
 40
0.09
  9
$DIMTSZ
 40
0.0
  9
$DIMTOL
 70
     0
  9
$DIMLIM
 70
     0
  9
$DIMTIH
 70
     1
  9
$DIMTOH
 70
     1
  9
$DIMSE1
 70
     0
  9
$DIMSE2
 70
     0
  9
$DIMTAD
 70
     0
  9
$DIMZIN
 70
     0
  9
$DIMBLK
  1

  9
$DIMASO
 70
     1
  9
$DIMSHO
 70
     1
  9
$DIMPOST
  1

  9
$DIMAPOST
  1

  9
$DIMALT
 70
     0
  9
$DIMALTD
 70
     2
  9
$DIMALTF
 40
25.4
  9
$DIMLFAC
 40
1.0
  9
$DIMTOFL
 70
     0
  9
$DIMTVP
 40
0.0
  9
$DIMTIX
 70
     0
  9
$DIMSOXD
 70
     0
  9
$DIMSAH
 70
     0
  9
$DIMBLK1
  1

  9
$DIMBLK2
  1

  9
$DIMSTYLE
  2
Standard
  9
$DIMCLRD
 70
     0
  9
$DIMCLRE
 70
     0
  9
$DIMCLRT
 70
     0
  9
$DIMTFAC
 40
1.0
  9
$DIMGAP
 40
0.09
  9
$DIMJUST
 70
     0
  9
$DIMSD1
 70
     0
  9
$DIMSD2
 70
     0
  9
$DIMTOLJ
 70
     1
  9
$DIMTZIN
 70
     0
  9
$DIMALTZ
 70
     0
  9
$DIMALTTZ
 70
     0
  9
$DIMUPT
 70
     0
  9
$DIMDEC
 70
     4
  9
$DIMTDEC
 70
     4
  9
$DIMALTU
 70
     2
  9
$DIMALTTD
 70
     2
  9
$DIMTXSTY
  7
Standard
  9
$DIMAUNIT
 70
     0
  9
$DIMADEC
 70
     0
  9
$DIMALTRND
 40
0.0
  9
$DIMAZIN
 70
     0
  9
$DIMDSEP
 70
    46
  9
$DIMATFIT
 70
     3
  9
$DIMFRAC
 70
     0
  9
$DIMLDRBLK
  1

  9
$DIMLUNIT
 70
     2
  9
$DIMLWD
 70
    -2
  9
$DIMLWE
 70
    -2
  9
$DIMTMOVE
 70
     0
  9
$LUNITS
 70
     2
  9
$LUPREC
 70
     4
  9
$SKETCHINC
 40
0.1
  9
$FILLETRAD
 40
0.0
  9
$AUNITS
 70
     0
  9
$AUPREC
 70
     0
  9
$MENU
  1
.
  9
$ELEVATION
 40
0.0
  9
$PELEVATION
 40
0.0
  9
$THICKNESS
 40
0.0
  9
$LIMCHECK
 70
     0
  9
$CHAMFERA
 40
0.0
  9
$CHAMFERB
 40
0.0
  9
$CHAMFERC
 40
0.0
  9
$CHAMFERD
 40
0.0
  9
$SKPOLY
 70
     0
  9
$TDCREATE
 40
2456012.517465637
  9
$TDUCREATE
 40
2456012.809132303
  9
$TDUPDATE
 40
2456153.584812581
  9
$TDUUPDATE
 40
2456153.876479248
  9
$TDINDWG
 40
0.1922503588
  9
$TDUSRTIMER
 40
0.1922503588
  9
$USRTIMER
 70
     1
  9
$ANGBASE
 50
0.0
  9
$ANGDIR
 70
     0
  9
$PDMODE
 70
     0
  9
$PDSIZE
 40
0.0
  9
$PLINEWID
 40
0.0
  9
$SPLFRAME
 70
     0
  9
$SPLINETYPE
 70
     6
  9
$SPLINESEGS
 70
     8
  9
$HANDSEED
  5
28F8
  9
$SURFTAB1
 70
     6
  9
$SURFTAB2
 70
     6
  9
$SURFTYPE
 70
     6
  9
$SURFU
 70
     6
  9
$SURFV
 70
     6
  9
$UCSBASE
  2

  9
$UCSNAME
  2

  9
$UCSORG
 10
0.0
 20
0.0
 30
0.0
  9
$UCSXDIR
 10
1.0
 20
0.0
 30
0.0
  9
$UCSYDIR
 10
0.0
 20
1.0
 30
0.0
  9
$UCSORTHOREF
  2

  9
$UCSORTHOVIEW
 70
     0
  9
$UCSORGTOP
 10
0.0
 20
0.0
 30
0.0
  9
$UCSORGBOTTOM
 10
0.0
 20
0.0
 30
0.0
  9
$UCSORGLEFT
 10
0.0
 20
0.0
 30
0.0
  9
$UCSORGRIGHT
 10
0.0
 20
0.0
 30
0.0
  9
$UCSORGFRONT
 10
0.0
 20
0.0
 30
0.0
  9
$UCSORGBACK
 10
0.0
 20
0.0
 30
0.0
  9
$PUCSBASE
  2

  9
$PUCSNAME
  2

  9
$PUCSORG
 10
0.0
 20
0.0
 30
0.0
  9
$PUCSXDIR
 10
1.0
 20
0.0
 30
0.0
  9
$PUCSYDIR
 10
0.0
 20
1.0
 30
0.0
  9
$PUCSORTHOREF
  2

  9
$PUCSORTHOVIEW
 70
     0
  9
$PUCSORGTOP
 10
0.0
 20
0.0
 30
0.0
  9
$PUCSORGBOTTOM
 10
0.0
 20
0.0
 30
0.0
  9
$PUCSORGLEFT
 10
0.0
 20
0.0
 30
0.0
  9
$PUCSORGRIGHT
 10
0.0
 20
0.0
 30
0.0
  9
$PUCSORGFRONT
 10
0.0
 20
0.0
 30
0.0
  9
$PUCSORGBACK
 10
0.0
 20
0.0
 30
0.0
  9
$USERI1
 70
     0
  9
$USERI2
 70
     0
  9
$USERI3
 70
     0
  9
$USERI4
 70
     0
  9
$USERI5
 70
     0
  9
$USERR1
 40
0.0
  9
$USERR2
 40
0.0
  9
$USERR3
 40
0.0
  9
$USERR4
 40
0.0
  9
$USERR5
 40
1.0
  9
$WORLDVIEW
 70
     1
  9
$SHADEDGE
 70
     3
  9
$SHADEDIF
 70
    70
  9
$TILEMODE
 70
     1
  9
$MAXACTVP
 70
    64
  9
$PINSBASE
 10
0.0
 20
0.0
 30
0.0
  9
$PLIMCHECK
 70
     0
  9
$PEXTMIN
 10
0.0
 20
0.0
 30
0.0
  9
$PEXTMAX
 10
0.0
 20
0.0
 30
0.0
  9
$PLIMMIN
 10
0.0
 20
0.0
  9
$PLIMMAX
 10
12.0
 20
9.0
  9
$UNITMODE
 70
     0
  9
$VISRETAIN
 70
     1
  9
$PLINEGEN
 70
     0
  9
$PSLTSCALE
 70
     1
  9
$TREEDEPTH
 70
  3020
  9
$CMLSTYLE
  2
Standard
  9
$CMLJUST
 70
     0
  9
$CMLSCALE
 40
1.0
  9
$PROXYGRAPHICS
 70
     1
  9
$MEASUREMENT
 70
     0
  9
$CELWEIGHT
370
    -1
  9
$ENDCAPS
280
     0
  9
$JOINSTYLE
280
     0
  9
$LWDISPLAY
290
     0
  9
$INSUNITS
 70
     1
  9
$HYPERLINKBASE
  1

  9
$STYLESHEET
  1

  9
$XEDIT
290
     1
  9
$CEPSNTYPE
380
     0
  9
$PSTYLEMODE
290
     1
  9
$FINGERPRINTGUID
  2
{54E25747-DECD-4F46-8E40-CC13C71438EE}
  9
$VERSIONGUID
  2
{D40B7B65-B929-44F3-9AFB-A56F5E42163F}
  9
$EXTNAMES
290
     1
  9
$PSVPSCALE
 40
0.0
  9
$OLESTARTUP
290
     0
  9
$SORTENTS
280
   127
  9
$INDEXCTL
280
     0
  9
$HIDETEXT
280
     1
  9
$XCLIPFRAME
290
     0
  9
$HALOGAP
280
     0
  9
$OBSCOLOR
 70
   257
  9
$OBSLTYPE
280
     0
  9
$INTERSECTIONDISPLAY
280
     0
  9
$INTERSECTIONCOLOR
 70
   257
  9
$DIMASSOC
280
     2
  9
$PROJECTNAME
  1

  0
ENDSEC
  0
SECTION
  2
CLASSES
  0
CLASS
  1
ACDBDICTIONARYWDFLT
  2
AcDbDictionaryWithDefault
  3
ObjectDBX Classes
 90
        0
 91
        1
280
     0
281
     0
  0
CLASS
  1
DICTIONARYVAR
  2
AcDbDictionaryVar
  3
ObjectDBX Classes
 90
        0
 91
       13
280
     0
281
     0
  0
CLASS
  1
TABLESTYLE
  2
AcDbTableStyle
  3
ObjectDBX Classes
 90
     4095
 91
        2
280
     0
281
     0
  0
CLASS
  1
MATERIAL
  2
AcDbMaterial
  3
ObjectDBX Classes
 90
     1153
 91
        3
280
     0
281
     0
  0
CLASS
  1
VISUALSTYLE
  2
AcDbVisualStyle
  3
ObjectDBX Classes
 90
     4095
 91
       26
280
     0
281
     0
  0
CLASS
  1
SCALE
  2
AcDbScale
  3
ObjectDBX Classes
 90
     1153
 91
       33
280
     0
281
     0
  0
CLASS
  1
MLEADERSTYLE
  2
AcDbMLeaderStyle
  3
ACDB_MLEADERSTYLE_CLASS
 90
     4095
 91
        2
280
     0
281
     0
  0
CLASS
  1
CELLSTYLEMAP
  2
AcDbCellStyleMap
  3
ObjectDBX Classes
 90
     1152
 91
        4
280
     0
281
     0
  0
CLASS
  1
EXACXREFPANELOBJECT
  2
ExAcXREFPanelObject
  3
EXAC_ESW
 90
     1025
 91
        0
280
     0
281
     0
  0
CLASS
  1
NPOCOLLECTION
  2
AcDbImpNonPersistentObjectsCollection
  3
ObjectDBX Classes
 90
     1153
 91
        0
280
     0
281
     0
  0
CLASS
  1
LAYER_INDEX
  2
AcDbLayerIndex
  3
ObjectDBX Classes
 90
        0
 91
        0
280
     0
281
     0
  0
CLASS
  1
SPATIAL_INDEX
  2
AcDbSpatialIndex
  3
ObjectDBX Classes
 90
        0
 91
        0
280
     0
281
     0
  0
CLASS
  1
IDBUFFER
  2
AcDbIdBuffer
  3
ObjectDBX Classes
 90
        0
 91
        0
280
     0
281
     0
  0
CLASS
  1
DMMAPMANAGER
  2
AcMapDMMapManager
  3
AcMapDisplayManagement
 90
     1024
 91
        1
280
     0
281
     0
  0
CLASS
  1
DMSTYLELIBRARY
  2
AcMapDMStyleLibrary
  3
AcMapDisplayManagement
 90
     1024
 91
        1
280
     0
281
     0
  0
CLASS
  1
DMSTYLECATEGORY
  2
AcMapDMStyleCategory
  3
AcMapDisplayManagement
 90
     1024
 91
        1
280
     0
281
     0
  0
CLASS
  1
DATATABLE
  2
AcDbDataTable
  3
ObjectDBX Classes
 90
        0
 91
        1
280
     0
281
     0
  0
CLASS
  1
DMMAP
  2
AcMapDMMap
  3
AcMapDisplayManagement
 90
     1024
 91
        1
280
     0
281
     0
  0
CLASS
  1
DMBASEELEMENT
  2
AcMapDMBaseElement
  3
AcMapDisplayManagement
 90
     1024
 91
        1
280
     0
281
     0
  0
CLASS
  1
DMDEFAULTSTYLE
  2
AcMapDMDefaultStyle
  3
AcMapDisplayManagement
 90
     1024
 91
        1
280
     0
281
     0
  0
CLASS
  1
DMSTYLEREFERENCE
  2
AcMapDMStyleReference
  3
AcMapDisplayManagement
 90
     1024
 91
        1
280
     0
281
     0
  0
CLASS
  1
DMSURROGATESTYLESETS
  2
AcMapDMSurrogateStyleSets
  3
AcMapDisplayManagement
 90
     1153
 91
        1
280
     0
281
     0
  0
CLASS
  1
SORTENTSTABLE
  2
AcDbSortentsTable
  3
ObjectDBX Classes
 90
        0
 91
        1
280
     0
281
     0
  0
CLASS
  1
DMSTYLIZEDENTITIESTABLE
  2
AcMapDMStylizedEntitiesTable
  3
AcMapDisplayManagement
 90
     1024
 91
        1
280
     0
281
     0
  0
CLASS
  1
MAPGWSUNDOOBJECT
  2
AcMapGWSUndoRecorder
  3
AcMapFeatureSourceManager
 90
     1025
 91
        1
280
     0
281
     0
  0
CLASS
  1
SUN
  2
AcDbSun
  3
SCENEOE
 90
     1153
 91
        1
280
     0
281
     0
  0
CLASS
  1
GEODATA
  2
AcDbGeoData
  3
ObjectDBX Classes
 90
     4095
 91
        1
280
     0
281
     0
  0
CLASS
  1
MAPRESOURCEMANAGEROBJECT
  2
AcMapResourceManager
  3
AcMapSharedComponents
 90
     1024
 91
        0
280
     0
281
     0
  0
CLASS
  1
MULTILEADER
  2
AcDbMLeader
  3
ACDB_MLEADER_CLASS
 90
     1025
 91
        7
280
     0
281
     1
  0
CLASS
  1
PLOTSETTINGS
  2
AcDbPlotSettings
  3
ObjectDBX Classes
 90
        0
 91
        1
280
     0
281
     0
  0
ENDSEC
  0
SECTION
  2
TABLES
  0
TABLE
  2
VPORT
  5
8
102
{ACAD_XDICTIONARY
360
288A
102
}
330
0
100
AcDbSymbolTable
 70
     1
  0
VPORT
  5
94
330
8
100
AcDbSymbolTableRecord
100
AcDbViewportTableRecord
  2
*Active
 70
     0
 10
0.0
 20
0.0
 11
1.0
 21
1.0
 12
3.177424605910087
 22
4.192915035015131
 13
0.0
 23
0.0
 14
0.5
 24
0.5
 15
0.5
 25
0.5
 16
0.0
 26
0.0
 36
1.0
 17
0.0
 27
0.0
 37
0.0
 40
7.175971474040072
 41
1.784580498866213
 42
50.0
 43
0.0
 44
0.0
 50
0.0
 51
0.0
 71
     0
 72
  1000
 73
     1
 74
     3
 75
     0
 76
     0
 77
     0
 78
     0
281
     0
 65
     1
110
0.0
120
0.0
130
0.0
111
1.0
121
0.0
131
0.0
112
0.0
122
1.0
132
0.0
 79
     0
146
0.0
1001
ACAD_NAV_VCDISPLAY
1070
     3
  0
ENDTAB
  0
TABLE
  2
LTYPE
  5
5
330
0
100
AcDbSymbolTable
 70
     2
  0
LTYPE
  5
14
330
5
100
AcDbSymbolTableRecord
100
AcDbLinetypeTableRecord
  2
ByBlock
 70
     0
  3

 72
    65
 73
     0
 40
0.0
  0
LTYPE
  5
15
330
5
100
AcDbSymbolTableRecord
100
AcDbLinetypeTableRecord
  2
ByLayer
 70
     0
  3

 72
    65
 73
     0
 40
0.0
  0
LTYPE
  5
16
330
5
100
AcDbSymbolTableRecord
100
AcDbLinetypeTableRecord
  2
Continuous
 70
     0
  3
Solid line
 72
    65
 73
     0
 40
0.0
  0
LTYPE
  5
1F2
330
5
100
AcDbSymbolTableRecord
100
AcDbLinetypeTableRecord
  2
HIDDEN
 70
     0
  3
Hidden __ __ __ __ __ __ __ __ __ __ __ __ __ _
 72
    65
 73
     2
 40
0.375
 49
0.25
 74
     0
 49
-0.125
 74
     0
  0
ENDTAB
  0
TABLE
  2
LAYER
  5
2
102
{ACAD_XDICTIONARY
360
20C
102
}
330
0
100
AcDbSymbolTable
 70
    12
  0
LAYER
  5
10
102
{ACAD_XDICTIONARY
360
E6
102
}
330
2
100
AcDbSymbolTableRecord
100
AcDbLayerTableRecord
  2
0
 70
     0
 62
     7
  6
Continuous
370
    -3
390
F
  0
LAYER
  5
1FEF
330
2
100
AcDbSymbolTableRecord
100
AcDbLayerTableRecord
  2
NETAFIM-L-DETL-025M
 70
     0
 62
     2
  6
Continuous
370
    -3
390
F
  0
LAYER
  5
1FF0
330
2
100
AcDbSymbolTableRecord
100
AcDbLayerTableRecord
  2
NETAFIM-LG-DETL-ANNO
 70
     0
 62
     1
  6
Continuous
370
    -3
390
F
  0
LAYER
  5
1FF1
102
{ACAD_XDICTIONARY
360
1FF2
102
}
330
2
100
AcDbSymbolTableRecord
100
AcDbLayerTableRecord
  2
NETAFIM-D-TEXT-025M
 70
     0
 62
     2
  6
Continuous
370
    -3
390
F
  0
LAYER
  5
1FF3
102
{ACAD_XDICTIONARY
360
1FF4
102
}
330
2
100
AcDbSymbolTableRecord
100
AcDbLayerTableRecord
  2
NETAFIM-D-070M
 70
     0
 62
     6
  6
Continuous
370
    -3
390
F
  0
LAYER
  5
1FF5
102
{ACAD_XDICTIONARY
360
1FF6
102
}
330
2
100
AcDbSymbolTableRecord
100
AcDbLayerTableRecord
  2
NETAFIM-D-NPLT
 70
     0
 62
     1
  6
Continuous
370
    -3
390
F
  0
LAYER
  5
1FF7
330
2
100
AcDbSymbolTableRecord
100
AcDbLayerTableRecord
  2
NETAFIM-L-DETL-013M
 70
     0
 62
     1
  6
Continuous
370
    -3
390
F
  0
LAYER
  5
1FF8
102
{ACAD_XDICTIONARY
360
1FF9
102
}
330
2
100
AcDbSymbolTableRecord
100
AcDbLayerTableRecord
  2
NETAFIM-L-DETL-TEXT-025M
 70
     0
 62
     2
  6
Continuous
370
    -3
390
F
  0
LAYER
  5
1FFA
102
{ACAD_XDICTIONARY
360
1FFB
102
}
330
2
100
AcDbSymbolTableRecord
100
AcDbLayerTableRecord
  2
NETAFIM-L-DETL-TEXT-LEADER-025M
 70
     0
 62
     2
  6
Continuous
370
    -3
390
F
1001
AcAecLayerStandard
1000

1000

  0
LAYER
  5
1FFD
330
2
100
AcDbSymbolTableRecord
100
AcDbLayerTableRecord
  2
NETAFIM-L-DETL-035M
 70
     0
 62
     4
  6
Continuous
370
    -3
390
F
  0
LAYER
  5
1FFE
330
2
100
AcDbSymbolTableRecord
100
AcDbLayerTableRecord
  2
NETAFIM-L-DETL-HIDD-035M
 70
     0
 62
     4
  6
HIDDEN
370
    -3
390
F
  0
LAYER
  5
1FFF
330
2
100
AcDbSymbolTableRecord
100
AcDbLayerTableRecord
  2
NETAFIM-L-DETL-025M-TUBING
 70
     0
 62
    25
  6
Continuous
370
    -3
390
F
1001
AcAecLayerStandard
1000

1000

  0
ENDTAB
  0
TABLE
  2
STYLE
  5
3
330
0
100
AcDbSymbolTable
 70
     6
  0
STYLE
  5
11
330
3
100
AcDbSymbolTableRecord
100
AcDbTextStyleTableRecord
  2
Standard
 70
     0
 40
0.0
 41
1.0
 50
0.0
 71
     0
 42
0.2
  3
arial.ttf
  4

1001
ACAD
1000
Arial
1071
       34
  0
STYLE
  5
180
330
3
100
AcDbSymbolTableRecord
100
AcDbTextStyleTableRecord
  2
Legend
 70
     0
 40
0.0
 41
1.0
 50
0.0
 71
     0
 42
0.2
  3
CALIBRI.TTF
  4

1001
ACAD
1000
Calibri
1071
      256
  0
STYLE
  5
1A9
330
3
100
AcDbSymbolTableRecord
100
AcDbTextStyleTableRecord
  2
DETAIL NUMBER
 70
     0
 40
0.0
 41
1.0
 50
0.0
 71
     0
 42
0.24
  3
swiss.ttf
  4

1001
ACAD
1000
Swis721 BT
1071
       34
  0
STYLE
  5
1AA
330
3
100
AcDbSymbolTableRecord
100
AcDbTextStyleTableRecord
  2
DETAIL TITLE
 70
     0
 40
0.0
 41
1.0
 50
0.0
 71
     0
 42
0.18
  3
swiss.ttf
  4

1001
ACAD
1000
Swis721 BT
1071
       34
  0
STYLE
  5
1AB
330
3
100
AcDbSymbolTableRecord
100
AcDbTextStyleTableRecord
  2
DETAIL TEXT
 70
     0
 40
0.0
 41
1.0
 50
0.0
 71
     0
 42
0.09
  3
ROMANS.SHX
  4

  0
STYLE
  5
2000
330
3
100
AcDbSymbolTableRecord
100
AcDbTextStyleTableRecord
  2
Netafim Detail
 70
     0
 40
0.09
 41
1.0
 50
0.0
 71
     0
 42
0.2
  3
arial.ttf
  4

1001
ACAD
1000
Arial
1071
       34
  0
ENDTAB
  0
TABLE
  2
VIEW
  5
6
330
0
100
AcDbSymbolTable
 70
     0
  0
ENDTAB
  0
TABLE
  2
UCS
  5
7
330
0
100
AcDbSymbolTable
 70
     0
  0
ENDTAB
  0
TABLE
  2
APPID
  5
9
330
0
100
AcDbSymbolTable
 70
    18
  0
APPID
  5
12
330
9
100
AcDbSymbolTableRecord
100
AcDbRegAppTableRecord
  2
ACAD
 70
     0
  0
APPID
  5
DD
330
9
100
AcDbSymbolTableRecord
100
AcDbRegAppTableRecord
  2
AcadAnnoPO
 70
     0
  0
APPID
  5
DE
330
9
100
AcDbSymbolTableRecord
100
AcDbRegAppTableRecord
  2
AcadAnnotative
 70
     0
  0
APPID
  5
DF
330
9
100
AcDbSymbolTableRecord
100
AcDbRegAppTableRecord
  2
ACAD_DSTYLE_DIMJAG
 70
     0
  0
APPID
  5
E0
330
9
100
AcDbSymbolTableRecord
100
AcDbRegAppTableRecord
  2
ACAD_DSTYLE_DIMTALN
 70
     0
  0
APPID
  5
107
330
9
100
AcDbSymbolTableRecord
100
AcDbRegAppTableRecord
  2
ACAD_MLEADERVER
 70
     0
  0
APPID
  5
184
330
9
100
AcDbSymbolTableRecord
100
AcDbRegAppTableRecord
  2
AcMapDMDisplayStyleRegapp
 70
     0
  0
APPID
  5
18E
330
9
100
AcDbSymbolTableRecord
100
AcDbRegAppTableRecord
  2
ADE
 70
     0
  0
APPID
  5
191
330
9
100
AcDbSymbolTableRecord
100
AcDbRegAppTableRecord
  2
MapGWS
 70
     0
  0
APPID
  5
194
330
9
100
AcDbSymbolTableRecord
100
AcDbRegAppTableRecord
  2
DCO15
 70
     0
  0
APPID
  5
19E
330
9
100
AcDbSymbolTableRecord
100
AcDbRegAppTableRecord
  2
LandFX
 70
     0
  0
APPID
  5
1AC
330
9
100
AcDbSymbolTableRecord
100
AcDbRegAppTableRecord
  2
RAK
 70
     0
  0
APPID
  5
1AD
330
9
100
AcDbSymbolTableRecord
100
AcDbRegAppTableRecord
  2
ACAD_EXEMPT_FROM_CAD_STANDARDS
 70
     0
  0
APPID
  5
209
330
9
100
AcDbSymbolTableRecord
100
AcDbRegAppTableRecord
  2
ACAD_PSEXT
 70
     0
  0
APPID
  5
20A
330
9
100
AcDbSymbolTableRecord
100
AcDbRegAppTableRecord
  2
AcAecLayerStandard
 70
     0
  0
APPID
  5
20B
330
9
100
AcDbSymbolTableRecord
100
AcDbRegAppTableRecord
  2
ACAD_NAV_VCDISPLAY
 70
     0
  0
APPID
  5
24E3
330
9
100
AcDbSymbolTableRecord
100
AcDbRegAppTableRecord
  2
AcCmTransparency
 70
     0
  0
APPID
  5
2593
330
9
100
AcDbSymbolTableRecord
100
AcDbRegAppTableRecord
  2
ACAD_DSTYLE_DIMBREAK
 70
     0
  0
ENDTAB
  0
TABLE
  2
DIMSTYLE
  5
A
330
0
100
AcDbSymbolTable
 70
     1
100
AcDbDimStyleTable
 71
     1
340
27
  0
DIMSTYLE
105
27
330
A
100
AcDbSymbolTableRecord
100
AcDbDimStyleTableRecord
  2
Standard
 70
     0
340
11
  0
ENDTAB
  0
TABLE
  2
BLOCK_RECORD
  5
1
330
0
100
AcDbSymbolTable
 70
     1
  0
BLOCK_RECORD
  5
1F
102
{ACAD_XDICTIONARY
360
15D
102
}
330
1
100
AcDbSymbolTableRecord
100
AcDbBlockTableRecord
  2
*Model_Space
340
22
  0
BLOCK_RECORD
  5
58
330
1
100
AcDbSymbolTableRecord
100
AcDbBlockTableRecord
  2
*Paper_Space
340
59
  0
BLOCK_RECORD
  5
5D
330
1
100
AcDbSymbolTableRecord
100
AcDbBlockTableRecord
  2
*Paper_Space0
340
5E
  0
ENDTAB
  0
ENDSEC
  0
SECTION
  2
BLOCKS
  0
BLOCK
  5
20
330
1F
100
AcDbEntity
  8
0
100
AcDbBlockBegin
  2
*Model_Space
 70
     0
 10
0.0
 20
0.0
 30
0.0
  3
*Model_Space
  1

  0
ENDBLK
  5
21
330
1F
100
AcDbEntity
  8
0
100
AcDbBlockEnd
  0
BLOCK
  5
5A
330
58
100
AcDbEntity
 67
     1
  8
0
100
AcDbBlockBegin
  2
*Paper_Space
 70
     0
 10
0.0
 20
0.0
 30
0.0
  3
*Paper_Space
  1

  0
ENDBLK
  5
5B
330
58
100
AcDbEntity
 67
     1
  8
0
100
AcDbBlockEnd
  0
BLOCK
  5
5F
330
5D
100
AcDbEntity
 67
     1
  8
0
100
AcDbBlockBegin
  2
*Paper_Space0
 70
     0
 10
0.0
 20
0.0
 30
0.0
  3
*Paper_Space0
  1

  0
ENDBLK
  5
60
330
5D
100
AcDbEntity
 67
     1
  8
0
100
AcDbBlockEnd
  0
ENDSEC
  0
SECTION
  2
ENTITIES
  0
MTEXT
  5
259C
330
1F
100
AcDbEntity
  8
NETAFIM-D-NPLT
100
AcDbMText
 10
-0.7827171174748458
 20
0.2352495300830739
 30
0.0
 40
0.06
 41
6.843161446901433
 71
     1
 72
     5
  3
{\fArial|b0|i0|c0|p34;LIMITATIONS:\P\PALLOWING FOR A WIDE VARIETY OF APPLICATIONS AND CONDITIONS, NETAFIM IRRIGATION INC. IS NOT RESPONSIBLE FOR CORRECTNESS OR APPLICABILITY TO PURPOSE OR COMPATIBILITY TO ANY SITE OR JOB CONDITION. WARRANTY FOR SUITA
  3
BILITY IS NOT GIVEN OR IMPLIED. MODIFICATIONS FOR SPECIFIC PURPOSES MAY BE NECESSARY AND ARE THE SPECIFIERS' RESPONSIBILITY. THE USE OF THESE DETAILS SHALL NOT BE RESTRICTED AND PUBLICATION THEREOF IS NOT LIMITED TO ANY PURPOSE.  REPRODUCTION, PUBLIC
  1
ATION AND REUSE BY ANY METHOD IN WHOLE OR PART IS FULLY AUTHORIZED. OWNERSHIP IS RETAINED BY NETAFIM IRRIGATION INC.  VISUAL CONTACT WITH THESE DETAILS SHALL CONSTITUTE PRIMA FACIA EVIDENCE OF THE ACCEPTANCE OF THESE RESTRICTIONS.}
  7
DETAIL TEXT
 11
0.0000000000000001
 21
1.0
 31
0.0
 73
     1
 44
1.0
1001
ACAD
1000
ACAD_MTEXT_COLUMN_INFO_BEGIN
1070
    75
1070
     2
1070
    79
1070
     0
1070
    76
1070
     1
1070
    78
1070
     0
1070
    48
1040
6.843161446901433
1070
    49
1040
0.45
1070
    50
1070
     1
1040
0.0
1000
ACAD_MTEXT_COLUMN_INFO_END
  0
LWPOLYLINE
  5
259D
330
1F
100
AcDbEntity
  8
NETAFIM-D-NPLT
100
AcDbPolyline
 90
        4
 70
     1
 43
0.0
 10
0.0
 20
7.124999999999998
 10
-0.8951802582263113
 20
7.124999999999998
 10
-0.8951802582263113
 20
0.0
 10
0.0
 20
0.0
  0
HATCH
  5
260C
330
1F
100
AcDbEntity
  8
NETAFIM-L-DETL-013M
100
AcDbHatch
 10
0.0
 20
0.0
 30
0.0
210
0.0
220
0.0
230
1.0
  2
SOLID
 70
     1
 71
     0
 91
       12
 92
        7
 72
     1
 73
     1
 93
        3
 10
5.790280123719753
 20
0.5088580073223384
 42
1.407273687863683
 10
5.914110455730018
 20
0.5088580073223384
 42
0.0
 10
5.852195289724885
 20
0.6547209976358986
 42
0.0
 97
        0
 92
        7
 72
     1
 73
     1
 93
        3
 10
5.936064270341034
 20
0.741375672083187
 42
0.0
 10
5.896689270341035
 20
0.6486139851788782
 42
1.407273687863691
 10
5.975439270341034
 20
0.6486139851788782
 42
0.0
 97
        0
 92
        7
 72
     0
 73
     1
 93
       10
 10
6.078903918155894
 20
0.6487752618358354
 10
6.111514490154164
 20
0.5638218173297354
 10
6.161464490154163
 20
0.5638218173297354
 10
6.183979131873485
 20
0.7240218173297351
 10
6.134029131873486
 20
0.7240218173297351
 10
6.122089703871754
 20
0.6390683728236333
 10
6.089479131873485
 20
0.7240218173297351
 10
6.039529131873486
 20
0.7240218173297351
 10
6.01701449015416
 20
0.5638218173297354
 10
6.066964490154163
 20
0.5638218173297354
 97
        0
 92
        7
 72
     0
 73
     1
 93
       12
 10
6.239280241607762
 20
0.6237577921903182
 10
6.279776386040904
 20
0.6237577921903182
 10
6.285584469672659
 20
0.6650844546087989
 10
6.245088325239521
 20
0.6650844546087989
 10
6.247280301579642
 20
0.6806811766914791
 10
6.291287503302857
 20
0.6806811766914791
 10
6.297378633114693
 20
0.7240218173297351
 10
6.200629131873483
 20
0.7240218173297351
 10
6.178114490154161
 20
0.5638218173297354
 10
6.27486399139537
 20
0.5638218173297354
 10
6.280938897252276
 20
0.6070470185303041
 10
6.236931695529062
 20
0.6070470185303041
 97
        0
 92
        7
 72
     0
 73
     1
 93
        8
 10
6.319301491395371
 20
0.5638218173297354
 10
6.36925149139537
 20
0.5638218173297354
 10
6.385691227257787
 20
0.6807966161291646
 10
6.415728727257786
 20
0.6807966161291646
 10
6.421803633114691
 20
0.7240218173297351
 10
6.311778633114695
 20
0.7240218173297351
 10
6.305703727257785
 20
0.6807966161291646
 10
6.335741227257788
 20
0.6807966161291646
 97
        0
 92
        7
 72
     0
 73
     1
 93
        8
 10
6.382767221775953
 20
0.5638218173297354
 10
6.436767221775951
 20
0.5638218173297354
 10
6.445471398315643
 20
0.5849499593903503
 10
6.488285001506223
 20
0.5849499593903503
 10
6.489352988542361
 20
0.5638218173297354
 10
6.541102988542359
 20
0.5638218173297354
 10
6.52001225842886
 20
0.7240218173297351
 10
6.462639995386112
 20
0.7240218173297351
 97
        0
 92
       22
 72
     0
 73
     1
 93
        3
 10
6.461459090316417
 20
0.6237577921903182
 10
6.483605958546796
 20
0.6775161432572361
 10
6.48632334003064
 20
0.6237577921903182
 97
        0
 92
        7
 72
     0
 73
     1
 93
       10
 10
6.615884722948692
 20
0.6237577921903182
 10
6.65638086738183
 20
0.6237577921903182
 10
6.66218895101359
 20
0.6650844546087989
 10
6.621692806580448
 20
0.6650844546087989
 10
6.623884782920569
 20
0.6806811766914791
 10
6.667891984643784
 20
0.6806811766914791
 10
6.673983114455623
 20
0.7240218173297351
 10
6.577100912732404
 20
0.7240218173297351
 10
6.554586271013082
 20
0.5638218173297354
 10
6.607461271013082
 20
0.5638218173297354
 97
        0
 92
        7
 72
     0
 73
     1
 93
        4
 10
6.741933114455619
 20
0.7240218173297351
 10
6.689058114455619
 20
0.7240218173297351
 10
6.6665434727363
 20
0.5638218173297354
 10
6.7194184727363
 20
0.5638218173297354
 97
        0
 92
        7
 72
     0
 73
     1
 93
       13
 10
6.80209060181555
 20
0.6425896221603687
 10
6.812460580050981
 20
0.5638218173297354
 10
6.846862041544532
 20
0.5638218173297354
 10
6.877242683095666
 20
0.6491494233452482
 10
6.877242683095666
 20
0.5638218173297354
 10
6.925392683095665
 20
0.5638218173297354
 10
6.925392683095665
 20
0.7240218173297351
 10
6.869499315857147
 20
0.7240218173297351
 10
6.840507043797714
 20
0.6425936103704402
 10
6.82978681697746
 20
0.7240218173297351
 10
6.77594090803258
 20
0.7240218173297351
 10
6.730004297234017
 20
0.5638218173297354
 10
6.779504297234019
 20
0.5638218173297354
 97
        0
 92
        7
 72
     0
 73
     1
 93
        8
 10
6.967131383606691
 20
0.7240218173297351
 10
6.94238138360669
 20
0.7240218173297351
 10
6.94238138360669
 20
0.7192968173297345
 10
6.951381383606687
 20
0.7192968173297345
 10
6.951381383606687
 20
0.694321817329735
 10
6.958131383606691
 20
0.694321817329735
 10
6.958131383606691
 20
0.7192968173297345
 10
6.967131383606691
 20
0.7192968173297345
 97
        0
 92
        7
 72
     0
 73
     1
 93
       13
 10
6.98198138360669
 20
0.7240218173297351
 10
6.97095638360669
 20
0.7240218173297351
 10
6.97095638360669
 20
0.694321817329735
 10
6.97770638360669
 20
0.694321817329735
 10
6.97770638360669
 20
0.7157621053595414
 10
6.98636888360669
 20
0.694321817329735
 10
6.99086888360669
 20
0.694321817329735
 10
6.99953138360669
 20
0.7157621053595414
 10
6.99953138360669
 20
0.694321817329735
 10
7.00628138360669
 20
0.694321817329735
 10
7.00628138360669
 20
0.7240218173297351
 10
6.99525638360669
 20
0.7240218173297351
 10
6.98861888360669
 20
0.7075935446835189
 97
        0
 75
     0
 76
     1
 47
0.0019728894204142
 98
       12
 10
5.837872135110647
 20
0.5103152141502978
 10
5.94355649336536
 20
0.6443730516044504
 10
6.057233788517159
 20
0.6372706487929705
 10
6.225973522372619
 20
0.6372706487929705
 10
6.352972374982275
 20
0.6354950490973615
 10
6.437342238882045
 20
0.6124122429818311
 10
6.437342238882045
 20
0.6124122429818311
 10
6.595424728588
 20
0.6239536450323336
 10
6.70999012514795
 20
0.6257292467424663
 10
6.795248096511798
 20
0.6488120528579949
 10
6.955994893470176
 20
0.7224994724581287
 10
6.972868868672499
 20
0.7233872723059314
450
        0
451
        0
460
0.0
461
0.0
452
        1
462
1.0
453
        2
463
0.0
 63
     5
421
      255
463
1.0
 63
     7
421
 16777215
470
LINEAR
1001
ACAD
1010
0.0
1020
0.0
1030
0.0
  0
LWPOLYLINE
  5
260D
330
1F
100
AcDbEntity
  8
NETAFIM-L-DETL-013M
100
AcDbPolyline
 90
        3
 70
     1
 43
0.0
 10
5.936064270341034
 20
0.741375672083187
 10
5.896689270341035
 20
0.6486139851788782
 42
1.407273687863686
 10
5.975439270341034
 20
0.6486139851788764
  0
LWPOLYLINE
  5
260E
330
1F
100
AcDbEntity
  8
NETAFIM-L-DETL-013M
100
AcDbPolyline
 90
        3
 70
     1
 43
0.0
 10
5.852195289724885
 20
0.6547209976358986
 10
5.790280123719753
 20
0.5088580073223384
 42
1.407273687863686
 10
5.914110455730018
 20
0.5088580073223384
  0
LWPOLYLINE
  5
260F
330
1F
100
AcDbEntity
  8
NETAFIM-L-DETL-013M
100
AcDbPolyline
 90
        2
 70
     0
 43
0.0
 10
6.039529131873486
 20
0.7240218173297351
 10
6.089479131873485
 20
0.7240218173297351
  0
LWPOLYLINE
  5
2610
330
1F
100
AcDbEntity
  8
NETAFIM-L-DETL-013M
100
AcDbPolyline
 90
        2
 70
     0
 43
0.0
 10
6.134029131873486
 20
0.7240218173297351
 10
6.183979131873485
 20
0.7240218173297351
  0
LWPOLYLINE
  5
2611
330
1F
100
AcDbEntity
  8
NETAFIM-L-DETL-013M
100
AcDbPolyline
 90
        2
 70
     0
 43
0.0
 10
6.311778633114695
 20
0.7240218173297351
 10
6.421803633114691
 20
0.7240218173297351
  0
LWPOLYLINE
  5
2612
330
1F
100
AcDbEntity
  8
NETAFIM-L-DETL-013M
100
AcDbPolyline
 90
        2
 70
     0
 43
0.0
 10
6.462639995386112
 20
0.7240218173297351
 10
6.52001225842886
 20
0.7240218173297351
  0
LWPOLYLINE
  5
2613
330
1F
100
AcDbEntity
  8
NETAFIM-L-DETL-013M
100
AcDbPolyline
 90
        2
 70
     0
 43
0.0
 10
6.577100912732404
 20
0.7240218173297351
 10
6.673983114455623
 20
0.7240218173297351
  0
LWPOLYLINE
  5
2614
330
1F
100
AcDbEntity
  8
NETAFIM-L-DETL-013M
100
AcDbPolyline
 90
        2
 70
     0
 43
0.0
 10
6.689058114455619
 20
0.7240218173297351
 10
6.741933114455619
 20
0.7240218173297351
  0
LWPOLYLINE
  5
2615
330
1F
100
AcDbEntity
  8
NETAFIM-L-DETL-013M
100
AcDbPolyline
 90
        2
 70
     0
 43
0.0
 10
6.77594090803258
 20
0.7240218173297351
 10
6.82978681697746
 20
0.7240218173297351
  0
LWPOLYLINE
  5
2616
330
1F
100
AcDbEntity
  8
NETAFIM-L-DETL-013M
100
AcDbPolyline
 90
        2
 70
     0
 43
0.0
 10
6.869499315857147
 20
0.7240218173297351
 10
6.925392683095665
 20
0.7240218173297351
  0
LWPOLYLINE
  5
2617
330
1F
100
AcDbEntity
  8
NETAFIM-L-DETL-013M
100
AcDbPolyline
 90
        2
 70
     0
 43
0.0
 10
6.94238138360669
 20
0.7240218173297351
 10
6.967131383606691
 20
0.7240218173297351
  0
LWPOLYLINE
  5
2618
330
1F
100
AcDbEntity
  8
NETAFIM-L-DETL-013M
100
AcDbPolyline
 90
        2
 70
     0
 43
0.0
 10
6.97095638360669
 20
0.7240218173297351
 10
6.98198138360669
 20
0.7240218173297351
  0
LWPOLYLINE
  5
2619
330
1F
100
AcDbEntity
  8
NETAFIM-L-DETL-013M
100
AcDbPolyline
 90
        2
 70
     0
 43
0.0
 10
6.99525638360669
 20
0.7240218173297351
 10
7.00628138360669
 20
0.7240218173297351
  0
LWPOLYLINE
  5
261A
330
1F
100
AcDbEntity
  8
NETAFIM-L-DETL-013M
100
AcDbPolyline
 90
        2
 70
     0
 43
0.0
 10
6.951381383606687
 20
0.694321817329735
 10
6.958131383606691
 20
0.694321817329735
  0
LWPOLYLINE
  5
261B
330
1F
100
AcDbEntity
  8
NETAFIM-L-DETL-013M
100
AcDbPolyline
 90
        2
 70
     0
 43
0.0
 10
6.97095638360669
 20
0.694321817329735
 10
6.97770638360669
 20
0.694321817329735
  0
LWPOLYLINE
  5
261C
330
1F
100
AcDbEntity
  8
NETAFIM-L-DETL-013M
100
AcDbPolyline
 90
        2
 70
     0
 43
0.0
 10
6.98636888360669
 20
0.694321817329735
 10
6.99086888360669
 20
0.694321817329735
  0
LWPOLYLINE
  5
261D
330
1F
100
AcDbEntity
  8
NETAFIM-L-DETL-013M
100
AcDbPolyline
 90
        2
 70
     0
 43
0.0
 10
6.99953138360669
 20
0.694321817329735
 10
7.00628138360669
 20
0.694321817329735
  0
LWPOLYLINE
  5
261E
330
1F
100
AcDbEntity
  8
NETAFIM-L-DETL-013M
100
AcDbPolyline
 90
        2
 70
     0
 43
0.0
 10
6.01701449015416
 20
0.5638218173297354
 10
6.066964490154163
 20
0.5638218173297354
  0
LWPOLYLINE
  5
261F
330
1F
100
AcDbEntity
  8
NETAFIM-L-DETL-013M
100
AcDbPolyline
 90
        2
 70
     0
 43
0.0
 10
6.111514490154164
 20
0.5638218173297354
 10
6.161464490154163
 20
0.5638218173297354
  0
LWPOLYLINE
  5
2620
330
1F
100
AcDbEntity
  8
NETAFIM-L-DETL-013M
100
AcDbPolyline
 90
        2
 70
     0
 43
0.0
 10
6.178114490154161
 20
0.5638218173297354
 10
6.27486399139537
 20
0.5638218173297354
  0
LWPOLYLINE
  5
2621
330
1F
100
AcDbEntity
  8
NETAFIM-L-DETL-013M
100
AcDbPolyline
 90
        2
 70
     0
 43
0.0
 10
6.319301491395371
 20
0.5638218173297354
 10
6.36925149139537
 20
0.5638218173297354
  0
LWPOLYLINE
  5
2622
330
1F
100
AcDbEntity
  8
NETAFIM-L-DETL-013M
100
AcDbPolyline
 90
        2
 70
     0
 43
0.0
 10
6.382767221775953
 20
0.5638218173297354
 10
6.436767221775951
 20
0.5638218173297354
  0
LWPOLYLINE
  5
2623
330
1F
100
AcDbEntity
  8
NETAFIM-L-DETL-013M
100
AcDbPolyline
 90
        2
 70
     0
 43
0.0
 10
6.489352988542361
 20
0.5638218173297354
 10
6.541102988542359
 20
0.5638218173297354
  0
LWPOLYLINE
  5
2624
330
1F
100
AcDbEntity
  8
NETAFIM-L-DETL-013M
100
AcDbPolyline
 90
        2
 70
     0
 43
0.0
 10
6.554586271013082
 20
0.5638218173297354
 10
6.607461271013082
 20
0.5638218173297354
  0
LWPOLYLINE
  5
2625
330
1F
100
AcDbEntity
  8
NETAFIM-L-DETL-013M
100
AcDbPolyline
 90
        2
 70
     0
 43
0.0
 10
6.6665434727363
 20
0.5638218173297354
 10
6.7194184727363
 20
0.5638218173297354
  0
LWPOLYLINE
  5
2626
330
1F
100
AcDbEntity
  8
NETAFIM-L-DETL-013M
100
AcDbPolyline
 90
        2
 70
     0
 43
0.0
 10
6.730004297234017
 20
0.5638218173297354
 10
6.779504297234019
 20
0.5638218173297354
  0
LWPOLYLINE
  5
2627
330
1F
100
AcDbEntity
  8
NETAFIM-L-DETL-013M
100
AcDbPolyline
 90
        2
 70
     0
 43
0.0
 10
6.812460580050981
 20
0.5638218173297354
 10
6.846862041544532
 20
0.5638218173297354
  0
LWPOLYLINE
  5
2628
330
1F
100
AcDbEntity
  8
NETAFIM-L-DETL-013M
100
AcDbPolyline
 90
        2
 70
     0
 43
0.0
 10
6.877242683095666
 20
0.5638218173297354
 10
6.925392683095665
 20
0.5638218173297354
  0
LWPOLYLINE
  5
2629
330
1F
100
AcDbEntity
  8
NETAFIM-L-DETL-013M
100
AcDbPolyline
 90
        2
 70
     0
 43
0.0
 10
6.01701449015416
 20
0.5638218173297354
 10
6.039529131873486
 20
0.7240218173297351
  0
LWPOLYLINE
  5
262A
330
1F
100
AcDbEntity
  8
NETAFIM-L-DETL-013M
100
AcDbPolyline
 90
        2
 70
     0
 43
0.0
 10
6.066964490154163
 20
0.5638218173297354
 10
6.078903918155894
 20
0.6487752618358354
  0
LWPOLYLINE
  5
262B
330
1F
100
AcDbEntity
  8
NETAFIM-L-DETL-013M
100
AcDbPolyline
 90
        2
 70
     0
 43
0.0
 10
6.122089703871754
 20
0.6390683728236333
 10
6.089479131873485
 20
0.7240218173297351
  0
LWPOLYLINE
  5
262C
330
1F
100
AcDbEntity
  8
NETAFIM-L-DETL-013M
100
AcDbPolyline
 90
        2
 70
     0
 43
0.0
 10
6.122089703871754
 20
0.6390683728236333
 10
6.134029131873486
 20
0.7240218173297351
  0
LWPOLYLINE
  5
262D
330
1F
100
AcDbEntity
  8
NETAFIM-L-DETL-013M
100
AcDbPolyline
 90
        2
 70
     0
 43
0.0
 10
6.111514490154164
 20
0.5638218173297354
 10
6.078903918155894
 20
0.6487752618358354
  0
LWPOLYLINE
  5
262E
330
1F
100
AcDbEntity
  8
NETAFIM-L-DETL-013M
100
AcDbPolyline
 90
        2
 70
     0
 43
0.0
 10
6.161464490154163
 20
0.5638218173297354
 10
6.183979131873485
 20
0.7240218173297351
  0
LWPOLYLINE
  5
262F
330
1F
100
AcDbEntity
  8
NETAFIM-L-DETL-013M
100
AcDbPolyline
 90
        2
 70
     0
 43
0.0
 10
6.178114490154161
 20
0.5638218173297354
 10
6.200629131873483
 20
0.7240218173297351
  0
LWPOLYLINE
  5
2630
330
1F
100
AcDbEntity
  8
NETAFIM-L-DETL-013M
100
AcDbPolyline
 90
        2
 70
     0
 43
0.0
 10
6.27486399139537
 20
0.5638218173297354
 10
6.280938897252276
 20
0.6070470185303041
  0
LWPOLYLINE
  5
2631
330
1F
100
AcDbEntity
  8
NETAFIM-L-DETL-013M
100
AcDbPolyline
 90
        2
 70
     0
 43
0.0
 10
6.291287503302857
 20
0.6806811766914791
 10
6.297378633114693
 20
0.7240218173297351
  0
LWPOLYLINE
  5
2632
330
1F
100
AcDbEntity
  8
NETAFIM-L-DETL-013M
100
AcDbPolyline
 90
        2
 70
     0
 43
0.0
 10
6.236931695529062
 20
0.6070470185303041
 10
6.239280241607762
 20
0.6237577921903182
  0
LWPOLYLINE
  5
2633
330
1F
100
AcDbEntity
  8
NETAFIM-L-DETL-013M
100
AcDbPolyline
 90
        2
 70
     0
 43
0.0
 10
6.245088325239521
 20
0.6650844546087989
 10
6.247280301579642
 20
0.6806811766914791
  0
LWPOLYLINE
  5
2634
330
1F
100
AcDbEntity
  8
NETAFIM-L-DETL-013M
100
AcDbPolyline
 90
        2
 70
     0
 43
0.0
 10
6.279776386040904
 20
0.6237577921903182
 10
6.285584469672659
 20
0.6650844546087989
  0
LWPOLYLINE
  5
2635
330
1F
100
AcDbEntity
  8
NETAFIM-L-DETL-013M
100
AcDbPolyline
 90
        2
 70
     0
 43
0.0
 10
6.305703727257785
 20
0.6807966161291646
 10
6.311778633114695
 20
0.7240218173297351
  0
LWPOLYLINE
  5
2636
330
1F
100
AcDbEntity
  8
NETAFIM-L-DETL-013M
100
AcDbPolyline
 90
        2
 70
     0
 43
0.0
 10
6.415728727257786
 20
0.6807966161291646
 10
6.421803633114691
 20
0.7240218173297351
  0
LWPOLYLINE
  5
2637
330
1F
100
AcDbEntity
  8
NETAFIM-L-DETL-013M
100
AcDbPolyline
 90
        2
 70
     0
 43
0.0
 10
6.305703727257785
 20
0.6807966161291646
 10
6.335741227257788
 20
0.6807966161291646
  0
LWPOLYLINE
  5
2638
330
1F
100
AcDbEntity
  8
NETAFIM-L-DETL-013M
100
AcDbPolyline
 90
        2
 70
     0
 43
0.0
 10
6.385691227257787
 20
0.6807966161291646
 10
6.415728727257786
 20
0.6807966161291646
  0
LWPOLYLINE
  5
2639
330
1F
100
AcDbEntity
  8
NETAFIM-L-DETL-013M
100
AcDbPolyline
 90
        2
 70
     0
 43
0.0
 10
6.319301491395371
 20
0.5638218173297354
 10
6.335741227257788
 20
0.6807966161291646
  0
LWPOLYLINE
  5
263A
330
1F
100
AcDbEntity
  8
NETAFIM-L-DETL-013M
100
AcDbPolyline
 90
        2
 70
     0
 43
0.0
 10
6.36925149139537
 20
0.5638218173297354
 10
6.385691227257787
 20
0.6807966161291646
  0
LWPOLYLINE
  5
263B
330
1F
100
AcDbEntity
  8
NETAFIM-L-DETL-013M
100
AcDbPolyline
 90
        2
 70
     0
 43
0.0
 10
6.291287503302857
 20
0.6806811766914791
 10
6.247280301579642
 20
0.6806811766914791
  0
LWPOLYLINE
  5
263C
330
1F
100
AcDbEntity
  8
NETAFIM-L-DETL-013M
100
AcDbPolyline
 90
        2
 70
     0
 43
0.0
 10
6.280938897252276
 20
0.6070470185303041
 10
6.236931695529062
 20
0.6070470185303041
  0
LWPOLYLINE
  5
263D
330
1F
100
AcDbEntity
  8
NETAFIM-L-DETL-013M
100
AcDbPolyline
 90
        2
 70
     0
 43
0.0
 10
6.279776386040904
 20
0.6237577921903182
 10
6.239280241607762
 20
0.6237577921903182
  0
LWPOLYLINE
  5
263E
330
1F
100
AcDbEntity
  8
NETAFIM-L-DETL-013M
100
AcDbPolyline
 90
        2
 70
     0
 43
0.0
 10
6.285584469672659
 20
0.6650844546087989
 10
6.245088325239521
 20
0.6650844546087989
  0
LWPOLYLINE
  5
263F
330
1F
100
AcDbEntity
  8
NETAFIM-L-DETL-013M
100
AcDbPolyline
 90
        2
 70
     0
 43
0.0
 10
6.48632334003064
 20
0.6237577921903182
 10
6.461459090316417
 20
0.6237577921903182
  0
LWPOLYLINE
  5
2640
330
1F
100
AcDbEntity
  8
NETAFIM-L-DETL-013M
100
AcDbPolyline
 90
        2
 70
     0
 43
0.0
 10
6.554586271013082
 20
0.5638218173297354
 10
6.577100912732404
 20
0.7240218173297351
  0
LWPOLYLINE
  5
2641
330
1F
100
AcDbEntity
  8
NETAFIM-L-DETL-013M
100
AcDbPolyline
 90
        2
 70
     0
 43
0.0
 10
6.6665434727363
 20
0.5638218173297354
 10
6.689058114455619
 20
0.7240218173297351
  0
LWPOLYLINE
  5
2642
330
1F
100
AcDbEntity
  8
NETAFIM-L-DETL-013M
100
AcDbPolyline
 90
        2
 70
     0
 43
0.0
 10
6.667891984643784
 20
0.6806811766914791
 10
6.673983114455623
 20
0.7240218173297351
  0
LWPOLYLINE
  5
2643
330
1F
100
AcDbEntity
  8
NETAFIM-L-DETL-013M
100
AcDbPolyline
 90
        2
 70
     0
 43
0.0
 10
6.382767221775953
 20
0.5638218173297354
 10
6.462639995386112
 20
0.7240218173297351
  0
LWPOLYLINE
  5
2644
330
1F
100
AcDbEntity
  8
NETAFIM-L-DETL-013M
100
AcDbPolyline
 90
        2
 70
     0
 43
0.0
 10
6.436767221775951
 20
0.5638218173297354
 10
6.445471398315643
 20
0.5849499593903503
  0
LWPOLYLINE
  5
2645
330
1F
100
AcDbEntity
  8
NETAFIM-L-DETL-013M
100
AcDbPolyline
 90
        2
 70
     0
 43
0.0
 10
6.461459090316417
 20
0.6237577921903182
 10
6.483605958546796
 20
0.6775161432572361
  0
LWPOLYLINE
  5
2646
330
1F
100
AcDbEntity
  8
NETAFIM-L-DETL-013M
100
AcDbPolyline
 90
        2
 70
     0
 43
0.0
 10
6.541102988542359
 20
0.5638218173297354
 10
6.52001225842886
 20
0.7240218173297351
  0
LWPOLYLINE
  5
2647
330
1F
100
AcDbEntity
  8
NETAFIM-L-DETL-013M
100
AcDbPolyline
 90
        2
 70
     0
 43
0.0
 10
6.489352988542361
 20
0.5638218173297354
 10
6.488285001506223
 20
0.5849499593903503
  0
LWPOLYLINE
  5
2648
330
1F
100
AcDbEntity
  8
NETAFIM-L-DETL-013M
100
AcDbPolyline
 90
        2
 70
     0
 43
0.0
 10
6.48632334003064
 20
0.6237577921903182
 10
6.483605958546796
 20
0.6775161432572361
  0
LWPOLYLINE
  5
2649
330
1F
100
AcDbEntity
  8
NETAFIM-L-DETL-013M
100
AcDbPolyline
 90
        2
 70
     0
 43
0.0
 10
6.65638086738183
 20
0.6237577921903182
 10
6.66218895101359
 20
0.6650844546087989
  0
LWPOLYLINE
  5
264A
330
1F
100
AcDbEntity
  8
NETAFIM-L-DETL-013M
100
AcDbPolyline
 90
        2
 70
     0
 43
0.0
 10
6.66218895101359
 20
0.6650844546087989
 10
6.621692806580448
 20
0.6650844546087989
  0
LWPOLYLINE
  5
264B
330
1F
100
AcDbEntity
  8
NETAFIM-L-DETL-013M
100
AcDbPolyline
 90
        2
 70
     0
 43
0.0
 10
6.65638086738183
 20
0.6237577921903182
 10
6.615884722948692
 20
0.6237577921903182
  0
LWPOLYLINE
  5
264C
330
1F
100
AcDbEntity
  8
NETAFIM-L-DETL-013M
100
AcDbPolyline
 90
        2
 70
     0
 43
0.0
 10
6.607461271013082
 20
0.5638218173297354
 10
6.615884722948692
 20
0.6237577921903182
  0
LWPOLYLINE
  5
264D
330
1F
100
AcDbEntity
  8
NETAFIM-L-DETL-013M
100
AcDbPolyline
 90
        2
 70
     0
 43
0.0
 10
6.621692806580448
 20
0.6650844546087989
 10
6.623884782920569
 20
0.6806811766914791
  0
LWPOLYLINE
  5
264E
330
1F
100
AcDbEntity
  8
NETAFIM-L-DETL-013M
100
AcDbPolyline
 90
        2
 70
     0
 43
0.0
 10
6.445471398315643
 20
0.5849499593903503
 10
6.488285001506223
 20
0.5849499593903503
  0
LWPOLYLINE
  5
264F
330
1F
100
AcDbEntity
  8
NETAFIM-L-DETL-013M
100
AcDbPolyline
 90
        2
 70
     0
 43
0.0
 10
6.667891984643784
 20
0.6806811766914791
 10
6.623884782920569
 20
0.6806811766914791
  0
LWPOLYLINE
  5
2650
330
1F
100
AcDbEntity
  8
NETAFIM-L-DETL-013M
100
AcDbPolyline
 90
        2
 70
     0
 43
0.0
 10
6.840507043797714
 20
0.6425936103704402
 10
6.82978681697746
 20
0.7240218173297351
  0
LWPOLYLINE
  5
2651
330
1F
100
AcDbEntity
  8
NETAFIM-L-DETL-013M
100
AcDbPolyline
 90
        2
 70
     0
 43
0.0
 10
6.812460580050981
 20
0.5638218173297354
 10
6.80209060181555
 20
0.6425896221603687
  0
LWPOLYLINE
  5
2652
330
1F
100
AcDbEntity
  8
NETAFIM-L-DETL-013M
100
AcDbPolyline
 90
        2
 70
     0
 43
0.0
 10
6.877242683095666
 20
0.5638218173297354
 10
6.877242683095666
 20
0.6491494233452482
  0
LWPOLYLINE
  5
2653
330
1F
100
AcDbEntity
  8
NETAFIM-L-DETL-013M
100
AcDbPolyline
 90
        2
 70
     0
 43
0.0
 10
6.730004297234017
 20
0.5638218173297354
 10
6.77594090803258
 20
0.7240218173297351
  0
LWPOLYLINE
  5
2654
330
1F
100
AcDbEntity
  8
NETAFIM-L-DETL-013M
100
AcDbPolyline
 90
        2
 70
     0
 43
0.0
 10
6.779504297234019
 20
0.5638218173297354
 10
6.80209060181555
 20
0.6425896221603687
  0
LWPOLYLINE
  5
2655
330
1F
100
AcDbEntity
  8
NETAFIM-L-DETL-013M
100
AcDbPolyline
 90
        2
 70
     0
 43
0.0
 10
6.840507043797714
 20
0.6425936103704402
 10
6.869499315857147
 20
0.7240218173297351
  0
LWPOLYLINE
  5
2656
330
1F
100
AcDbEntity
  8
NETAFIM-L-DETL-013M
100
AcDbPolyline
 90
        2
 70
     0
 43
0.0
 10
6.846862041544532
 20
0.5638218173297354
 10
6.877242683095666
 20
0.6491494233452482
  0
LWPOLYLINE
  5
2657
330
1F
100
AcDbEntity
  8
NETAFIM-L-DETL-013M
100
AcDbPolyline
 90
        2
 70
     0
 43
0.0
 10
6.200629131873483
 20
0.7240218173297351
 10
6.297378633114693
 20
0.7240218173297351
  0
LWPOLYLINE
  5
2658
330
1F
100
AcDbEntity
  8
NETAFIM-L-DETL-013M
100
AcDbPolyline
 90
        2
 70
     0
 43
0.0
 10
6.94238138360669
 20
0.7240218173297351
 10
6.94238138360669
 20
0.7192968173297345
  0
LWPOLYLINE
  5
2659
330
1F
100
AcDbEntity
  8
NETAFIM-L-DETL-013M
100
AcDbPolyline
 90
        2
 70
     0
 43
0.0
 10
6.967131383606691
 20
0.7240218173297351
 10
6.967131383606691
 20
0.7192968173297345
  0
LWPOLYLINE
  5
265A
330
1F
100
AcDbEntity
  8
NETAFIM-L-DETL-013M
100
AcDbPolyline
 90
        2
 70
     0
 43
0.0
 10
6.97095638360669
 20
0.7240218173297351
 10
6.97095638360669
 20
0.694321817329735
  0
LWPOLYLINE
  5
265B
330
1F
100
AcDbEntity
  8
NETAFIM-L-DETL-013M
100
AcDbPolyline
 90
        2
 70
     0
 43
0.0
 10
6.97770638360669
 20
0.694321817329735
 10
6.97770638360669
 20
0.7157621053595414
  0
LWPOLYLINE
  5
265C
330
1F
100
AcDbEntity
  8
NETAFIM-L-DETL-013M
100
AcDbPolyline
 90
        2
 70
     0
 43
0.0
 10
6.99953138360669
 20
0.694321817329735
 10
6.99953138360669
 20
0.7157621053595414
  0
LWPOLYLINE
  5
265D
330
1F
100
AcDbEntity
  8
NETAFIM-L-DETL-013M
100
AcDbPolyline
 90
        2
 70
     0
 43
0.0
 10
6.951381383606687
 20
0.694321817329735
 10
6.951381383606687
 20
0.7192968173297345
  0
LWPOLYLINE
  5
265E
330
1F
100
AcDbEntity
  8
NETAFIM-L-DETL-013M
100
AcDbPolyline
 90
        2
 70
     0
 43
0.0
 10
6.94238138360669
 20
0.7192968173297345
 10
6.951381383606687
 20
0.7192968173297345
  0
LWPOLYLINE
  5
265F
330
1F
100
AcDbEntity
  8
NETAFIM-L-DETL-013M
100
AcDbPolyline
 90
        2
 70
     0
 43
0.0
 10
6.958131383606691
 20
0.7192968173297345
 10
6.967131383606691
 20
0.7192968173297345
  0
LWPOLYLINE
  5
2660
330
1F
100
AcDbEntity
  8
NETAFIM-L-DETL-013M
100
AcDbPolyline
 90
        2
 70
     0
 43
0.0
 10
6.98198138360669
 20
0.7240218173297351
 10
6.98861888360669
 20
0.7075935446835189
  0
LWPOLYLINE
  5
2661
330
1F
100
AcDbEntity
  8
NETAFIM-L-DETL-013M
100
AcDbPolyline
 90
        2
 70
     0
 43
0.0
 10
6.99525638360669
 20
0.7240218173297351
 10
6.98861888360669
 20
0.7075935446835189
  0
LWPOLYLINE
  5
2662
330
1F
100
AcDbEntity
  8
NETAFIM-L-DETL-013M
100
AcDbPolyline
 90
        2
 70
     0
 43
0.0
 10
6.99953138360669
 20
0.7157621053595414
 10
6.99086888360669
 20
0.694321817329735
  0
LWPOLYLINE
  5
2663
330
1F
100
AcDbEntity
  8
NETAFIM-L-DETL-013M
100
AcDbPolyline
 90
        2
 70
     0
 43
0.0
 10
6.97770638360669
 20
0.7157621053595414
 10
6.98636888360669
 20
0.694321817329735
  0
LWPOLYLINE
  5
2664
330
1F
100
AcDbEntity
  8
NETAFIM-L-DETL-013M
100
AcDbPolyline
 90
        2
 70
     0
 43
0.0
 10
6.741933114455619
 20
0.7240218173297351
 10
6.7194184727363
 20
0.5638218173297354
  0
LWPOLYLINE
  5
2665
330
1F
100
AcDbEntity
  8
NETAFIM-L-DETL-013M
100
AcDbPolyline
 90
        2
 70
     0
 43
0.0
 10
6.925392683095665
 20
0.5638218173297354
 10
6.925392683095665
 20
0.7240218173297351
  0
LWPOLYLINE
  5
2666
330
1F
100
AcDbEntity
  8
NETAFIM-L-DETL-013M
100
AcDbPolyline
 90
        2
 70
     0
 43
0.0
 10
6.958131383606691
 20
0.694321817329735
 10
6.958131383606691
 20
0.7192968173297345
  0
LWPOLYLINE
  5
2667
330
1F
100
AcDbEntity
  8
NETAFIM-L-DETL-013M
100
AcDbPolyline
 90
        2
 70
     0
 43
0.0
 10
7.00628138360669
 20
0.694321817329735
 10
7.00628138360669
 20
0.7240218173297351
  0
LWPOLYLINE
  5
2668
330
1F
100
AcDbEntity
  8
NETAFIM-LG-DETL-ANNO
100
AcDbPolyline
 90
        4
 70
     1
 43
0.0
 10
0.0
 20
0.0
 10
7.25
 20
0.0
 10
7.25
 20
7.125000000000001
 10
0.0
 20
7.125000000000001
1001
LandFX
1000
DETAIL-FORMAT
1000
1A
1040
1.0
1000
DIM1
  0
LINE
  5
2669
330
1F
100
AcDbEntity
  8
NETAFIM-D-070M
100
AcDbLine
 10
0.682783497781573
 20
0.3411345796340779
 30
0.0
 11
7.010171659680125
 21
0.3411345796340779
 31
0.0
  0
CIRCLE
  5
266A
330
1F
100
AcDbEntity
  8
NETAFIM-D-070M
100
AcDbCircle
 10
0.401533497781573
 20
0.3411345796340779
 30
0.0
 40
0.28125
1001
LandFX
1000
DETAIL-CIRCLE
  0
TEXT
  5
266B
330
1F
100
AcDbEntity
  8
NETAFIM-D-TEXT-025M
100
AcDbText
 10
0.2183970415697604
 20
0.2363665608325967
 30
0.0
 40
0.24
  1
00
  7
DETAIL NUMBER
 72
     1
 11
0.401533497781573
 21
0.2363665608325967
 31
0.0
100
AcDbText
1001
LandFX
1000
DETAIL-NUMBER
  0
TEXT
  5
266C
330
1F
100
AcDbEntity
  8
NETAFIM-D-TEXT-025M
100
AcDbText
 10
0.862738956263076
 20
0.4291972829225479
 30
0.0
 40
0.18
  1
Techline® EZ LITE ISLAND LAYOUT
  7
DETAIL TITLE
100
AcDbText
1001
LandFX
1000
DETAIL-TITLE
  0
TEXT
  5
266D
330
1F
100
AcDbEntity
  8
NETAFIM-D-TEXT-025M
100
AcDbText
 10
0.8842793552682053
 20
0.139743013662887
 30
0.0
 40
0.09
  1
NOT TO SCALE
  7
DETAIL TEXT
100
AcDbText
1001
LandFX
1000
DETAIL-SCALE
  0
TEXT
  5
266E
330
1F
100
AcDbEntity
  8
NETAFIM-D-TEXT-025M
100
AcDbText
 10
5.521406366266063
 20
0.1348378227173228
 30
0.0
 40
0.09
  1
DETAIL - EZ103 LITE
  7
DETAIL TEXT
 72
     2
 11
6.999977794837491
 21
0.1348378227173228
 31
0.0
100
AcDbText
1001
LandFX
1000
DETAIL-FILE
  0
LINE
  5
266F
330
1F
100
AcDbEntity
  8
NETAFIM-D-NPLT
100
AcDbLine
 10
7.25
 20
0.1500000000000003
 30
0.0
 11
7.25
 21
0.0
 31
0.0
  0
LINE
  5
2670
330
1F
100
AcDbEntity
  8
NETAFIM-D-NPLT
100
AcDbLine
 10
0.0
 20
0.0
 30
0.0
 11
0.1500000000000003
 21
0.0
 31
0.0
  0
LINE
  5
2671
330
1F
100
AcDbEntity
  8
NETAFIM-D-NPLT
100
AcDbLine
 10
7.100000000000001
 20
0.0
 30
0.0
 11
7.25
 21
0.0
 31
0.0
  0
LINE
  5
2673
330
1F
100
AcDbEntity
  8
NETAFIM-L-DETL-025M
 48
0.0
100
AcDbLine
 10
2.690522155952322
 20
5.952108142819609
 30
0.0
 11
2.86870119004323
 21
5.952108142819609
 31
0.0
  0
LINE
  5
2674
330
1F
100
AcDbEntity
  8
NETAFIM-L-DETL-025M
 48
0.0
100
AcDbLine
 10
2.86870119004323
 20
5.952108142819609
 30
0.0
 11
2.86870119004323
 21
5.849008716879168
 31
0.0
  0
LINE
  5
2675
330
1F
100
AcDbEntity
  8
NETAFIM-L-DETL-025M
 48
0.0
100
AcDbLine
 10
2.86870119004323
 20
5.849008716879168
 30
0.0
 11
2.833524503131007
 21
5.849008716879168
 31
0.0
  0
LINE
  5
2676
330
1F
100
AcDbEntity
  8
NETAFIM-L-DETL-025M
 48
0.0
100
AcDbLine
 10
2.833524503131007
 20
5.849008716879168
 30
0.0
 11
2.833524503131007
 21
5.816195147129953
 31
0.0
  0
LINE
  5
2677
330
1F
100
AcDbEntity
  8
NETAFIM-L-DETL-025M
 48
0.0
100
AcDbLine
 10
2.833524503131007
 20
5.816195147129953
 30
0.0
 11
2.728061960027556
 21
5.816195147129953
 31
0.0
  0
LINE
  5
2678
330
1F
100
AcDbEntity
  8
NETAFIM-L-DETL-025M
 48
0.0
100
AcDbLine
 10
2.728061960027556
 20
5.816195147129953
 30
0.0
 11
2.728061960027556
 21
5.846645599716158
 31
0.0
  0
LINE
  5
2679
330
1F
100
AcDbEntity
  8
NETAFIM-L-DETL-025M
 48
0.0
100
AcDbLine
 10
2.728061960027556
 20
5.846645599716158
 30
0.0
 11
2.690522155952322
 21
5.846645599716158
 31
0.0
  0
LINE
  5
267A
330
1F
100
AcDbEntity
  8
NETAFIM-L-DETL-025M
 48
0.0
100
AcDbLine
 10
2.690522155952322
 20
5.846645599716158
 30
0.0
 11
2.690522155952322
 21
5.952108142819609
 31
0.0
  0
LINE
  5
267B
330
1F
100
AcDbEntity
  8
NETAFIM-L-DETL-025M
100
AcDbLine
 10
2.831228903601225
 20
4.202573998530199
 30
0.0
 11
2.831228903601225
 21
4.02439496443929
 31
0.0
  0
LINE
  5
267C
330
1F
100
AcDbEntity
  8
NETAFIM-L-DETL-025M
100
AcDbLine
 10
2.831228903601225
 20
4.02439496443929
 30
0.0
 11
2.728061960027556
 21
4.02439496443929
 31
0.0
  0
LINE
  5
267D
330
1F
100
AcDbEntity
  8
NETAFIM-L-DETL-025M
100
AcDbLine
 10
2.728061960027556
 20
4.02439496443929
 30
0.0
 11
2.728061960027556
 21
4.059571651351516
 31
0.0
  0
LINE
  5
267E
330
1F
100
AcDbEntity
  8
NETAFIM-L-DETL-025M
100
AcDbLine
 10
2.728061960027556
 20
4.059571651351516
 30
0.0
 11
2.69524839027834
 21
4.059571651351516
 31
0.0
  0
LINE
  5
267F
330
1F
100
AcDbEntity
  8
NETAFIM-L-DETL-025M
100
AcDbLine
 10
2.69524839027834
 20
4.059571651351516
 30
0.0
 11
2.69524839027834
 21
4.165034194454962
 31
0.0
  0
LINE
  5
2680
330
1F
100
AcDbEntity
  8
NETAFIM-L-DETL-025M
100
AcDbLine
 10
2.69524839027834
 20
4.165034194454962
 30
0.0
 11
2.725698842864545
 21
4.165034194454962
 31
0.0
  0
LINE
  5
2681
330
1F
100
AcDbEntity
  8
NETAFIM-L-DETL-025M
100
AcDbLine
 10
2.725698842864545
 20
4.165034194454962
 30
0.0
 11
2.725698842864545
 21
4.202573998530199
 31
0.0
  0
LINE
  5
2682
330
1F
100
AcDbEntity
  8
NETAFIM-L-DETL-025M
100
AcDbLine
 10
2.725698842864545
 20
4.202573998530199
 30
0.0
 11
2.831228903601225
 21
4.202573998530199
 31
0.0
  0
LWPOLYLINE
  5
2683
330
1F
100
AcDbEntity
  8
NETAFIM-L-DETL-035M
100
AcDbPolyline
 90
        2
 70
     0
 43
0.0
 10
2.690522155952322
 20
5.863052384590767
 10
2.449794263691764
 20
5.863052384590767
  0
LWPOLYLINE
  5
2684
330
1F
100
AcDbEntity
  8
NETAFIM-L-DETL-035M
100
AcDbPolyline
 90
        2
 70
     0
 43
0.0
 10
2.449794263691764
 20
5.935701357944999
 10
2.690522155952322
 20
5.935701357944999
  0
POLYLINE
  5
2685
330
1F
100
AcDbEntity
  8
NETAFIM-L-DETL-035M
100
AcDb2dPolyline
 66
     1
 10
0.0
 20
0.0
 30
0.0
 70
     4
 75
     6
  0
VERTEX
  5
2686
330
2685
100
AcDbEntity
  8
NETAFIM-L-DETL-035M
100
AcDbVertex
100
AcDb2dVertex
 10
3.140392146156084
 20
5.878919028399545
 30
0.0
 70
    16
  0
VERTEX
  5
2687
330
2685
100
AcDbEntity
  8
NETAFIM-L-DETL-035M
100
AcDbVertex
100
AcDb2dVertex
 10
3.140392146156084
 20
5.878919028399545
 30
0.0
 70
     8
  0
VERTEX
  5
2688
330
2685
100
AcDbEntity
  8
NETAFIM-L-DETL-035M
100
AcDbVertex
100
AcDb2dVertex
 10
3.140392146156084
 20
5.882545463778045
 30
0.0
 70
     8
  0
VERTEX
  5
2689
330
2685
100
AcDbEntity
  8
NETAFIM-L-DETL-035M
100
AcDbVertex
100
AcDb2dVertex
 10
3.140392146156084
 20
5.892106066139552
 30
0.0
 70
     8
  0
VERTEX
  5
268A
330
2685
100
AcDbEntity
  8
NETAFIM-L-DETL-035M
100
AcDbVertex
100
AcDb2dVertex
 10
3.140392146156084
 20
5.90562277982306
 30
0.0
 70
     8
  0
VERTEX
  5
268B
330
2685
100
AcDbEntity
  8
NETAFIM-L-DETL-035M
100
AcDbVertex
100
AcDb2dVertex
 10
3.140392146156084
 20
5.92111754916757
 30
0.0
 70
     8
  0
VERTEX
  5
268C
330
2685
100
AcDbEntity
  8
NETAFIM-L-DETL-035M
100
AcDbVertex
100
AcDb2dVertex
 10
3.140392146156084
 20
5.936612318512079
 30
0.0
 70
     8
  0
VERTEX
  5
268D
330
2685
100
AcDbEntity
  8
NETAFIM-L-DETL-035M
100
AcDbVertex
100
AcDb2dVertex
 10
3.140392146156084
 20
5.950129032195587
 30
0.0
 70
     8
  0
VERTEX
  5
268E
330
2685
100
AcDbEntity
  8
NETAFIM-L-DETL-035M
100
AcDbVertex
100
AcDb2dVertex
 10
3.140392146156084
 20
5.959689634557092
 30
0.0
 70
     8
  0
VERTEX
  5
268F
330
2685
100
AcDbEntity
  8
NETAFIM-L-DETL-035M
100
AcDbVertex
100
AcDb2dVertex
 10
3.140392146156084
 20
5.963316069935594
 30
0.0
 70
     8
  0
VERTEX
  5
2690
330
2685
100
AcDbEntity
  8
NETAFIM-L-DETL-035M
100
AcDbVertex
100
AcDb2dVertex
 10
3.140392146156084
 20
5.878919028399545
 30
0.0
 70
    16
  0
VERTEX
  5
2691
330
2685
100
AcDbEntity
  8
NETAFIM-L-DETL-035M
100
AcDbVertex
100
AcDb2dVertex
 10
3.140392146156084
 20
5.963316069935595
 30
0.0
 70
    16
  0
VERTEX
  5
2692
330
2685
100
AcDbEntity
  8
NETAFIM-L-DETL-035M
100
AcDbVertex
100
AcDb2dVertex
 10
3.140392146156084
 20
5.963316069935595
 30
0.0
 70
    16
  0
SEQEND
  5
2693
330
2685
100
AcDbEntity
  8
NETAFIM-L-DETL-035M
  0
POLYLINE
  5
2694
330
1F
100
AcDbEntity
  8
NETAFIM-L-DETL-035M
100
AcDb2dPolyline
 66
     1
 10
0.0
 20
0.0
 30
0.0
 70
     4
 75
     6
  0
VERTEX
  5
2695
330
2694
100
AcDbEntity
  8
NETAFIM-L-DETL-035M
100
AcDbVertex
100
AcDb2dVertex
 10
3.140392146156084
 20
5.963316069935595
 30
0.0
 70
    16
  0
VERTEX
  5
2696
330
2694
100
AcDbEntity
  8
NETAFIM-L-DETL-035M
100
AcDbVertex
100
AcDb2dVertex
 10
3.140392146156084
 20
5.963316069935595
 30
0.0
 70
     8
  0
VERTEX
  5
2697
330
2694
100
AcDbEntity
  8
NETAFIM-L-DETL-035M
100
AcDbVertex
100
AcDb2dVertex
 10
3.142189407529667
 20
5.980953601042479
 30
0.0
 70
     8
  0
VERTEX
  5
2698
330
2694
100
AcDbEntity
  8
NETAFIM-L-DETL-035M
100
AcDbVertex
100
AcDb2dVertex
 10
3.147339077637518
 20
5.997417749531257
 30
0.0
 70
     8
  0
VERTEX
  5
2699
330
2694
100
AcDbEntity
  8
NETAFIM-L-DETL-035M
100
AcDbVertex
100
AcDb2dVertex
 10
3.155477985460272
 20
6.012345344382568
 30
0.0
 70
     8
  0
VERTEX
  5
269A
330
2694
100
AcDbEntity
  8
NETAFIM-L-DETL-035M
100
AcDbVertex
100
AcDb2dVertex
 10
3.166242959978575
 20
6.025373214577053
 30
0.0
 70
     8
  0
VERTEX
  5
269B
330
2694
100
AcDbEntity
  8
NETAFIM-L-DETL-035M
100
AcDbVertex
100
AcDb2dVertex
 10
3.179270830173061
 20
6.036138189095352
 30
0.0
 70
     8
  0
VERTEX
  5
269C
330
2694
100
AcDbEntity
  8
NETAFIM-L-DETL-035M
100
AcDbVertex
100
AcDb2dVertex
 10
3.194198425024374
 20
6.044277096918108
 30
0.0
 70
     8
  0
VERTEX
  5
269D
330
2694
100
AcDbEntity
  8
NETAFIM-L-DETL-035M
100
AcDbVertex
100
AcDb2dVertex
 10
3.21066257351315
 20
6.049426767025959
 30
0.0
 70
     8
  0
VERTEX
  5
269E
330
2694
100
AcDbEntity
  8
NETAFIM-L-DETL-035M
100
AcDbVertex
100
AcDb2dVertex
 10
3.228300104620036
 20
6.051224028399543
 30
0.0
 70
     8
  0
VERTEX
  5
269F
330
2694
100
AcDbEntity
  8
NETAFIM-L-DETL-035M
100
AcDbVertex
100
AcDb2dVertex
 10
3.140392146156084
 20
6.011591177694215
 30
0.0
 70
    16
  0
VERTEX
  5
26A0
330
2694
100
AcDbEntity
  8
NETAFIM-L-DETL-035M
100
AcDbVertex
100
AcDb2dVertex
 10
3.180024996861412
 20
6.051224028399543
 30
0.0
 70
    16
  0
VERTEX
  5
26A1
330
2694
100
AcDbEntity
  8
NETAFIM-L-DETL-035M
100
AcDbVertex
100
AcDb2dVertex
 10
3.228300104620036
 20
6.051224028399543
 30
0.0
 70
    16
  0
SEQEND
  5
26A2
330
2694
100
AcDbEntity
  8
NETAFIM-L-DETL-035M
  0
POLYLINE
  5
26A3
330
1F
100
AcDbEntity
  8
NETAFIM-L-DETL-035M
100
AcDb2dPolyline
 66
     1
 10
0.0
 20
0.0
 30
0.0
 70
     4
 75
     6
  0
VERTEX
  5
26A4
330
26A3
100
AcDbEntity
  8
NETAFIM-L-DETL-035M
100
AcDbVertex
100
AcDb2dVertex
 10
3.228300104620036
 20
6.051224028399543
 30
0.0
 70
    16
  0
VERTEX
  5
26A5
330
26A3
100
AcDbEntity
  8
NETAFIM-L-DETL-035M
100
AcDbVertex
100
AcDb2dVertex
 10
3.228300104620036
 20
6.051224028399543
 30
0.0
 70
     8
  0
VERTEX
  5
26A6
330
26A3
100
AcDbEntity
  8
NETAFIM-L-DETL-035M
100
AcDbVertex
100
AcDb2dVertex
 10
3.244619063823291
 20
6.051224028399543
 30
0.0
 70
     8
  0
VERTEX
  5
26A7
330
26A3
100
AcDbEntity
  8
NETAFIM-L-DETL-035M
100
AcDbVertex
100
AcDb2dVertex
 10
3.287641774450069
 20
6.051224028399543
 30
0.0
 70
     8
  0
VERTEX
  5
26A8
330
26A3
100
AcDbEntity
  8
NETAFIM-L-DETL-035M
100
AcDbVertex
100
AcDb2dVertex
 10
3.348466986025854
 20
6.051224028399543
 30
0.0
 70
     8
  0
VERTEX
  5
26A9
330
26A3
100
AcDbEntity
  8
NETAFIM-L-DETL-035M
100
AcDbVertex
100
AcDb2dVertex
 10
3.418193448076149
 20
6.051224028399543
 30
0.0
 70
     8
  0
VERTEX
  5
26AA
330
26A3
100
AcDbEntity
  8
NETAFIM-L-DETL-035M
100
AcDbVertex
100
AcDb2dVertex
 10
3.487919910126437
 20
6.051224028399543
 30
0.0
 70
     8
  0
VERTEX
  5
26AB
330
26A3
100
AcDbEntity
  8
NETAFIM-L-DETL-035M
100
AcDbVertex
100
AcDb2dVertex
 10
3.548745121702223
 20
6.051224028399543
 30
0.0
 70
     8
  0
VERTEX
  5
26AC
330
26A3
100
AcDbEntity
  8
NETAFIM-L-DETL-035M
100
AcDbVertex
100
AcDb2dVertex
 10
3.591767832328997
 20
6.051224028399543
 30
0.0
 70
     8
  0
VERTEX
  5
26AD
330
26A3
100
AcDbEntity
  8
NETAFIM-L-DETL-035M
100
AcDbVertex
100
AcDb2dVertex
 10
3.608086791532258
 20
6.051224028399543
 30
0.0
 70
     8
  0
VERTEX
  5
26AE
330
26A3
100
AcDbEntity
  8
NETAFIM-L-DETL-035M
100
AcDbVertex
100
AcDb2dVertex
 10
3.228300104620036
 20
6.051224028399543
 30
0.0
 70
    16
  0
VERTEX
  5
26AF
330
26A3
100
AcDbEntity
  8
NETAFIM-L-DETL-035M
100
AcDbVertex
100
AcDb2dVertex
 10
3.608086791532258
 20
6.051224028399543
 30
0.0
 70
    16
  0
VERTEX
  5
26B0
330
26A3
100
AcDbEntity
  8
NETAFIM-L-DETL-035M
100
AcDbVertex
100
AcDb2dVertex
 10
3.608086791532258
 20
6.051224028399543
 30
0.0
 70
    16
  0
SEQEND
  5
26B1
330
26A3
100
AcDbEntity
  8
NETAFIM-L-DETL-035M
  0
POLYLINE
  5
26B2
330
1F
100
AcDbEntity
  8
NETAFIM-L-DETL-035M
100
AcDb2dPolyline
 66
     1
 10
0.0
 20
0.0
 30
0.0
 70
     4
 75
     6
  0
VERTEX
  5
26B3
330
26B2
100
AcDbEntity
  8
NETAFIM-L-DETL-035M
100
AcDbVertex
100
AcDb2dVertex
 10
3.608086791532258
 20
6.051224028399543
 30
0.0
 70
    16
  0
VERTEX
  5
26B4
330
26B2
100
AcDbEntity
  8
NETAFIM-L-DETL-035M
100
AcDbVertex
100
AcDb2dVertex
 10
3.608086791532258
 20
6.051224028399543
 30
0.0
 70
     8
  0
VERTEX
  5
26B5
330
26B2
100
AcDbEntity
  8
NETAFIM-L-DETL-035M
100
AcDbVertex
100
AcDb2dVertex
 10
3.625704937693663
 20
6.049426767025959
 30
0.0
 70
     8
  0
VERTEX
  5
26B6
330
26B2
100
AcDbEntity
  8
NETAFIM-L-DETL-035M
100
AcDbVertex
100
AcDb2dVertex
 10
3.642159987126399
 20
6.044277096918108
 30
0.0
 70
     8
  0
VERTEX
  5
26B7
330
26B2
100
AcDbEntity
  8
NETAFIM-L-DETL-035M
100
AcDbVertex
100
AcDb2dVertex
 10
3.657086395144316
 20
6.036138189095352
 30
0.0
 70
     8
  0
VERTEX
  5
26B8
330
26B2
100
AcDbEntity
  8
NETAFIM-L-DETL-035M
100
AcDbVertex
100
AcDb2dVertex
 10
3.670118617061254
 20
6.025373214577053
 30
0.0
 70
     8
  0
VERTEX
  5
26B9
330
26B2
100
AcDbEntity
  8
NETAFIM-L-DETL-035M
100
AcDbVertex
100
AcDb2dVertex
 10
3.680891108191067
 20
6.012345344382568
 30
0.0
 70
     8
  0
VERTEX
  5
26BA
330
26B2
100
AcDbEntity
  8
NETAFIM-L-DETL-035M
100
AcDbVertex
100
AcDb2dVertex
 10
3.689038323847601
 20
5.997417749531253
 30
0.0
 70
     8
  0
VERTEX
  5
26BB
330
26B2
100
AcDbEntity
  8
NETAFIM-L-DETL-035M
100
AcDbVertex
100
AcDb2dVertex
 10
3.694194719344698
 20
5.980953601042479
 30
0.0
 70
     8
  0
VERTEX
  5
26BC
330
26B2
100
AcDbEntity
  8
NETAFIM-L-DETL-035M
100
AcDbVertex
100
AcDb2dVertex
 10
3.695994749996208
 20
5.963316069935594
 30
0.0
 70
     8
  0
VERTEX
  5
26BD
330
26B2
100
AcDbEntity
  8
NETAFIM-L-DETL-035M
100
AcDbVertex
100
AcDb2dVertex
 10
3.656294381657652
 20
6.051224028399543
 30
0.0
 70
    16
  0
VERTEX
  5
26BE
330
26B2
100
AcDbEntity
  8
NETAFIM-L-DETL-035M
100
AcDbVertex
100
AcDb2dVertex
 10
3.695994749996208
 20
6.011591177694215
 30
0.0
 70
    16
  0
VERTEX
  5
26BF
330
26B2
100
AcDbEntity
  8
NETAFIM-L-DETL-035M
100
AcDbVertex
100
AcDb2dVertex
 10
3.695994749996208
 20
5.963316069935595
 30
0.0
 70
    16
  0
SEQEND
  5
26C0
330
26B2
100
AcDbEntity
  8
NETAFIM-L-DETL-035M
  0
POLYLINE
  5
26C1
330
1F
100
AcDbEntity
  8
NETAFIM-L-DETL-035M
100
AcDb2dPolyline
 66
     1
 10
0.0
 20
0.0
 30
0.0
 70
     4
 75
     6
  0
VERTEX
  5
26C2
330
26C1
100
AcDbEntity
  8
NETAFIM-L-DETL-035M
100
AcDbVertex
100
AcDb2dVertex
 10
3.695994749996208
 20
5.963316069935595
 30
0.0
 70
    16
  0
VERTEX
  5
26C3
330
26C1
100
AcDbEntity
  8
NETAFIM-L-DETL-035M
100
AcDbVertex
100
AcDb2dVertex
 10
3.695994749996208
 20
5.963316069935595
 30
0.0
 70
     8
  0
VERTEX
  5
26C4
330
26C1
100
AcDbEntity
  8
NETAFIM-L-DETL-035M
100
AcDbVertex
100
AcDb2dVertex
 10
3.695994749996208
 20
5.95606319917859
 30
0.0
 70
     8
  0
VERTEX
  5
26C5
330
26C1
100
AcDbEntity
  8
NETAFIM-L-DETL-035M
100
AcDbVertex
100
AcDb2dVertex
 10
3.695994749996208
 20
5.93694199445558
 30
0.0
 70
     8
  0
VERTEX
  5
26C6
330
26C1
100
AcDbEntity
  8
NETAFIM-L-DETL-035M
100
AcDbVertex
100
AcDb2dVertex
 10
3.695994749996208
 20
5.909908567088564
 30
0.0
 70
     8
  0
VERTEX
  5
26C7
330
26C1
100
AcDbEntity
  8
NETAFIM-L-DETL-035M
100
AcDbVertex
100
AcDb2dVertex
 10
3.695994749996208
 20
5.878919028399545
 30
0.0
 70
     8
  0
VERTEX
  5
26C8
330
26C1
100
AcDbEntity
  8
NETAFIM-L-DETL-035M
100
AcDbVertex
100
AcDb2dVertex
 10
3.695994749996208
 20
5.847929489710526
 30
0.0
 70
     8
  0
VERTEX
  5
26C9
330
26C1
100
AcDbEntity
  8
NETAFIM-L-DETL-035M
100
AcDbVertex
100
AcDb2dVertex
 10
3.695994749996208
 20
5.820896062343511
 30
0.0
 70
     8
  0
VERTEX
  5
26CA
330
26C1
100
AcDbEntity
  8
NETAFIM-L-DETL-035M
100
AcDbVertex
100
AcDb2dVertex
 10
3.695994749996208
 20
5.801774857620499
 30
0.0
 70
     8
  0
VERTEX
  5
26CB
330
26C1
100
AcDbEntity
  8
NETAFIM-L-DETL-035M
100
AcDbVertex
100
AcDb2dVertex
 10
3.695994749996208
 20
5.794521986863495
 30
0.0
 70
     8
  0
VERTEX
  5
26CC
330
26C1
100
AcDbEntity
  8
NETAFIM-L-DETL-035M
100
AcDbVertex
100
AcDb2dVertex
 10
3.695994749996208
 20
5.963316069935595
 30
0.0
 70
    16
  0
VERTEX
  5
26CD
330
26C1
100
AcDbEntity
  8
NETAFIM-L-DETL-035M
100
AcDbVertex
100
AcDb2dVertex
 10
3.695994749996208
 20
5.794521986863495
 30
0.0
 70
    16
  0
VERTEX
  5
26CE
330
26C1
100
AcDbEntity
  8
NETAFIM-L-DETL-035M
100
AcDbVertex
100
AcDb2dVertex
 10
3.695994749996208
 20
5.794521986863495
 30
0.0
 70
    16
  0
SEQEND
  5
26CF
330
26C1
100
AcDbEntity
  8
NETAFIM-L-DETL-035M
  0
POLYLINE
  5
26D0
330
1F
100
AcDbEntity
  8
NETAFIM-L-DETL-035M
100
AcDb2dPolyline
 66
     1
 10
0.0
 20
0.0
 30
0.0
 70
     4
 75
     6
  0
VERTEX
  5
26D1
330
26D0
100
AcDbEntity
  8
NETAFIM-L-DETL-035M
100
AcDbVertex
100
AcDb2dVertex
 10
3.695994749996208
 20
5.794521986863495
 30
0.0
 70
    16
  0
VERTEX
  5
26D2
330
26D0
100
AcDbEntity
  8
NETAFIM-L-DETL-035M
100
AcDbVertex
100
AcDb2dVertex
 10
3.695994749996208
 20
5.794521986863495
 30
0.0
 70
     8
  0
VERTEX
  5
26D3
330
26D0
100
AcDbEntity
  8
NETAFIM-L-DETL-035M
100
AcDbVertex
100
AcDb2dVertex
 10
3.694194719344698
 20
5.77690384070209
 30
0.0
 70
     8
  0
VERTEX
  5
26D4
330
26D0
100
AcDbEntity
  8
NETAFIM-L-DETL-035M
100
AcDbVertex
100
AcDb2dVertex
 10
3.689038323847601
 20
5.760448791269352
 30
0.0
 70
     8
  0
VERTEX
  5
26D5
330
26D0
100
AcDbEntity
  8
NETAFIM-L-DETL-035M
100
AcDbVertex
100
AcDb2dVertex
 10
3.680891108191067
 20
5.745522383251438
 30
0.0
 70
     8
  0
VERTEX
  5
26D6
330
26D0
100
AcDbEntity
  8
NETAFIM-L-DETL-035M
100
AcDbVertex
100
AcDb2dVertex
 10
3.670118617061254
 20
5.732490161334498
 30
0.0
 70
     8
  0
VERTEX
  5
26D7
330
26D0
100
AcDbEntity
  8
NETAFIM-L-DETL-035M
100
AcDbVertex
100
AcDb2dVertex
 10
3.657086395144316
 20
5.721717670204684
 30
0.0
 70
     8
  0
VERTEX
  5
26D8
330
26D0
100
AcDbEntity
  8
NETAFIM-L-DETL-035M
100
AcDbVertex
100
AcDb2dVertex
 10
3.642159987126399
 20
5.713570454548156
 30
0.0
 70
     8
  0
VERTEX
  5
26D9
330
26D0
100
AcDbEntity
  8
NETAFIM-L-DETL-035M
100
AcDbVertex
100
AcDb2dVertex
 10
3.625704937693663
 20
5.708414059051056
 30
0.0
 70
     8
  0
VERTEX
  5
26DA
330
26D0
100
AcDbEntity
  8
NETAFIM-L-DETL-035M
100
AcDbVertex
100
AcDb2dVertex
 10
3.608086791532258
 20
5.706614028399544
 30
0.0
 70
     8
  0
VERTEX
  5
26DB
330
26D0
100
AcDbEntity
  8
NETAFIM-L-DETL-035M
100
AcDbVertex
100
AcDb2dVertex
 10
3.695994749996208
 20
5.746314396738101
 30
0.0
 70
    16
  0
VERTEX
  5
26DC
330
26D0
100
AcDbEntity
  8
NETAFIM-L-DETL-035M
100
AcDbVertex
100
AcDb2dVertex
 10
3.656294381657652
 20
5.706614028399544
 30
0.0
 70
    16
  0
VERTEX
  5
26DD
330
26D0
100
AcDbEntity
  8
NETAFIM-L-DETL-035M
100
AcDbVertex
100
AcDb2dVertex
 10
3.608086791532258
 20
5.706614028399544
 30
0.0
 70
    16
  0
SEQEND
  5
26DE
330
26D0
100
AcDbEntity
  8
NETAFIM-L-DETL-035M
  0
POLYLINE
  5
26DF
330
1F
100
AcDbEntity
  8
NETAFIM-L-DETL-035M
100
AcDb2dPolyline
 66
     1
 10
0.0
 20
0.0
 30
0.0
 70
     4
 75
     6
  0
VERTEX
  5
26E0
330
26DF
100
AcDbEntity
  8
NETAFIM-L-DETL-035M
100
AcDbVertex
100
AcDb2dVertex
 10
3.608086791532258
 20
5.706614028399544
 30
0.0
 70
    16
  0
VERTEX
  5
26E1
330
26DF
100
AcDbEntity
  8
NETAFIM-L-DETL-035M
100
AcDbVertex
100
AcDb2dVertex
 10
3.608086791532258
 20
5.706614028399544
 30
0.0
 70
     8
  0
VERTEX
  5
26E2
330
26DF
100
AcDbEntity
  8
NETAFIM-L-DETL-035M
100
AcDbVertex
100
AcDb2dVertex
 10
3.591767832328997
 20
5.706614028399544
 30
0.0
 70
     8
  0
VERTEX
  5
26E3
330
26DF
100
AcDbEntity
  8
NETAFIM-L-DETL-035M
100
AcDbVertex
100
AcDb2dVertex
 10
3.548745121702223
 20
5.706614028399544
 30
0.0
 70
     8
  0
VERTEX
  5
26E4
330
26DF
100
AcDbEntity
  8
NETAFIM-L-DETL-035M
100
AcDbVertex
100
AcDb2dVertex
 10
3.487919910126437
 20
5.706614028399544
 30
0.0
 70
     8
  0
VERTEX
  5
26E5
330
26DF
100
AcDbEntity
  8
NETAFIM-L-DETL-035M
100
AcDbVertex
100
AcDb2dVertex
 10
3.418193448076145
 20
5.706614028399544
 30
0.0
 70
     8
  0
VERTEX
  5
26E6
330
26DF
100
AcDbEntity
  8
NETAFIM-L-DETL-035M
100
AcDbVertex
100
AcDb2dVertex
 10
3.348466986025854
 20
5.706614028399544
 30
0.0
 70
     8
  0
VERTEX
  5
26E7
330
26DF
100
AcDbEntity
  8
NETAFIM-L-DETL-035M
100
AcDbVertex
100
AcDb2dVertex
 10
3.287641774450069
 20
5.706614028399544
 30
0.0
 70
     8
  0
VERTEX
  5
26E8
330
26DF
100
AcDbEntity
  8
NETAFIM-L-DETL-035M
100
AcDbVertex
100
AcDb2dVertex
 10
3.244619063823291
 20
5.706614028399544
 30
0.0
 70
     8
  0
VERTEX
  5
26E9
330
26DF
100
AcDbEntity
  8
NETAFIM-L-DETL-035M
100
AcDbVertex
100
AcDb2dVertex
 10
3.228300104620036
 20
5.706614028399544
 30
0.0
 70
     8
  0
VERTEX
  5
26EA
330
26DF
100
AcDbEntity
  8
NETAFIM-L-DETL-035M
100
AcDbVertex
100
AcDb2dVertex
 10
3.608086791532258
 20
5.706614028399544
 30
0.0
 70
    16
  0
VERTEX
  5
26EB
330
26DF
100
AcDbEntity
  8
NETAFIM-L-DETL-035M
100
AcDbVertex
100
AcDb2dVertex
 10
3.228300104620036
 20
5.706614028399544
 30
0.0
 70
    16
  0
VERTEX
  5
26EC
330
26DF
100
AcDbEntity
  8
NETAFIM-L-DETL-035M
100
AcDbVertex
100
AcDb2dVertex
 10
3.228300104620036
 20
5.706614028399544
 30
0.0
 70
    16
  0
SEQEND
  5
26ED
330
26DF
100
AcDbEntity
  8
NETAFIM-L-DETL-035M
  0
POLYLINE
  5
26EE
330
1F
100
AcDbEntity
  8
NETAFIM-L-DETL-035M
100
AcDb2dPolyline
 66
     1
 10
0.0
 20
0.0
 30
0.0
 70
     4
 75
     6
  0
VERTEX
  5
26EF
330
26EE
100
AcDbEntity
  8
NETAFIM-L-DETL-035M
100
AcDbVertex
100
AcDb2dVertex
 10
3.228300104620036
 20
5.706614028399544
 30
0.0
 70
    16
  0
VERTEX
  5
26F0
330
26EE
100
AcDbEntity
  8
NETAFIM-L-DETL-035M
100
AcDbVertex
100
AcDb2dVertex
 10
3.228300104620036
 20
5.706614028399544
 30
0.0
 70
     8
  0
VERTEX
  5
26F1
330
26EE
100
AcDbEntity
  8
NETAFIM-L-DETL-035M
100
AcDbVertex
100
AcDb2dVertex
 10
3.21066257351315
 20
5.708414059051056
 30
0.0
 70
     8
  0
VERTEX
  5
26F2
330
26EE
100
AcDbEntity
  8
NETAFIM-L-DETL-035M
100
AcDbVertex
100
AcDb2dVertex
 10
3.194198425024374
 20
5.713570454548156
 30
0.0
 70
     8
  0
VERTEX
  5
26F3
330
26EE
100
AcDbEntity
  8
NETAFIM-L-DETL-035M
100
AcDbVertex
100
AcDb2dVertex
 10
3.179270830173061
 20
5.721717670204684
 30
0.0
 70
     8
  0
VERTEX
  5
26F4
330
26EE
100
AcDbEntity
  8
NETAFIM-L-DETL-035M
100
AcDbVertex
100
AcDb2dVertex
 10
3.166242959978575
 20
5.732490161334498
 30
0.0
 70
     8
  0
VERTEX
  5
26F5
330
26EE
100
AcDbEntity
  8
NETAFIM-L-DETL-035M
100
AcDbVertex
100
AcDb2dVertex
 10
3.155477985460272
 20
5.745522383251438
 30
0.0
 70
     8
  0
VERTEX
  5
26F6
330
26EE
100
AcDbEntity
  8
NETAFIM-L-DETL-035M
100
AcDbVertex
100
AcDb2dVertex
 10
3.147339077637518
 20
5.760448791269354
 30
0.0
 70
     8
  0
VERTEX
  5
26F7
330
26EE
100
AcDbEntity
  8
NETAFIM-L-DETL-035M
100
AcDbVertex
100
AcDb2dVertex
 10
3.142189407529667
 20
5.77690384070209
 30
0.0
 70
     8
  0
VERTEX
  5
26F8
330
26EE
100
AcDbEntity
  8
NETAFIM-L-DETL-035M
100
AcDbVertex
100
AcDb2dVertex
 10
3.140392146156084
 20
5.794521986863495
 30
0.0
 70
     8
  0
VERTEX
  5
26F9
330
26EE
100
AcDbEntity
  8
NETAFIM-L-DETL-035M
100
AcDbVertex
100
AcDb2dVertex
 10
3.180024996861412
 20
5.706614028399544
 30
0.0
 70
    16
  0
VERTEX
  5
26FA
330
26EE
100
AcDbEntity
  8
NETAFIM-L-DETL-035M
100
AcDbVertex
100
AcDb2dVertex
 10
3.140392146156084
 20
5.746314396738101
 30
0.0
 70
    16
  0
VERTEX
  5
26FB
330
26EE
100
AcDbEntity
  8
NETAFIM-L-DETL-035M
100
AcDbVertex
100
AcDb2dVertex
 10
3.140392146156084
 20
5.794521986863495
 30
0.0
 70
    16
  0
SEQEND
  5
26FC
330
26EE
100
AcDbEntity
  8
NETAFIM-L-DETL-035M
  0
POLYLINE
  5
26FD
330
1F
100
AcDbEntity
  8
NETAFIM-L-DETL-035M
100
AcDb2dPolyline
 66
     1
 10
0.0
 20
0.0
 30
0.0
 70
     4
 75
     6
  0
VERTEX
  5
26FE
330
26FD
100
AcDbEntity
  8
NETAFIM-L-DETL-035M
100
AcDbVertex
100
AcDb2dVertex
 10
3.140392146156084
 20
5.794521986863495
 30
0.0
 70
    16
  0
VERTEX
  5
26FF
330
26FD
100
AcDbEntity
  8
NETAFIM-L-DETL-035M
100
AcDbVertex
100
AcDb2dVertex
 10
3.140392146156084
 20
5.794521986863495
 30
0.0
 70
     8
  0
VERTEX
  5
2700
330
26FD
100
AcDbEntity
  8
NETAFIM-L-DETL-035M
100
AcDbVertex
100
AcDb2dVertex
 10
3.140392146156084
 20
5.798148422241997
 30
0.0
 70
     8
  0
VERTEX
  5
2701
330
26FD
100
AcDbEntity
  8
NETAFIM-L-DETL-035M
100
AcDbVertex
100
AcDb2dVertex
 10
3.140392146156084
 20
5.807709024603502
 30
0.0
 70
     8
  0
VERTEX
  5
2702
330
26FD
100
AcDbEntity
  8
NETAFIM-L-DETL-035M
100
AcDbVertex
100
AcDb2dVertex
 10
3.140392146156084
 20
5.82122573828701
 30
0.0
 70
     8
  0
VERTEX
  5
2703
330
26FD
100
AcDbEntity
  8
NETAFIM-L-DETL-035M
100
AcDbVertex
100
AcDb2dVertex
 10
3.140392146156084
 20
5.83672050763152
 30
0.0
 70
     8
  0
VERTEX
  5
2704
330
26FD
100
AcDbEntity
  8
NETAFIM-L-DETL-035M
100
AcDbVertex
100
AcDb2dVertex
 10
3.140392146156084
 20
5.85221527697603
 30
0.0
 70
     8
  0
VERTEX
  5
2705
330
26FD
100
AcDbEntity
  8
NETAFIM-L-DETL-035M
100
AcDbVertex
100
AcDb2dVertex
 10
3.140392146156084
 20
5.865731990659538
 30
0.0
 70
     8
  0
VERTEX
  5
2706
330
26FD
100
AcDbEntity
  8
NETAFIM-L-DETL-035M
100
AcDbVertex
100
AcDb2dVertex
 10
3.140392146156084
 20
5.875292593021042
 30
0.0
 70
     8
  0
VERTEX
  5
2707
330
26FD
100
AcDbEntity
  8
NETAFIM-L-DETL-035M
100
AcDbVertex
100
AcDb2dVertex
 10
3.140392146156084
 20
5.878919028399545
 30
0.0
 70
     8
  0
VERTEX
  5
2708
330
26FD
100
AcDbEntity
  8
NETAFIM-L-DETL-035M
100
AcDbVertex
100
AcDb2dVertex
 10
3.140392146156084
 20
5.794521986863495
 30
0.0
 70
    16
  0
VERTEX
  5
2709
330
26FD
100
AcDbEntity
  8
NETAFIM-L-DETL-035M
100
AcDbVertex
100
AcDb2dVertex
 10
3.140392146156084
 20
5.878919028399545
 30
0.0
 70
    16
  0
VERTEX
  5
270A
330
26FD
100
AcDbEntity
  8
NETAFIM-L-DETL-035M
100
AcDbVertex
100
AcDb2dVertex
 10
3.140392146156084
 20
5.878919028399545
 30
0.0
 70
    16
  0
SEQEND
  5
270B
330
26FD
100
AcDbEntity
  8
NETAFIM-L-DETL-035M
  0
POLYLINE
  5
270C
330
1F
100
AcDbEntity
  8
NETAFIM-L-DETL-035M
100
AcDb2dPolyline
 66
     1
 10
0.0
 20
0.0
 30
0.0
 70
     4
 75
     6
  0
VERTEX
  5
270D
330
270C
100
AcDbEntity
  8
NETAFIM-L-DETL-035M
100
AcDbVertex
100
AcDb2dVertex
 10
3.105215459243858
 20
5.878919028399545
 30
0.0
 70
    16
  0
VERTEX
  5
270E
330
270C
100
AcDbEntity
  8
NETAFIM-L-DETL-035M
100
AcDbVertex
100
AcDb2dVertex
 10
3.105215459243858
 20
5.878919028399545
 30
0.0
 70
     8
  0
VERTEX
  5
270F
330
270C
100
AcDbEntity
  8
NETAFIM-L-DETL-035M
100
AcDbVertex
100
AcDb2dVertex
 10
3.105215459243858
 20
5.884207821755552
 30
0.0
 70
     8
  0
VERTEX
  5
2710
330
270C
100
AcDbEntity
  8
NETAFIM-L-DETL-035M
100
AcDbVertex
100
AcDb2dVertex
 10
3.105215459243858
 20
5.898151004239572
 30
0.0
 70
     8
  0
VERTEX
  5
2711
330
270C
100
AcDbEntity
  8
NETAFIM-L-DETL-035M
100
AcDbVertex
100
AcDb2dVertex
 10
3.105215459243858
 20
5.917863779475601
 30
0.0
 70
     8
  0
VERTEX
  5
2712
330
270C
100
AcDbEntity
  8
NETAFIM-L-DETL-035M
100
AcDbVertex
100
AcDb2dVertex
 10
3.105215459243858
 20
5.940461351087632
 30
0.0
 70
     8
  0
VERTEX
  5
2713
330
270C
100
AcDbEntity
  8
NETAFIM-L-DETL-035M
100
AcDbVertex
100
AcDb2dVertex
 10
3.105215459243858
 20
5.963058922699664
 30
0.0
 70
     8
  0
VERTEX
  5
2714
330
270C
100
AcDbEntity
  8
NETAFIM-L-DETL-035M
100
AcDbVertex
100
AcDb2dVertex
 10
3.105215459243858
 20
5.982771697935694
 30
0.0
 70
     8
  0
VERTEX
  5
2715
330
270C
100
AcDbEntity
  8
NETAFIM-L-DETL-035M
100
AcDbVertex
100
AcDb2dVertex
 10
3.105215459243858
 20
5.996714880419713
 30
0.0
 70
     8
  0
VERTEX
  5
2716
330
270C
100
AcDbEntity
  8
NETAFIM-L-DETL-035M
100
AcDbVertex
100
AcDb2dVertex
 10
3.105215459243858
 20
6.002003673775719
 30
0.0
 70
     8
  0
VERTEX
  5
2717
330
270C
100
AcDbEntity
  8
NETAFIM-L-DETL-035M
100
AcDbVertex
100
AcDb2dVertex
 10
3.105215459243858
 20
5.878919028399545
 30
0.0
 70
    16
  0
VERTEX
  5
2718
330
270C
100
AcDbEntity
  8
NETAFIM-L-DETL-035M
100
AcDbVertex
100
AcDb2dVertex
 10
3.105215459243858
 20
6.002003673775719
 30
0.0
 70
    16
  0
VERTEX
  5
2719
330
270C
100
AcDbEntity
  8
NETAFIM-L-DETL-035M
100
AcDbVertex
100
AcDb2dVertex
 10
3.105215459243858
 20
6.002003673775719
 30
0.0
 70
    16
  0
SEQEND
  5
271A
330
270C
100
AcDbEntity
  8
NETAFIM-L-DETL-035M
  0
POLYLINE
  5
271B
330
1F
100
AcDbEntity
  8
NETAFIM-L-DETL-035M
100
AcDb2dPolyline
 66
     1
 10
0.0
 20
0.0
 30
0.0
 70
     4
 75
     6
  0
VERTEX
  5
271C
330
271B
100
AcDbEntity
  8
NETAFIM-L-DETL-035M
100
AcDbVertex
100
AcDb2dVertex
 10
3.105215459243858
 20
6.002003673775719
 30
0.0
 70
    16
  0
VERTEX
  5
271D
330
271B
100
AcDbEntity
  8
NETAFIM-L-DETL-035M
100
AcDbVertex
100
AcDb2dVertex
 10
3.105215459243858
 20
6.002003673775719
 30
0.0
 70
     8
  0
VERTEX
  5
271E
330
271B
100
AcDbEntity
  8
NETAFIM-L-DETL-035M
100
AcDbVertex
100
AcDb2dVertex
 10
3.107015489895367
 20
6.019621819937126
 30
0.0
 70
     8
  0
VERTEX
  5
271F
330
271B
100
AcDbEntity
  8
NETAFIM-L-DETL-035M
100
AcDbVertex
100
AcDb2dVertex
 10
3.112171885392468
 20
6.036076869369862
 30
0.0
 70
     8
  0
VERTEX
  5
2720
330
271B
100
AcDbEntity
  8
NETAFIM-L-DETL-035M
100
AcDbVertex
100
AcDb2dVertex
 10
3.120319101048998
 20
6.051003277387778
 30
0.0
 70
     8
  0
VERTEX
  5
2721
330
271B
100
AcDbEntity
  8
NETAFIM-L-DETL-035M
100
AcDbVertex
100
AcDb2dVertex
 10
3.131091592178808
 20
6.064035499304717
 30
0.0
 70
     8
  0
VERTEX
  5
2722
330
271B
100
AcDbEntity
  8
NETAFIM-L-DETL-035M
100
AcDbVertex
100
AcDb2dVertex
 10
3.144123814095751
 20
6.07480799043453
 30
0.0
 70
     8
  0
VERTEX
  5
2723
330
271B
100
AcDbEntity
  8
NETAFIM-L-DETL-035M
100
AcDbVertex
100
AcDb2dVertex
 10
3.159050222113666
 20
6.082955206091062
 30
0.0
 70
     8
  0
VERTEX
  5
2724
330
271B
100
AcDbEntity
  8
NETAFIM-L-DETL-035M
100
AcDbVertex
100
AcDb2dVertex
 10
3.175505271546402
 20
6.08811160158816
 30
0.0
 70
     8
  0
VERTEX
  5
2725
330
271B
100
AcDbEntity
  8
NETAFIM-L-DETL-035M
100
AcDbVertex
100
AcDb2dVertex
 10
3.193123417707809
 20
6.089911632239671
 30
0.0
 70
     8
  0
VERTEX
  5
2726
330
271B
100
AcDbEntity
  8
NETAFIM-L-DETL-035M
100
AcDbVertex
100
AcDb2dVertex
 10
3.105215459243858
 20
6.050211263901113
 30
0.0
 70
    16
  0
VERTEX
  5
2727
330
271B
100
AcDbEntity
  8
NETAFIM-L-DETL-035M
100
AcDbVertex
100
AcDb2dVertex
 10
3.144915827582417
 20
6.089911632239671
 30
0.0
 70
    16
  0
VERTEX
  5
2728
330
271B
100
AcDbEntity
  8
NETAFIM-L-DETL-035M
100
AcDbVertex
100
AcDb2dVertex
 10
3.193123417707809
 20
6.089911632239671
 30
0.0
 70
    16
  0
SEQEND
  5
2729
330
271B
100
AcDbEntity
  8
NETAFIM-L-DETL-035M
  0
POLYLINE
  5
272A
330
1F
100
AcDbEntity
  8
NETAFIM-L-DETL-035M
100
AcDb2dPolyline
 66
     1
 10
0.0
 20
0.0
 30
0.0
 70
     4
 75
     6
  0
VERTEX
  5
272B
330
272A
100
AcDbEntity
  8
NETAFIM-L-DETL-035M
100
AcDbVertex
100
AcDb2dVertex
 10
3.193123417707809
 20
6.089911632239671
 30
0.0
 70
    16
  0
VERTEX
  5
272C
330
272A
100
AcDbEntity
  8
NETAFIM-L-DETL-035M
100
AcDbVertex
100
AcDb2dVertex
 10
3.193123417707809
 20
6.089911632239671
 30
0.0
 70
     8
  0
VERTEX
  5
272D
330
272A
100
AcDbEntity
  8
NETAFIM-L-DETL-035M
100
AcDbVertex
100
AcDb2dVertex
 10
3.212462472294282
 20
6.089911632239671
 30
0.0
 70
     8
  0
VERTEX
  5
272E
330
272A
100
AcDbEntity
  8
NETAFIM-L-DETL-035M
100
AcDbVertex
100
AcDb2dVertex
 10
3.26344725256772
 20
6.089911632239671
 30
0.0
 70
     8
  0
VERTEX
  5
272F
330
272A
100
AcDbEntity
  8
NETAFIM-L-DETL-035M
100
AcDbVertex
100
AcDb2dVertex
 10
3.335529183299133
 20
6.089911632239671
 30
0.0
 70
     8
  0
VERTEX
  5
2730
330
272A
100
AcDbEntity
  8
NETAFIM-L-DETL-035M
100
AcDbVertex
100
AcDb2dVertex
 10
3.418159689259532
 20
6.089911632239671
 30
0.0
 70
     8
  0
VERTEX
  5
2731
330
272A
100
AcDbEntity
  8
NETAFIM-L-DETL-035M
100
AcDbVertex
100
AcDb2dVertex
 10
3.500790195219931
 20
6.089911632239671
 30
0.0
 70
     8
  0
VERTEX
  5
2732
330
272A
100
AcDbEntity
  8
NETAFIM-L-DETL-035M
100
AcDbVertex
100
AcDb2dVertex
 10
3.572872125951342
 20
6.089911632239671
 30
0.0
 70
     8
  0
VERTEX
  5
2733
330
272A
100
AcDbEntity
  8
NETAFIM-L-DETL-035M
100
AcDbVertex
100
AcDb2dVertex
 10
3.623856906224778
 20
6.089911632239671
 30
0.0
 70
     8
  0
VERTEX
  5
2734
330
272A
100
AcDbEntity
  8
NETAFIM-L-DETL-035M
100
AcDbVertex
100
AcDb2dVertex
 10
3.643195960811256
 20
6.089911632239671
 30
0.0
 70
     8
  0
VERTEX
  5
2735
330
272A
100
AcDbEntity
  8
NETAFIM-L-DETL-035M
100
AcDbVertex
100
AcDb2dVertex
 10
3.193123417707809
 20
6.089911632239671
 30
0.0
 70
    16
  0
VERTEX
  5
2736
330
272A
100
AcDbEntity
  8
NETAFIM-L-DETL-035M
100
AcDbVertex
100
AcDb2dVertex
 10
3.643195960811256
 20
6.089911632239671
 30
0.0
 70
    16
  0
VERTEX
  5
2737
330
272A
100
AcDbEntity
  8
NETAFIM-L-DETL-035M
100
AcDbVertex
100
AcDb2dVertex
 10
3.643195960811256
 20
6.089911632239671
 30
0.0
 70
    16
  0
SEQEND
  5
2738
330
272A
100
AcDbEntity
  8
NETAFIM-L-DETL-035M
  0
POLYLINE
  5
2739
330
1F
100
AcDbEntity
  8
NETAFIM-L-DETL-035M
100
AcDb2dPolyline
 66
     1
 10
0.0
 20
0.0
 30
0.0
 70
     4
 75
     6
  0
VERTEX
  5
273A
330
2739
100
AcDbEntity
  8
NETAFIM-L-DETL-035M
100
AcDbVertex
100
AcDb2dVertex
 10
3.643195960811256
 20
6.089911632239671
 30
0.0
 70
    16
  0
VERTEX
  5
273B
330
2739
100
AcDbEntity
  8
NETAFIM-L-DETL-035M
100
AcDbVertex
100
AcDb2dVertex
 10
3.643195960811256
 20
6.089911632239671
 30
0.0
 70
     8
  0
VERTEX
  5
273C
330
2739
100
AcDbEntity
  8
NETAFIM-L-DETL-035M
100
AcDbVertex
100
AcDb2dVertex
 10
3.660836393066441
 20
6.08811160158816
 30
0.0
 70
     8
  0
VERTEX
  5
273D
330
2739
100
AcDbEntity
  8
NETAFIM-L-DETL-035M
100
AcDbVertex
100
AcDb2dVertex
 10
3.677308190037109
 20
6.082955206091062
 30
0.0
 70
     8
  0
VERTEX
  5
273E
330
2739
100
AcDbEntity
  8
NETAFIM-L-DETL-035M
100
AcDbVertex
100
AcDb2dVertex
 10
3.692246598259368
 20
6.07480799043453
 30
0.0
 70
     8
  0
VERTEX
  5
273F
330
2739
100
AcDbEntity
  8
NETAFIM-L-DETL-035M
100
AcDbVertex
100
AcDb2dVertex
 10
3.705286864269329
 20
6.064035499304717
 30
0.0
 70
     8
  0
VERTEX
  5
2740
330
2739
100
AcDbEntity
  8
NETAFIM-L-DETL-035M
100
AcDbVertex
100
AcDb2dVertex
 10
3.716064234603102
 20
6.051003277387778
 30
0.0
 70
     8
  0
VERTEX
  5
2741
330
2739
100
AcDbEntity
  8
NETAFIM-L-DETL-035M
100
AcDbVertex
100
AcDb2dVertex
 10
3.724213955796805
 20
6.036076869369862
 30
0.0
 70
     8
  0
VERTEX
  5
2742
330
2739
100
AcDbEntity
  8
NETAFIM-L-DETL-035M
100
AcDbVertex
100
AcDb2dVertex
 10
3.729371274386545
 20
6.019621819937126
 30
0.0
 70
     8
  0
VERTEX
  5
2743
330
2739
100
AcDbEntity
  8
NETAFIM-L-DETL-035M
100
AcDbVertex
100
AcDb2dVertex
 10
3.731171436908434
 20
6.002003673775719
 30
0.0
 70
     8
  0
VERTEX
  5
2744
330
2739
100
AcDbEntity
  8
NETAFIM-L-DETL-035M
100
AcDbVertex
100
AcDb2dVertex
 10
3.691471068569876
 20
6.089911632239671
 30
0.0
 70
    16
  0
VERTEX
  5
2745
330
2739
100
AcDbEntity
  8
NETAFIM-L-DETL-035M
100
AcDbVertex
100
AcDb2dVertex
 10
3.731171436908434
 20
6.050211263901113
 30
0.0
 70
    16
  0
VERTEX
  5
2746
330
2739
100
AcDbEntity
  8
NETAFIM-L-DETL-035M
100
AcDbVertex
100
AcDb2dVertex
 10
3.731171436908434
 20
6.002003673775719
 30
0.0
 70
    16
  0
SEQEND
  5
2747
330
2739
100
AcDbEntity
  8
NETAFIM-L-DETL-035M
  0
POLYLINE
  5
2748
330
1F
100
AcDbEntity
  8
NETAFIM-L-DETL-035M
100
AcDb2dPolyline
 66
     1
 10
0.0
 20
0.0
 30
0.0
 70
     4
 75
     6
  0
VERTEX
  5
2749
330
2748
100
AcDbEntity
  8
NETAFIM-L-DETL-035M
100
AcDbVertex
100
AcDb2dVertex
 10
3.731171436908434
 20
6.002003673775719
 30
0.0
 70
    16
  0
VERTEX
  5
274A
330
2748
100
AcDbEntity
  8
NETAFIM-L-DETL-035M
100
AcDbVertex
100
AcDb2dVertex
 10
3.731171436908434
 20
6.002003673775719
 30
0.0
 70
     8
  0
VERTEX
  5
274B
330
2748
100
AcDbEntity
  8
NETAFIM-L-DETL-035M
100
AcDbVertex
100
AcDb2dVertex
 10
3.731171436908434
 20
5.991426087063706
 30
0.0
 70
     8
  0
VERTEX
  5
274C
330
2748
100
AcDbEntity
  8
NETAFIM-L-DETL-035M
100
AcDbVertex
100
AcDb2dVertex
 10
3.731171436908434
 20
5.963539722095665
 30
0.0
 70
     8
  0
VERTEX
  5
274D
330
2748
100
AcDbEntity
  8
NETAFIM-L-DETL-035M
100
AcDbVertex
100
AcDb2dVertex
 10
3.731171436908434
 20
5.924114171623608
 30
0.0
 70
     8
  0
VERTEX
  5
274E
330
2748
100
AcDbEntity
  8
NETAFIM-L-DETL-035M
100
AcDbVertex
100
AcDb2dVertex
 10
3.731171436908434
 20
5.878919028399545
 30
0.0
 70
     8
  0
VERTEX
  5
274F
330
2748
100
AcDbEntity
  8
NETAFIM-L-DETL-035M
100
AcDbVertex
100
AcDb2dVertex
 10
3.731171436908434
 20
5.833723885175482
 30
0.0
 70
     8
  0
VERTEX
  5
2750
330
2748
100
AcDbEntity
  8
NETAFIM-L-DETL-035M
100
AcDbVertex
100
AcDb2dVertex
 10
3.731171436908434
 20
5.794298334703423
 30
0.0
 70
     8
  0
VERTEX
  5
2751
330
2748
100
AcDbEntity
  8
NETAFIM-L-DETL-035M
100
AcDbVertex
100
AcDb2dVertex
 10
3.731171436908434
 20
5.766411969735385
 30
0.0
 70
     8
  0
VERTEX
  5
2752
330
2748
100
AcDbEntity
  8
NETAFIM-L-DETL-035M
100
AcDbVertex
100
AcDb2dVertex
 10
3.731171436908434
 20
5.755834383023371
 30
0.0
 70
     8
  0
VERTEX
  5
2753
330
2748
100
AcDbEntity
  8
NETAFIM-L-DETL-035M
100
AcDbVertex
100
AcDb2dVertex
 10
3.731171436908434
 20
6.002003673775719
 30
0.0
 70
    16
  0
VERTEX
  5
2754
330
2748
100
AcDbEntity
  8
NETAFIM-L-DETL-035M
100
AcDbVertex
100
AcDb2dVertex
 10
3.731171436908434
 20
5.755834383023371
 30
0.0
 70
    16
  0
VERTEX
  5
2755
330
2748
100
AcDbEntity
  8
NETAFIM-L-DETL-035M
100
AcDbVertex
100
AcDb2dVertex
 10
3.731171436908434
 20
5.755834383023371
 30
0.0
 70
    16
  0
SEQEND
  5
2756
330
2748
100
AcDbEntity
  8
NETAFIM-L-DETL-035M
  0
POLYLINE
  5
2757
330
1F
100
AcDbEntity
  8
NETAFIM-L-DETL-035M
100
AcDb2dPolyline
 66
     1
 10
0.0
 20
0.0
 30
0.0
 70
     4
 75
     6
  0
VERTEX
  5
2758
330
2757
100
AcDbEntity
  8
NETAFIM-L-DETL-035M
100
AcDbVertex
100
AcDb2dVertex
 10
3.731171436908434
 20
5.755834383023371
 30
0.0
 70
    16
  0
VERTEX
  5
2759
330
2757
100
AcDbEntity
  8
NETAFIM-L-DETL-035M
100
AcDbVertex
100
AcDb2dVertex
 10
3.731171436908434
 20
5.755834383023371
 30
0.0
 70
     8
  0
VERTEX
  5
275A
330
2757
100
AcDbEntity
  8
NETAFIM-L-DETL-035M
100
AcDbVertex
100
AcDb2dVertex
 10
3.729371274386545
 20
5.738216236861964
 30
0.0
 70
     8
  0
VERTEX
  5
275B
330
2757
100
AcDbEntity
  8
NETAFIM-L-DETL-035M
100
AcDbVertex
100
AcDb2dVertex
 10
3.724213955796805
 20
5.721761187429228
 30
0.0
 70
     8
  0
VERTEX
  5
275C
330
2757
100
AcDbEntity
  8
NETAFIM-L-DETL-035M
100
AcDbVertex
100
AcDb2dVertex
 10
3.716064234603106
 20
5.706834779411313
 30
0.0
 70
     8
  0
VERTEX
  5
275D
330
2757
100
AcDbEntity
  8
NETAFIM-L-DETL-035M
100
AcDbVertex
100
AcDb2dVertex
 10
3.705286864269329
 20
5.693802557494374
 30
0.0
 70
     8
  0
VERTEX
  5
275E
330
2757
100
AcDbEntity
  8
NETAFIM-L-DETL-035M
100
AcDbVertex
100
AcDb2dVertex
 10
3.692246598259368
 20
5.68303006636456
 30
0.0
 70
     8
  0
VERTEX
  5
275F
330
2757
100
AcDbEntity
  8
NETAFIM-L-DETL-035M
100
AcDbVertex
100
AcDb2dVertex
 10
3.677308190037109
 20
5.67488285070803
 30
0.0
 70
     8
  0
VERTEX
  5
2760
330
2757
100
AcDbEntity
  8
NETAFIM-L-DETL-035M
100
AcDbVertex
100
AcDb2dVertex
 10
3.660836393066441
 20
5.669726455210932
 30
0.0
 70
     8
  0
VERTEX
  5
2761
330
2757
100
AcDbEntity
  8
NETAFIM-L-DETL-035M
100
AcDbVertex
100
AcDb2dVertex
 10
3.643195960811256
 20
5.66792642455942
 30
0.0
 70
     8
  0
VERTEX
  5
2762
330
2757
100
AcDbEntity
  8
NETAFIM-L-DETL-035M
100
AcDbVertex
100
AcDb2dVertex
 10
3.731171436908434
 20
5.707626792897977
 30
0.0
 70
    16
  0
VERTEX
  5
2763
330
2757
100
AcDbEntity
  8
NETAFIM-L-DETL-035M
100
AcDbVertex
100
AcDb2dVertex
 10
3.691471068569876
 20
5.66792642455942
 30
0.0
 70
    16
  0
VERTEX
  5
2764
330
2757
100
AcDbEntity
  8
NETAFIM-L-DETL-035M
100
AcDbVertex
100
AcDb2dVertex
 10
3.643195960811256
 20
5.66792642455942
 30
0.0
 70
    16
  0
SEQEND
  5
2765
330
2757
100
AcDbEntity
  8
NETAFIM-L-DETL-035M
  0
POLYLINE
  5
2766
330
1F
100
AcDbEntity
  8
NETAFIM-L-DETL-035M
100
AcDb2dPolyline
 66
     1
 10
0.0
 20
0.0
 30
0.0
 70
     4
 75
     6
  0
VERTEX
  5
2767
330
2766
100
AcDbEntity
  8
NETAFIM-L-DETL-035M
100
AcDbVertex
100
AcDb2dVertex
 10
3.643195960811256
 20
5.66792642455942
 30
0.0
 70
    16
  0
VERTEX
  5
2768
330
2766
100
AcDbEntity
  8
NETAFIM-L-DETL-035M
100
AcDbVertex
100
AcDb2dVertex
 10
3.643195960811256
 20
5.66792642455942
 30
0.0
 70
     8
  0
VERTEX
  5
2769
330
2766
100
AcDbEntity
  8
NETAFIM-L-DETL-035M
100
AcDbVertex
100
AcDb2dVertex
 10
3.623856906224778
 20
5.66792642455942
 30
0.0
 70
     8
  0
VERTEX
  5
276A
330
2766
100
AcDbEntity
  8
NETAFIM-L-DETL-035M
100
AcDbVertex
100
AcDb2dVertex
 10
3.572872125951342
 20
5.66792642455942
 30
0.0
 70
     8
  0
VERTEX
  5
276B
330
2766
100
AcDbEntity
  8
NETAFIM-L-DETL-035M
100
AcDbVertex
100
AcDb2dVertex
 10
3.500790195219931
 20
5.66792642455942
 30
0.0
 70
     8
  0
VERTEX
  5
276C
330
2766
100
AcDbEntity
  8
NETAFIM-L-DETL-035M
100
AcDbVertex
100
AcDb2dVertex
 10
3.418159689259532
 20
5.66792642455942
 30
0.0
 70
     8
  0
VERTEX
  5
276D
330
2766
100
AcDbEntity
  8
NETAFIM-L-DETL-035M
100
AcDbVertex
100
AcDb2dVertex
 10
3.335529183299133
 20
5.66792642455942
 30
0.0
 70
     8
  0
VERTEX
  5
276E
330
2766
100
AcDbEntity
  8
NETAFIM-L-DETL-035M
100
AcDbVertex
100
AcDb2dVertex
 10
3.26344725256772
 20
5.66792642455942
 30
0.0
 70
     8
  0
VERTEX
  5
276F
330
2766
100
AcDbEntity
  8
NETAFIM-L-DETL-035M
100
AcDbVertex
100
AcDb2dVertex
 10
3.212462472294282
 20
5.66792642455942
 30
0.0
 70
     8
  0
VERTEX
  5
2770
330
2766
100
AcDbEntity
  8
NETAFIM-L-DETL-035M
100
AcDbVertex
100
AcDb2dVertex
 10
3.193123417707809
 20
5.66792642455942
 30
0.0
 70
     8
  0
VERTEX
  5
2771
330
2766
100
AcDbEntity
  8
NETAFIM-L-DETL-035M
100
AcDbVertex
100
AcDb2dVertex
 10
3.643195960811256
 20
5.66792642455942
 30
0.0
 70
    16
  0
VERTEX
  5
2772
330
2766
100
AcDbEntity
  8
NETAFIM-L-DETL-035M
100
AcDbVertex
100
AcDb2dVertex
 10
3.193123417707809
 20
5.66792642455942
 30
0.0
 70
    16
  0
VERTEX
  5
2773
330
2766
100
AcDbEntity
  8
NETAFIM-L-DETL-035M
100
AcDbVertex
100
AcDb2dVertex
 10
3.193123417707809
 20
5.66792642455942
 30
0.0
 70
    16
  0
SEQEND
  5
2774
330
2766
100
AcDbEntity
  8
NETAFIM-L-DETL-035M
  0
POLYLINE
  5
2775
330
1F
100
AcDbEntity
  8
NETAFIM-L-DETL-035M
100
AcDb2dPolyline
 66
     1
 10
0.0
 20
0.0
 30
0.0
 70
     4
 75
     6
  0
VERTEX
  5
2776
330
2775
100
AcDbEntity
  8
NETAFIM-L-DETL-035M
100
AcDbVertex
100
AcDb2dVertex
 10
3.193123417707809
 20
5.66792642455942
 30
0.0
 70
    16
  0
VERTEX
  5
2777
330
2775
100
AcDbEntity
  8
NETAFIM-L-DETL-035M
100
AcDbVertex
100
AcDb2dVertex
 10
3.193123417707809
 20
5.66792642455942
 30
0.0
 70
     8
  0
VERTEX
  5
2778
330
2775
100
AcDbEntity
  8
NETAFIM-L-DETL-035M
100
AcDbVertex
100
AcDb2dVertex
 10
3.175505271546402
 20
5.66972645521093
 30
0.0
 70
     8
  0
VERTEX
  5
2779
330
2775
100
AcDbEntity
  8
NETAFIM-L-DETL-035M
100
AcDbVertex
100
AcDb2dVertex
 10
3.159050222113666
 20
5.67488285070803
 30
0.0
 70
     8
  0
VERTEX
  5
277A
330
2775
100
AcDbEntity
  8
NETAFIM-L-DETL-035M
100
AcDbVertex
100
AcDb2dVertex
 10
3.144123814095751
 20
5.68303006636456
 30
0.0
 70
     8
  0
VERTEX
  5
277B
330
2775
100
AcDbEntity
  8
NETAFIM-L-DETL-035M
100
AcDbVertex
100
AcDb2dVertex
 10
3.131091592178808
 20
5.693802557494374
 30
0.0
 70
     8
  0
VERTEX
  5
277C
330
2775
100
AcDbEntity
  8
NETAFIM-L-DETL-035M
100
AcDbVertex
100
AcDb2dVertex
 10
3.120319101048998
 20
5.706834779411313
 30
0.0
 70
     8
  0
VERTEX
  5
277D
330
2775
100
AcDbEntity
  8
NETAFIM-L-DETL-035M
100
AcDbVertex
100
AcDb2dVertex
 10
3.112171885392468
 20
5.721761187429228
 30
0.0
 70
     8
  0
VERTEX
  5
277E
330
2775
100
AcDbEntity
  8
NETAFIM-L-DETL-035M
100
AcDbVertex
100
AcDb2dVertex
 10
3.107015489895367
 20
5.738216236861964
 30
0.0
 70
     8
  0
VERTEX
  5
277F
330
2775
100
AcDbEntity
  8
NETAFIM-L-DETL-035M
100
AcDbVertex
100
AcDb2dVertex
 10
3.105215459243858
 20
5.755834383023371
 30
0.0
 70
     8
  0
VERTEX
  5
2780
330
2775
100
AcDbEntity
  8
NETAFIM-L-DETL-035M
100
AcDbVertex
100
AcDb2dVertex
 10
3.144915827582417
 20
5.66792642455942
 30
0.0
 70
    16
  0
VERTEX
  5
2781
330
2775
100
AcDbEntity
  8
NETAFIM-L-DETL-035M
100
AcDbVertex
100
AcDb2dVertex
 10
3.105215459243858
 20
5.707626792897977
 30
0.0
 70
    16
  0
VERTEX
  5
2782
330
2775
100
AcDbEntity
  8
NETAFIM-L-DETL-035M
100
AcDbVertex
100
AcDb2dVertex
 10
3.105215459243858
 20
5.755834383023371
 30
0.0
 70
    16
  0
SEQEND
  5
2783
330
2775
100
AcDbEntity
  8
NETAFIM-L-DETL-035M
  0
POLYLINE
  5
2784
330
1F
100
AcDbEntity
  8
NETAFIM-L-DETL-035M
100
AcDb2dPolyline
 66
     1
 10
0.0
 20
0.0
 30
0.0
 70
     4
 75
     6
  0
VERTEX
  5
2785
330
2784
100
AcDbEntity
  8
NETAFIM-L-DETL-035M
100
AcDbVertex
100
AcDb2dVertex
 10
3.105215459243858
 20
5.755834383023371
 30
0.0
 70
    16
  0
VERTEX
  5
2786
330
2784
100
AcDbEntity
  8
NETAFIM-L-DETL-035M
100
AcDbVertex
100
AcDb2dVertex
 10
3.105215459243858
 20
5.755834383023371
 30
0.0
 70
     8
  0
VERTEX
  5
2787
330
2784
100
AcDbEntity
  8
NETAFIM-L-DETL-035M
100
AcDbVertex
100
AcDb2dVertex
 10
3.105215459243858
 20
5.761123176379378
 30
0.0
 70
     8
  0
VERTEX
  5
2788
330
2784
100
AcDbEntity
  8
NETAFIM-L-DETL-035M
100
AcDbVertex
100
AcDb2dVertex
 10
3.105215459243858
 20
5.775066358863396
 30
0.0
 70
     8
  0
VERTEX
  5
2789
330
2784
100
AcDbEntity
  8
NETAFIM-L-DETL-035M
100
AcDbVertex
100
AcDb2dVertex
 10
3.105215459243858
 20
5.794779134099426
 30
0.0
 70
     8
  0
VERTEX
  5
278A
330
2784
100
AcDbEntity
  8
NETAFIM-L-DETL-035M
100
AcDbVertex
100
AcDb2dVertex
 10
3.105215459243858
 20
5.817376705711458
 30
0.0
 70
     8
  0
VERTEX
  5
278B
330
2784
100
AcDbEntity
  8
NETAFIM-L-DETL-035M
100
AcDbVertex
100
AcDb2dVertex
 10
3.105215459243858
 20
5.83997427732349
 30
0.0
 70
     8
  0
VERTEX
  5
278C
330
2784
100
AcDbEntity
  8
NETAFIM-L-DETL-035M
100
AcDbVertex
100
AcDb2dVertex
 10
3.105215459243858
 20
5.859687052559518
 30
0.0
 70
     8
  0
VERTEX
  5
278D
330
2784
100
AcDbEntity
  8
NETAFIM-L-DETL-035M
100
AcDbVertex
100
AcDb2dVertex
 10
3.105215459243858
 20
5.873630235043538
 30
0.0
 70
     8
  0
VERTEX
  5
278E
330
2784
100
AcDbEntity
  8
NETAFIM-L-DETL-035M
100
AcDbVertex
100
AcDb2dVertex
 10
3.105215459243858
 20
5.878919028399545
 30
0.0
 70
     8
  0
VERTEX
  5
278F
330
2784
100
AcDbEntity
  8
NETAFIM-L-DETL-035M
100
AcDbVertex
100
AcDb2dVertex
 10
3.105215459243858
 20
5.755834383023371
 30
0.0
 70
    16
  0
VERTEX
  5
2790
330
2784
100
AcDbEntity
  8
NETAFIM-L-DETL-035M
100
AcDbVertex
100
AcDb2dVertex
 10
3.105215459243858
 20
5.878919028399545
 30
0.0
 70
    16
  0
VERTEX
  5
2791
330
2784
100
AcDbEntity
  8
NETAFIM-L-DETL-035M
100
AcDbVertex
100
AcDb2dVertex
 10
3.105215459243858
 20
5.878919028399545
 30
0.0
 70
    16
  0
SEQEND
  5
2792
330
2784
100
AcDbEntity
  8
NETAFIM-L-DETL-035M
  0
LWPOLYLINE
  5
2793
330
1F
100
AcDbEntity
  8
NETAFIM-L-DETL-035M
100
AcDbPolyline
 90
        2
 70
     0
 43
0.0
 10
2.86870119004323
 20
5.935701357944999
 10
3.105215459243858
 20
5.935701357944999
  0
LWPOLYLINE
  5
2794
330
1F
100
AcDbEntity
  8
NETAFIM-L-DETL-035M
100
AcDbPolyline
 90
        2
 70
     0
 43
0.0
 10
3.105215459243858
 20
5.863052384590767
 10
2.86870119004323
 20
5.863052384590767
  0
LINE
  5
2795
330
1F
100
AcDbEntity
  8
NETAFIM-L-DETL-025M-TUBING
100
AcDbLine
 10
1.298896007265016
 20
5.173812216791612
 30
0.0
 11
2.365480650472782
 21
5.173812216791612
 31
0.0
  0
LWPOLYLINE
  5
2796
330
1F
100
AcDbEntity
  8
NETAFIM-L-DETL-035M
100
AcDbPolyline
 90
        4
 70
     0
 43
0.0
 10
1.878217510576146
 20
2.855516756182883
 10
1.878217510576146
 20
2.693217209873475
 10
1.805568537221914
 20
2.693217209873475
 10
1.805568537221914
 20
2.855516756182883
  0
LWPOLYLINE
  5
2797
330
1F
100
AcDbEntity
  8
NETAFIM-L-DETL-035M
100
AcDbPolyline
 90
        2
 70
     0
 43
0.0
 10
1.921563831109063
 20
2.981585021393852
 10
2.701592456992843
 20
2.981585021393852
  0
LWPOLYLINE
  5
2798
330
1F
100
AcDbEntity
  8
NETAFIM-L-DETL-035M
100
AcDbPolyline
 90
        2
 70
     0
 43
0.0
 10
2.701592456992843
 20
2.90893604803962
 10
1.921563831109063
 20
2.90893604803962
  0
LWPOLYLINE
  5
2799
330
1F
100
AcDbEntity
  8
NETAFIM-L-DETL-035M
100
AcDbPolyline
 90
        2
 70
     0
 43
0.0
 10
2.453211871174705
 20
4.146264292417347
 10
2.69524839027834
 20
4.146264292417347
  0
LWPOLYLINE
  5
279A
330
1F
100
AcDbEntity
  8
NETAFIM-L-DETL-035M
100
AcDbPolyline
 90
        2
 70
     0
 43
0.0
 10
2.69524839027834
 20
4.073615319063113
 10
2.453211871174705
 20
4.073615319063113
  0
LWPOLYLINE
  5
279B
330
1F
100
AcDbEntity
  8
NETAFIM-L-DETL-035M
100
AcDbPolyline
 90
        2
 70
     0
 43
0.0
 10
2.743320945137273
 20
5.193651031803229
 10
2.743320945137273
 20
5.816195147129953
  0
LWPOLYLINE
  5
279C
330
1F
100
AcDbEntity
  8
NETAFIM-L-DETL-035M
100
AcDbPolyline
 90
        2
 70
     0
 43
0.0
 10
2.743320945137273
 20
4.752888237644777
 10
2.743320945137273
 20
5.082045997330977
  0
LWPOLYLINE
  5
279D
330
1F
100
AcDbEntity
  8
NETAFIM-L-DETL-013M
100
AcDbPolyline
 90
        6
 70
     0
 43
0.0
 10
2.619616136551064
 20
5.135229547102456
 10
2.702260476002317
 20
5.156462020315272
 10
2.721859924093521
 20
5.21950613308563
 10
2.79045799241274
 20
5.136862814272673
 10
2.804504263544771
 20
5.180307721000433
 10
2.934840593351289
 20
5.216566252179239
  0
LWPOLYLINE
  5
279E
330
1F
100
AcDbEntity
  8
NETAFIM-L-DETL-013M
100
AcDbPolyline
 90
        6
 70
     0
 43
0.0
 10
2.615369589464636
 20
5.028740527604339
 10
2.698013928915891
 20
5.049973000817153
 10
2.717613377007094
 20
5.113017113587511
 10
2.786211445326312
 20
5.030373794774556
 10
2.800257716458345
 20
5.073818701502315
 10
2.930594046264863
 20
5.110077232681122
  0
LWPOLYLINE
  5
279F
330
1F
100
AcDbEntity
  8
NETAFIM-L-DETL-035M
100
AcDbPolyline
 90
        2
 70
     0
 43
0.0
 10
2.815969918491505
 20
5.816195147129953
 10
2.815969918491505
 20
5.183497375089887
  0
LWPOLYLINE
  5
27A0
330
1F
100
AcDbEntity
  8
NETAFIM-L-DETL-035M
100
AcDbPolyline
 90
        2
 70
     0
 43
0.0
 10
2.815969918491505
 20
5.078189711244212
 10
2.815969918491505
 20
4.752888237644777
  0
LWPOLYLINE
  5
27A1
330
1F
100
AcDbEntity
  8
NETAFIM-L-DETL-013M
100
AcDbPolyline
 90
        6
 70
     0
 43
0.0
 10
2.615369589464636
 20
3.14982997498722
 10
2.698013928915891
 20
3.171062448200036
 10
2.717613377007094
 20
3.234106560970394
 10
2.786211445326312
 20
3.151463242157438
 10
2.800257716458345
 20
3.194908148885197
 10
2.930594046264863
 20
3.231166680064005
  0
LWPOLYLINE
  5
27A2
330
1F
100
AcDbEntity
  8
NETAFIM-L-DETL-013M
100
AcDbPolyline
 90
        6
 70
     0
 43
0.0
 10
2.619616136551064
 20
3.25631899448534
 10
2.702260476002317
 20
3.277551467698154
 10
2.721859924093521
 20
3.340595580468514
 10
2.79045799241274
 20
3.257952261655555
 10
2.804504263544771
 20
3.301397168383315
 10
2.934840593351289
 20
3.337655699562123
  0
LWPOLYLINE
  5
27A3
330
1F
100
AcDbEntity
  8
NETAFIM-L-DETL-035M
100
AcDbPolyline
 90
        2
 70
     0
 43
0.0
 10
2.815969918491505
 20
4.574709203553867
 10
2.815969918491505
 20
4.202573998530199
  0
LWPOLYLINE
  5
27A4
330
1F
100
AcDbEntity
  8
NETAFIM-L-DETL-035M
100
AcDbPolyline
 90
        2
 70
     0
 43
0.0
 10
2.815969918491505
 20
3.199279158627092
 10
2.815969918491505
 20
3.037045580885264
  0
LWPOLYLINE
  5
27A5
330
1F
100
AcDbEntity
  8
NETAFIM-L-DETL-035M
100
AcDbPolyline
 90
        2
 70
     0
 43
0.0
 10
2.743320945137273
 20
3.037045580885264
 10
2.743320945137273
 20
3.20313544471386
  0
LWPOLYLINE
  5
27A6
330
1F
100
AcDbEntity
  8
NETAFIM-L-DETL-035M
100
AcDbPolyline
 90
        2
 70
     0
 43
0.0
 10
2.743320945137273
 20
3.314740479186111
 10
2.743320945137273
 20
4.02439496443929
  0
LINE
  5
27A7
330
1F
100
AcDbEntity
  8
NETAFIM-L-DETL-025M-TUBING
100
AcDbLine
 10
1.298800817930451
 20
6.567940001948381
 30
0.0
 11
2.367074963405384
 21
6.567940001948381
 31
0.0
  0
LWPOLYLINE
  5
27A8
330
1F
100
AcDbEntity
  8
NETAFIM-L-DETL-HIDD-035M
100
AcDbPolyline
 90
        3
 70
     0
 43
0.0
 10
1.068275982362981
 20
6.633446323241129
 10
2.592410030745565
 20
6.633446323241129
 10
2.592410030745565
 20
6.588884685310093
  0
LWPOLYLINE
  5
27A9
330
1F
100
AcDbEntity
  8
NETAFIM-L-DETL-HIDD-035M
100
AcDbPolyline
 90
        4
 70
     0
 43
0.0
 10
2.592081446704673
 20
6.633446323241129
 10
2.592081446704673
 20
5.080030224236754
 10
1.068275982362981
 20
5.080030224236754
 10
1.068275982362981
 20
6.633446323241129
  0
LWPOLYLINE
  5
27AA
330
1F
100
AcDbEntity
  8
NETAFIM-L-DETL-025M
100
AcDbPolyline
 90
        2
 70
     0
 43
0.0
 10
2.7479167903896
 20
2.894061556048011
 42
0.4083615093540775
 10
2.837505452682499
 20
2.985462109098429
 42
0.4142135623730951
  0
LWPOLYLINE
  5
27AB
330
1F
100
AcDbEntity
  8
NETAFIM-L-DETL-025M
100
AcDbPolyline
 90
        6
 70
     0
 43
0.0
 10
2.7479167903896
 20
2.894061556048011
 10
2.701592456992843
 20
2.894043233706581
 10
2.701592456992843
 20
2.999505776810028
 10
2.732042909579048
 20
2.999505776810028
 10
2.732042909579048
 20
3.037045580885264
 10
2.837505452682496
 20
3.037045580885264
  0
LWPOLYLINE
  5
27AC
330
1F
100
AcDbEntity
  8
NETAFIM-L-DETL-025M
100
AcDbPolyline
 90
        2
 70
     0
 43
0.0
 10
2.837505452682496
 20
3.037045580885264
 10
2.837505452682499
 20
2.985462109098429
  0
LWPOLYLINE
  5
27AD
330
1F
100
AcDbEntity
  8
NETAFIM-L-DETL-025M
100
AcDbPolyline
 90
        2
 70
     0
 43
0.0
 10
1.875239497712302
 20
2.998500781020135
 42
0.4083615093540775
 10
1.785650835419406
 20
2.907100227969715
 42
0.4142135623730951
  0
LWPOLYLINE
  5
27AE
330
1F
100
AcDbEntity
  8
NETAFIM-L-DETL-025M
100
AcDbPolyline
 90
        6
 70
     0
 43
0.0
 10
1.875239497712302
 20
2.998500781020135
 10
1.921563831109063
 20
2.998519103361566
 10
1.921563831109063
 20
2.893056560258118
 10
1.891113378522854
 20
2.893056560258118
 10
1.891113378522854
 20
2.855516756182883
 10
1.785650835419406
 20
2.855516756182883
  0
LWPOLYLINE
  5
27AF
330
1F
100
AcDbEntity
  8
NETAFIM-L-DETL-025M
100
AcDbPolyline
 90
        2
 70
     0
 43
0.0
 10
1.785650835419406
 20
2.855516756182883
 10
1.785650835419406
 20
2.907100227969715
  0
LWPOLYLINE
  5
27B0
330
1F
100
AcDbEntity
  8
NETAFIM-L-DETL-035M
100
AcDbPolyline
 90
        2
 70
     0
 43
0.0
 10
2.449794263691764
 20
5.863052384590767
 10
2.449794263691764
 20
5.935701357944999
  0
ARC
  5
27B1
330
1F
100
AcDbEntity
  8
NETAFIM-L-DETL-025M-TUBING
100
AcDbCircle
 10
2.365809006505738
 20
6.417909314758551
 30
0.0
 40
0.1234779040517109
100
AcDbArc
 50
0.0
 51
90.0
  0
ARC
  5
27B2
330
1F
100
AcDbEntity
  8
NETAFIM-L-DETL-025M-TUBING
100
AcDbCircle
 10
2.365809006505738
 20
6.417909314758551
 30
0.0
 40
0.1500360281583201
100
AcDbArc
 50
0.0
 51
90.0
  0
ARC
  5
27B3
330
1F
100
AcDbEntity
  8
NETAFIM-L-DETL-025M-TUBING
100
AcDbCircle
 10
2.365480650472782
 20
5.323848244949934
 30
0.0
 40
0.1234779040517109
100
AcDbArc
 50
270.0
 51
0.0
  0
ARC
  5
27B4
330
1F
100
AcDbEntity
  8
NETAFIM-L-DETL-025M-TUBING
100
AcDbCircle
 10
2.365480650472782
 20
5.323848244949934
 30
0.0
 40
0.1500360281583201
100
AcDbArc
 50
270.0
 51
0.0
  0
ARC
  5
27B5
330
1F
100
AcDbEntity
  8
NETAFIM-L-DETL-025M-TUBING
100
AcDbCircle
 10
1.298800817930451
 20
6.41790397379006
 30
0.0
 40
0.1234779040517109
100
AcDbArc
 50
90.0
 51
270.0
  0
ARC
  5
27B6
330
1F
100
AcDbEntity
  8
NETAFIM-L-DETL-025M-TUBING
100
AcDbCircle
 10
1.298800817930451
 20
6.41790397379006
 30
0.0
 40
0.1500360281583201
100
AcDbArc
 50
90.0
 51
270.0
  0
ARC
  5
27B7
330
1F
100
AcDbEntity
  8
NETAFIM-L-DETL-025M-TUBING
100
AcDbCircle
 10
1.298896007265016
 20
5.323848244949934
 30
0.0
 40
0.1234779040517109
100
AcDbArc
 50
90.0
 51
270.0
  0
ARC
  5
27B8
330
1F
100
AcDbEntity
  8
NETAFIM-L-DETL-025M-TUBING
100
AcDbCircle
 10
1.298896007265016
 20
5.323848244949934
 30
0.0
 40
0.1500360281583201
100
AcDbArc
 50
90.0
 51
270.0
  0
LINE
  5
27B9
330
1F
100
AcDbEntity
  8
NETAFIM-L-DETL-025M-TUBING
100
AcDbLine
 10
1.298800817930451
 20
6.294426069738348
 30
0.0
 11
2.092487063429958
 21
6.294426069738351
 31
0.0
  0
LINE
  5
27BA
330
1F
100
AcDbEntity
  8
NETAFIM-L-DETL-025M-TUBING
100
AcDbLine
 10
1.298800817930451
 20
6.26786794563174
 30
0.0
 11
2.092487063429958
 21
6.26786794563174
 31
0.0
  0
ARC
  5
27BB
330
1F
100
AcDbEntity
  8
NETAFIM-L-DETL-025M-TUBING
100
AcDbCircle
 10
2.092487063429958
 20
6.144390041580029
 30
0.0
 40
0.1234779040517109
100
AcDbArc
 50
270.0
 51
90.0
  0
ARC
  5
27BC
330
1F
100
AcDbEntity
  8
NETAFIM-L-DETL-025M-TUBING
100
AcDbCircle
 10
2.092487063429958
 20
6.144390041580029
 30
0.0
 40
0.1500360281583201
100
AcDbArc
 50
270.0
 51
90.0
  0
LINE
  5
27BD
330
1F
100
AcDbEntity
  8
NETAFIM-L-DETL-025M-TUBING
100
AcDbLine
 10
2.092487063429958
 20
6.020912137528318
 30
0.0
 11
1.298215009786355
 21
6.020912137528318
 31
0.0
  0
LINE
  5
27BE
330
1F
100
AcDbEntity
  8
NETAFIM-L-DETL-025M-TUBING
100
AcDbLine
 10
2.092487063429958
 20
5.994354013421707
 30
0.0
 11
1.298215009786355
 21
5.994354013421707
 31
0.0
  0
ARC
  5
27BF
330
1F
100
AcDbEntity
  8
NETAFIM-L-DETL-025M-TUBING
100
AcDbCircle
 10
1.298215009786355
 20
5.870876109369996
 30
0.0
 40
0.1500360281583201
100
AcDbArc
 50
90.0
 51
174.7636861458014
  0
ARC
  5
27C0
330
1F
100
AcDbEntity
  8
NETAFIM-L-DETL-025M-TUBING
100
AcDbCircle
 10
1.298215009786355
 20
5.870876109369996
 30
0.0
 40
0.1500360281583201
100
AcDbArc
 50
184.9190331140807
 51
270.0
  0
ARC
  5
27C1
330
1F
100
AcDbEntity
  8
NETAFIM-L-DETL-025M-TUBING
100
AcDbCircle
 10
1.298215009786355
 20
5.870876109369996
 30
0.0
 40
0.1234779040517109
100
AcDbArc
 50
90.0
 51
270.0
  0
LINE
  5
27C2
330
1F
100
AcDbEntity
  8
NETAFIM-L-DETL-025M-TUBING
100
AcDbLine
 10
1.298215009786355
 20
5.747398205318285
 30
0.0
 11
2.093018609860857
 21
5.747398205318285
 31
0.0
  0
LINE
  5
27C3
330
1F
100
AcDbEntity
  8
NETAFIM-L-DETL-025M-TUBING
100
AcDbLine
 10
1.298215009786355
 20
5.720840081211678
 30
0.0
 11
2.093018609860857
 21
5.720840081211678
 31
0.0
  0
ARC
  5
27C4
330
1F
100
AcDbEntity
  8
NETAFIM-L-DETL-025M-TUBING
100
AcDbCircle
 10
2.093018609860857
 20
5.597362177159965
 30
0.0
 40
0.1234779040517109
100
AcDbArc
 50
270.0
 51
90.0
  0
ARC
  5
27C5
330
1F
100
AcDbEntity
  8
NETAFIM-L-DETL-025M-TUBING
100
AcDbCircle
 10
2.093018609860857
 20
5.597362177159965
 30
0.0
 40
0.1500360281583201
100
AcDbArc
 50
270.0
 51
90.0
  0
LINE
  5
27C6
330
1F
100
AcDbEntity
  8
NETAFIM-L-DETL-025M-TUBING
100
AcDbLine
 10
1.298896007265016
 20
5.447326149001645
 30
0.0
 11
2.093018609860857
 21
5.447326149001645
 31
0.0
  0
LINE
  5
27C7
330
1F
100
AcDbEntity
  8
NETAFIM-L-DETL-025M-TUBING
100
AcDbLine
 10
1.298896007265016
 20
5.473884273108254
 30
0.0
 11
2.093018609860857
 21
5.473884273108254
 31
0.0
  0
LINE
  5
27C8
330
1F
100
AcDbEntity
  8
NETAFIM-L-DETL-025M-TUBING
100
AcDbLine
 10
1.298800817930451
 20
6.541381877841772
 30
0.0
 11
2.365809006505738
 21
6.541387218810262
 31
0.0
  0
LINE
  5
27C9
330
1F
100
AcDbEntity
  8
NETAFIM-L-DETL-025M-TUBING
100
AcDbLine
 10
2.489286910557449
 20
6.417909314758551
 30
0.0
 11
2.48895855452449
 21
5.323848244949934
 31
0.0
  0
LINE
  5
27CA
330
1F
100
AcDbEntity
  8
NETAFIM-L-DETL-025M-TUBING
100
AcDbLine
 10
2.515845034664058
 20
6.417909314758551
 30
0.0
 11
2.515516678631099
 21
5.323848244949934
 31
0.0
  0
LINE
  5
27CB
330
1F
100
AcDbEntity
  8
NETAFIM-L-DETL-025M-TUBING
100
AcDbLine
 10
1.298896007265016
 20
5.200370340898222
 30
0.0
 11
2.365480650472782
 21
5.200370340898222
 31
0.0
  0
LWPOLYLINE
  5
27CC
330
1F
100
AcDbEntity
  8
NETAFIM-L-DETL-HIDD-035M
100
AcDbPolyline
 90
        4
 70
     0
 43
0.0
 10
1.080607063208295
 20
2.829615951840636
 10
2.63402316221267
 20
2.829615951840636
 10
2.63402316221267
 20
1.305810487498943
 10
1.080607063208295
 20
1.305810487498943
  0
LWPOLYLINE
  5
27CD
330
1F
100
AcDbEntity
  8
NETAFIM-L-DETL-HIDD-035M
100
AcDbPolyline
 90
        3
 70
     0
 43
0.0
 10
1.080607063208295
 20
1.305810487498943
 10
1.080607063208295
 20
2.829944535881528
 10
1.125168701139331
 20
2.829944535881528
  0
LINE
  5
27CE
330
1F
100
AcDbEntity
  8
NETAFIM-L-DETL-025M-TUBING
100
AcDbLine
 10
1.172671508607649
 20
1.536335323066415
 30
0.0
 11
1.172666167639159
 21
2.603343511641702
 31
0.0
  0
LINE
  5
27CF
330
1F
100
AcDbEntity
  8
NETAFIM-L-DETL-025M-TUBING
100
AcDbLine
 10
1.14611338450104
 20
1.536335323066415
 30
0.0
 11
1.14611338450104
 21
2.604609468541347
 31
0.0
  0
LINE
  5
27D0
330
1F
100
AcDbEntity
  8
NETAFIM-L-DETL-025M-TUBING
100
AcDbLine
 10
1.446185440817681
 20
1.536335323066415
 30
0.0
 11
1.446185440817681
 21
2.330021568565921
 31
0.0
  0
LINE
  5
27D1
330
1F
100
AcDbEntity
  8
NETAFIM-L-DETL-025M-TUBING
100
AcDbLine
 10
1.419627316711072
 20
1.536335323066415
 30
0.0
 11
1.419627316711072
 21
2.330021568565921
 31
0.0
  0
LINE
  5
27D2
330
1F
100
AcDbEntity
  8
NETAFIM-L-DETL-025M-TUBING
100
AcDbLine
 10
1.719699373027713
 20
2.330021568565921
 30
0.0
 11
1.719699373027713
 21
1.53574951492232
 31
0.0
  0
LINE
  5
27D3
330
1F
100
AcDbEntity
  8
NETAFIM-L-DETL-025M-TUBING
100
AcDbLine
 10
1.693141248921103
 20
2.330021568565921
 30
0.0
 11
1.693141248921103
 21
1.53574951492232
 31
0.0
  0
LINE
  5
27D4
330
1F
100
AcDbEntity
  8
NETAFIM-L-DETL-025M-TUBING
100
AcDbLine
 10
1.966655181131135
 20
1.53574951492232
 30
0.0
 11
1.966655181131135
 21
2.330553114996822
 31
0.0
  0
LINE
  5
27D5
330
1F
100
AcDbEntity
  8
NETAFIM-L-DETL-025M-TUBING
100
AcDbLine
 10
1.993213305237744
 20
1.53574951492232
 30
0.0
 11
1.993213305237744
 21
2.330553114996822
 31
0.0
  0
LINE
  5
27D6
330
1F
100
AcDbEntity
  8
NETAFIM-L-DETL-025M-TUBING
100
AcDbLine
 10
2.240169113341167
 20
1.536430512400983
 30
0.0
 11
2.240169113341167
 21
2.330553114996822
 31
0.0
  0
LINE
  5
27D7
330
1F
100
AcDbEntity
  8
NETAFIM-L-DETL-025M-TUBING
100
AcDbLine
 10
2.266727237447776
 20
1.536430512400983
 30
0.0
 11
2.266727237447776
 21
2.330553114996822
 31
0.0
  0
LINE
  5
27D8
330
1F
100
AcDbEntity
  8
NETAFIM-L-DETL-025M-TUBING
100
AcDbLine
 10
2.540241169657811
 20
1.536430512400983
 30
0.0
 11
2.540241169657811
 21
2.603015155608744
 31
0.0
  0
LINE
  5
27D9
330
1F
100
AcDbEntity
  8
NETAFIM-L-DETL-025M-TUBING
100
AcDbLine
 10
2.513683045551198
 20
1.536430512400983
 30
0.0
 11
2.513683045551198
 21
2.603015155608744
 31
0.0
  0
ARC
  5
27DA
330
1F
100
AcDbEntity
  8
NETAFIM-L-DETL-025M-TUBING
100
AcDbCircle
 10
2.390205141499491
 20
1.536430512400983
 30
0.0
 40
0.1234779040517109
100
AcDbArc
 50
180.0
 51
0.0
  0
ARC
  5
27DB
330
1F
100
AcDbEntity
  8
NETAFIM-L-DETL-025M-TUBING
100
AcDbCircle
 10
2.390205141499491
 20
1.536430512400983
 30
0.0
 40
0.1500360281583201
100
AcDbArc
 50
180.0
 51
0.0
  0
ARC
  5
27DC
330
1F
100
AcDbEntity
  8
NETAFIM-L-DETL-025M-TUBING
100
AcDbCircle
 10
1.843177277079427
 20
1.53574951492232
 30
0.0
 40
0.1234779040517109
100
AcDbArc
 50
180.0
 51
0.0
  0
ARC
  5
27DD
330
1F
100
AcDbEntity
  8
NETAFIM-L-DETL-025M-TUBING
100
AcDbCircle
 10
1.843177277079427
 20
1.53574951492232
 30
0.0
 40
0.1500360281583201
100
AcDbArc
 50
180.0
 51
264.5941008185694
  0
ARC
  5
27DE
330
1F
100
AcDbEntity
  8
NETAFIM-L-DETL-025M-TUBING
100
AcDbCircle
 10
1.843177277079427
 20
1.53574951492232
 30
0.0
 40
0.1500360281583201
100
AcDbArc
 50
274.7495757665327
 51
0.0
  0
ARC
  5
27DF
330
1F
100
AcDbEntity
  8
NETAFIM-L-DETL-025M-TUBING
100
AcDbCircle
 10
1.296149412659364
 20
1.536335323066415
 30
0.0
 40
0.1234779040517109
100
AcDbArc
 50
180.0
 51
0.0
  0
ARC
  5
27E0
330
1F
100
AcDbEntity
  8
NETAFIM-L-DETL-025M-TUBING
100
AcDbCircle
 10
1.296149412659364
 20
1.536335323066415
 30
0.0
 40
0.1500360281583201
100
AcDbArc
 50
180.0
 51
0.0
  0
ARC
  5
27E1
330
1F
100
AcDbEntity
  8
NETAFIM-L-DETL-025M-TUBING
100
AcDbCircle
 10
1.569663344869395
 20
2.330021568565923
 30
0.0
 40
0.1500360281583201
100
AcDbArc
 50
0.0
 51
180.0
  0
ARC
  5
27E2
330
1F
100
AcDbEntity
  8
NETAFIM-L-DETL-025M-TUBING
100
AcDbCircle
 10
1.569663344869395
 20
2.330021568565923
 30
0.0
 40
0.1234779040517109
100
AcDbArc
 50
0.0
 51
180.0
  0
ARC
  5
27E3
330
1F
100
AcDbEntity
  8
NETAFIM-L-DETL-025M-TUBING
100
AcDbCircle
 10
2.116691209289458
 20
2.330553114996824
 30
0.0
 40
0.1234779040517109
100
AcDbArc
 50
0.0
 51
180.0
  0
ARC
  5
27E4
330
1F
100
AcDbEntity
  8
NETAFIM-L-DETL-025M-TUBING
100
AcDbCircle
 10
2.116691209289458
 20
2.330553114996824
 30
0.0
 40
0.1500360281583201
100
AcDbArc
 50
0.0
 51
180.0
  0
LINE
  5
27E5
330
1F
100
AcDbEntity
  8
NETAFIM-L-DETL-025M-TUBING
100
AcDbLine
 10
1.29614407169087
 20
2.753379539800022
 30
0.0
 11
2.390205141499491
 21
2.753051183767064
 31
0.0
  0
LINE
  5
27E6
330
1F
100
AcDbEntity
  8
NETAFIM-L-DETL-025M-TUBING
100
AcDbLine
 10
1.29614407169087
 20
2.726821415693413
 30
0.0
 11
2.390205141499491
 21
2.726493059660455
 31
0.0
  0
ARC
  5
27E7
330
1F
100
AcDbEntity
  8
NETAFIM-L-DETL-025M-TUBING
100
AcDbCircle
 10
2.390205141499491
 20
2.603015155608746
 30
0.0
 40
0.1234779040517109
100
AcDbArc
 50
0.0
 51
90.0
  0
ARC
  5
27E8
330
1F
100
AcDbEntity
  8
NETAFIM-L-DETL-025M-TUBING
100
AcDbCircle
 10
2.390205141499491
 20
2.603015155608746
 30
0.0
 40
0.1500360281583201
100
AcDbArc
 50
0.0
 51
90.0
  0
ARC
  5
27E9
330
1F
100
AcDbEntity
  8
NETAFIM-L-DETL-025M-TUBING
100
AcDbCircle
 10
1.29614407169087
 20
2.603343511641702
 30
0.0
 40
0.1234779040517109
100
AcDbArc
 50
90.0
 51
180.0
  0
ARC
  5
27EA
330
1F
100
AcDbEntity
  8
NETAFIM-L-DETL-025M-TUBING
100
AcDbCircle
 10
1.29614407169087
 20
2.603343511641702
 30
0.0
 40
0.1500360281583201
100
AcDbArc
 50
90.0
 51
180.0
  0
ARC
  5
27EB
330
1F
100
AcDbEntity
  8
NETAFIM-L-DETL-025M-TUBING
100
AcDbCircle
 10
1.298215009786355
 20
4.096309699891541
 30
0.0
 40
0.1500360281583201
100
AcDbArc
 50
90.0
 51
174.763686145801
  0
ARC
  5
27EC
330
1F
100
AcDbEntity
  8
NETAFIM-L-DETL-025M-TUBING
100
AcDbCircle
 10
1.298215009786355
 20
4.096309699891541
 30
0.0
 40
0.1500360281583201
100
AcDbArc
 50
184.9190331140807
 51
270.0
  0
ARC
  5
27ED
330
1F
100
AcDbEntity
  8
NETAFIM-L-DETL-025M-TUBING
100
AcDbCircle
 10
1.298215009786355
 20
4.096309699891541
 30
0.0
 40
0.1234779040517109
100
AcDbArc
 50
90.0
 51
270.0
  0
LINE
  5
27EE
330
1F
100
AcDbEntity
  8
NETAFIM-L-DETL-025M-TUBING
100
AcDbLine
 10
1.298215009786355
 20
3.946273671733221
 30
0.0
 11
2.093018609860857
 21
3.946273671733221
 31
0.0
  0
LINE
  5
27EF
330
1F
100
AcDbEntity
  8
NETAFIM-L-DETL-025M-TUBING
100
AcDbLine
 10
1.298215009786355
 20
3.97283179583983
 30
0.0
 11
2.093018609860857
 21
3.97283179583983
 31
0.0
  0
LINE
  5
27F0
330
1F
100
AcDbEntity
  8
NETAFIM-L-DETL-025M-TUBING
100
AcDbLine
 10
2.092487063429958
 20
4.246345728049863
 30
0.0
 11
1.298215009786355
 21
4.246345728049863
 31
0.0
  0
LINE
  5
27F1
330
1F
100
AcDbEntity
  8
NETAFIM-L-DETL-025M-TUBING
100
AcDbLine
 10
2.092487063429958
 20
4.219787603943254
 30
0.0
 11
1.298215009786355
 21
4.219787603943254
 31
0.0
  0
LINE
  5
27F2
330
1F
100
AcDbEntity
  8
NETAFIM-L-DETL-025M-TUBING
100
AcDbLine
 10
1.298800817930451
 20
4.519859660259895
 30
0.0
 11
2.092487063429958
 21
4.519859660259898
 31
0.0
  0
LINE
  5
27F3
330
1F
100
AcDbEntity
  8
NETAFIM-L-DETL-025M-TUBING
100
AcDbLine
 10
1.298800817930451
 20
4.493301536153285
 30
0.0
 11
2.092487063429958
 21
4.493301536153285
 31
0.0
  0
ARC
  5
27F4
330
1F
100
AcDbEntity
  8
NETAFIM-L-DETL-025M-TUBING
100
AcDbCircle
 10
2.092487063429958
 20
4.369823632101573
 30
0.0
 40
0.1234779040517109
100
AcDbArc
 50
270.0
 51
90.0
  0
ARC
  5
27F5
330
1F
100
AcDbEntity
  8
NETAFIM-L-DETL-025M-TUBING
100
AcDbCircle
 10
2.092487063429958
 20
4.369823632101573
 30
0.0
 40
0.1500360281583201
100
AcDbArc
 50
270.0
 51
90.0
  0
LINE
  5
27F6
330
1F
100
AcDbEntity
  8
NETAFIM-L-DETL-025M-TUBING
100
AcDbLine
 10
1.298800817930451
 20
4.793373592469928
 30
0.0
 11
2.367074963405384
 21
4.793373592469926
 31
0.0
  0
LINE
  5
27F7
330
1F
100
AcDbEntity
  8
NETAFIM-L-DETL-025M-TUBING
100
AcDbLine
 10
1.298800817930451
 20
4.766815468363317
 30
0.0
 11
2.365809006505738
 21
4.766820809331806
 31
0.0
  0
ARC
  5
27F8
330
1F
100
AcDbEntity
  8
NETAFIM-L-DETL-025M-TUBING
100
AcDbCircle
 10
1.298800817930451
 20
4.643337564311606
 30
0.0
 40
0.1500360281583201
100
AcDbArc
 50
90.0
 51
270.0
  0
ARC
  5
27F9
330
1F
100
AcDbEntity
  8
NETAFIM-L-DETL-025M-TUBING
100
AcDbCircle
 10
1.298800817930451
 20
4.643337564311606
 30
0.0
 40
0.1234779040517109
100
AcDbArc
 50
90.0
 51
270.0
  0
ARC
  5
27FA
330
1F
100
AcDbEntity
  8
NETAFIM-L-DETL-025M-TUBING
100
AcDbCircle
 10
2.365809006505738
 20
4.643342905280098
 30
0.0
 40
0.1500360281583201
100
AcDbArc
 50
0.0
 51
90.0
  0
ARC
  5
27FB
330
1F
100
AcDbEntity
  8
NETAFIM-L-DETL-025M-TUBING
100
AcDbCircle
 10
2.365809006505738
 20
4.643342905280098
 30
0.0
 40
0.1234779040517109
100
AcDbArc
 50
0.0
 51
90.0
  0
LINE
  5
27FC
330
1F
100
AcDbEntity
  8
NETAFIM-L-DETL-025M-TUBING
100
AcDbLine
 10
1.298896007265016
 20
3.425803931419768
 30
0.0
 11
2.365480650472782
 21
3.425803931419768
 31
0.0
  0
LINE
  5
27FD
330
1F
100
AcDbEntity
  8
NETAFIM-L-DETL-025M-TUBING
100
AcDbLine
 10
1.298896007265016
 20
3.399245807313159
 30
0.0
 11
2.365480650472782
 21
3.399245807313159
 31
0.0
  0
LINE
  5
27FE
330
1F
100
AcDbEntity
  8
NETAFIM-L-DETL-025M-TUBING
100
AcDbLine
 10
1.298896007265016
 20
3.67275973952319
 30
0.0
 11
2.093018609860857
 21
3.67275973952319
 31
0.0
  0
LINE
  5
27FF
330
1F
100
AcDbEntity
  8
NETAFIM-L-DETL-025M-TUBING
100
AcDbLine
 10
1.298896007265016
 20
3.699317863629799
 30
0.0
 11
2.093018609860857
 21
3.699317863629799
 31
0.0
  0
ARC
  5
2800
330
1F
100
AcDbEntity
  8
NETAFIM-L-DETL-025M-TUBING
100
AcDbCircle
 10
1.298896007265016
 20
3.549281835471479
 30
0.0
 40
0.1500360281583201
100
AcDbArc
 50
90.0
 51
270.0
  0
ARC
  5
2801
330
1F
100
AcDbEntity
  8
NETAFIM-L-DETL-025M-TUBING
100
AcDbCircle
 10
1.298896007265016
 20
3.549281835471479
 30
0.0
 40
0.1234779040517109
100
AcDbArc
 50
90.0
 51
270.0
  0
ARC
  5
2802
330
1F
100
AcDbEntity
  8
NETAFIM-L-DETL-025M-TUBING
100
AcDbCircle
 10
2.093018609860857
 20
3.82279576768151
 30
0.0
 40
0.1500360281583201
100
AcDbArc
 50
270.0
 51
90.0
  0
ARC
  5
2803
330
1F
100
AcDbEntity
  8
NETAFIM-L-DETL-025M-TUBING
100
AcDbCircle
 10
2.093018609860857
 20
3.82279576768151
 30
0.0
 40
0.1234779040517109
100
AcDbArc
 50
270.0
 51
90.0
  0
ARC
  5
2804
330
1F
100
AcDbEntity
  8
NETAFIM-L-DETL-025M-TUBING
100
AcDbCircle
 10
2.365480650472782
 20
3.549281835471479
 30
0.0
 40
0.1500360281583201
100
AcDbArc
 50
270.0
 51
0.0
  0
ARC
  5
2805
330
1F
100
AcDbEntity
  8
NETAFIM-L-DETL-025M-TUBING
100
AcDbCircle
 10
2.365480650472782
 20
3.549281835471479
 30
0.0
 40
0.1234779040517109
100
AcDbArc
 50
270.0
 51
0.0
  0
LINE
  5
2806
330
1F
100
AcDbEntity
  8
NETAFIM-L-DETL-025M-TUBING
100
AcDbLine
 10
2.489286910557449
 20
4.643342905280098
 30
0.0
 11
2.48895855452449
 21
3.549281835471479
 31
0.0
  0
LINE
  5
2807
330
1F
100
AcDbEntity
  8
NETAFIM-L-DETL-025M-TUBING
100
AcDbLine
 10
2.515845034664058
 20
4.643342905280098
 30
0.0
 11
2.515516678631099
 21
3.549281835471479
 31
0.0
  0
LWPOLYLINE
  5
2808
330
1F
100
AcDbEntity
  8
NETAFIM-L-DETL-HIDD-035M
100
AcDbPolyline
 90
        4
 70
     0
 43
0.0
 10
2.592081446704673
 20
4.858879913762676
 10
2.592081446704673
 20
3.305463814758299
 10
1.068275982362981
 20
3.305463814758299
 10
1.068275982362981
 20
4.858879913762676
  0
LWPOLYLINE
  5
2809
330
1F
100
AcDbEntity
  8
NETAFIM-L-DETL-HIDD-035M
100
AcDbPolyline
 90
        3
 70
     0
 43
0.0
 10
1.068275982362981
 20
4.858879913762676
 10
2.592410030745565
 20
4.858879913762676
 10
2.592410030745565
 20
4.81431827583164
  0
LWPOLYLINE
  5
280A
330
1F
100
AcDbEntity
  8
NETAFIM-L-DETL-035M
100
AcDbPolyline
 90
        2
 70
     0
 43
0.0
 10
2.743320945137273
 20
4.202573998530199
 10
2.743320945137273
 20
4.574709203553867
  0
LWPOLYLINE
  5
280B
330
1F
100
AcDbEntity
  8
NETAFIM-L-DETL-035M
100
AcDbPolyline
 90
        2
 70
     0
 43
0.0
 10
2.815969918491505
 20
4.02439496443929
 10
2.815969918491505
 20
3.304586822472769
  0
LWPOLYLINE
  5
280C
330
1F
100
AcDbEntity
  8
NETAFIM-L-DETL-035M
100
AcDbPolyline
 90
        2
 70
     0
 43
0.0
 10
2.743320945137273
 20
4.574709203553867
 10
2.743320945137273
 20
4.752888237644777
  0
LWPOLYLINE
  5
280D
330
1F
100
AcDbEntity
  8
NETAFIM-L-DETL-035M
100
AcDbPolyline
 90
        2
 70
     0
 43
0.0
 10
2.815969918491505
 20
4.574709203553867
 10
2.815969918491505
 20
4.752888237644777
  0
LWPOLYLINE
  5
280E
330
1F
100
AcDbEntity
  8
NETAFIM-L-DETL-035M
100
AcDbPolyline
 90
        2
 70
     0
 43
0.0
 10
2.453211871174705
 20
4.146264292417347
 10
2.453211871174705
 20
4.073615319063113
  0
ARC
  5
280F
330
1F
100
AcDbEntity
  8
NETAFIM-L-DETL-035M
100
AcDbCircle
 10
0.8904671574280499
 20
5.870195833649828
 30
0.0
 40
0.121837499999996
100
AcDbArc
 50
115.787458518034
 51
115.242779645503
  0
TEXT
  5
2810
330
1F
100
AcDbEntity
  8
NETAFIM-L-DETL-TEXT-025M
  6
Continuous
100
AcDbText
 10
0.8133243002851926
 20
5.825195833649829
 30
0.0
 40
0.09
  1
AF
  7
DETAIL TEXT
 72
     1
 11
0.8904671574280499
 21
5.870195833649828
 31
0.0
100
AcDbText
 73
     2
  0
LINE
  5
2811
330
1F
100
AcDbEntity
  8
NETAFIM-L-DETL-025M-TUBING
100
AcDbLine
 10
1.148731584345537
 20
5.858010835801053
 30
0.0
 11
1.011693813876517
 21
5.858010835801053
 31
0.0
  0
LINE
  5
2812
330
1F
100
AcDbEntity
  8
NETAFIM-L-DETL-025M-TUBING
100
AcDbLine
 10
1.148805118582067
 20
5.884568959907662
 30
0.0
 11
1.011453890782683
 21
5.884568959907662
 31
0.0
  0
ARC
  5
2813
330
1F
100
AcDbEntity
  8
NETAFIM-L-DETL-035M
100
AcDbCircle
 10
0.8904671574280499
 20
4.095629424171372
 30
0.0
 40
0.121837499999996
100
AcDbArc
 50
115.787458518034
 51
115.242779645503
  0
TEXT
  5
2814
330
1F
100
AcDbEntity
  8
NETAFIM-L-DETL-TEXT-025M
  6
Continuous
100
AcDbText
 10
0.8133243002851926
 20
4.050629424171372
 30
0.0
 40
0.09
  1
AF
  7
DETAIL TEXT
 72
     1
 11
0.8904671574280499
 21
4.095629424171372
 31
0.0
100
AcDbText
 73
     2
  0
LINE
  5
2815
330
1F
100
AcDbEntity
  8
NETAFIM-L-DETL-025M-TUBING
100
AcDbLine
 10
1.148731584345537
 20
4.083444426322598
 30
0.0
 11
1.011693813876517
 21
4.083444426322598
 31
0.0
  0
LINE
  5
2816
330
1F
100
AcDbEntity
  8
NETAFIM-L-DETL-025M-TUBING
100
AcDbLine
 10
1.148805118582067
 20
4.110002550429205
 30
0.0
 11
1.011453890782683
 21
4.110002550429205
 31
0.0
  0
ARC
  5
2817
330
1F
100
AcDbEntity
  8
NETAFIM-L-DETL-035M
100
AcDbCircle
 10
1.843415386692375
 20
1.137328608541665
 30
0.0
 40
0.121837499999996
100
AcDbArc
 50
115.787458518034
 51
115.242779645503
  0
TEXT
  5
2818
330
1F
100
AcDbEntity
  8
NETAFIM-L-DETL-TEXT-025M
  6
Continuous
100
AcDbText
 10
1.766272529549518
 20
1.092328608541665
 30
0.0
 40
0.09
  1
AF
  7
DETAIL TEXT
 72
     1
 11
1.843415386692375
 21
1.137328608541665
 31
0.0
100
AcDbText
 73
     2
  0
LINE
  5
2819
330
1F
100
AcDbEntity
  8
NETAFIM-L-DETL-025M-TUBING
100
AcDbLine
 10
1.855600384541152
 20
1.386228693139804
 30
0.0
 11
1.855600384541152
 21
1.25855526499013
 31
0.0
  0
LINE
  5
281A
330
1F
100
AcDbEntity
  8
NETAFIM-L-DETL-025M-TUBING
100
AcDbLine
 10
1.829042260434543
 20
1.386380806519344
 30
0.0
 11
1.829042260434543
 21
1.258315341896299
 31
0.0
  0
ARC
  5
281B
330
1F
100
AcDbEntity
  8
NETAFIM-L-DETL-025M-TUBING
  6
Continuous
100
AcDbCircle
 10
2.502183941547922
 20
5.892399505354338
 30
0.0
 40
0.0093760503915539
100
AcDbArc
 50
270.0000000000055
 51
299.0195516293479
  0
ARC
  5
281C
330
1F
100
AcDbEntity
  8
NETAFIM-L-DETL-025M-TUBING
  6
Continuous
100
AcDbCircle
 10
2.500252006424734
 20
5.895882005447262
 30
0.0
 40
0.0133585345682255
100
AcDbArc
 50
299.0195516293518
 51
323.2527725720213
  0
ARC
  5
281D
330
1F
100
AcDbEntity
  8
NETAFIM-L-DETL-025M-TUBING
  6
Continuous
100
AcDbCircle
 10
2.497208926743004
 20
5.898154151464785
 30
0.0
 40
0.0171562946283519
100
AcDbArc
 50
323.2527725720158
 51
342.8143792335181
  0
ARC
  5
281E
330
1F
100
AcDbEntity
  8
NETAFIM-L-DETL-025M-TUBING
  6
Continuous
100
AcDbCircle
 10
2.492410671755319
 20
5.899638140018833
 30
0.0
 40
0.022178791313807
100
AcDbArc
 50
342.8143792334966
 51
0.0
  0
ARC
  5
281F
330
1F
100
AcDbEntity
  8
NETAFIM-L-DETL-025M-TUBING
  6
Continuous
100
AcDbCircle
 10
2.49241067175531
 20
5.899638140018833
 30
0.0
 40
0.0221787913138169
100
AcDbArc
 50
0.0
 51
17.18562076649996
  0
ARC
  5
2820
330
1F
100
AcDbEntity
  8
NETAFIM-L-DETL-025M-TUBING
  6
Continuous
100
AcDbCircle
 10
2.497208926742999
 20
5.901122128572881
 30
0.0
 40
0.0171562946283594
100
AcDbArc
 50
17.18562076649276
 51
36.74722742798348
  0
ARC
  5
2821
330
1F
100
AcDbEntity
  8
NETAFIM-L-DETL-025M-TUBING
  6
Continuous
100
AcDbCircle
 10
2.500252006424741
 20
5.903394274590409
 30
0.0
 40
0.0133585345682197
100
AcDbArc
 50
36.74722742797771
 51
60.98044837066065
  0
ARC
  5
2822
330
1F
100
AcDbEntity
  8
NETAFIM-L-DETL-025M-TUBING
  6
Continuous
100
AcDbCircle
 10
2.502183941547922
 20
5.906876774683334
 30
0.0
 40
0.0093760503915509
100
AcDbArc
 50
60.98044837065356
 51
90.0
  0
ARC
  5
2823
330
1F
100
AcDbEntity
  8
NETAFIM-L-DETL-025M-TUBING
  6
Continuous
100
AcDbCircle
 10
2.502183941547924
 20
5.906876774683334
 30
0.0
 40
0.009376050391553
100
AcDbArc
 50
90.00000000001092
 51
119.0195516293579
  0
ARC
  5
2824
330
1F
100
AcDbEntity
  8
NETAFIM-L-DETL-025M-TUBING
  6
Continuous
100
AcDbCircle
 10
2.504115876671109
 20
5.903394274590405
 30
0.0
 40
0.0133585345682214
100
AcDbArc
 50
119.019551629344
 51
143.2527725720182
  0
ARC
  5
2825
330
1F
100
AcDbEntity
  8
NETAFIM-L-DETL-025M-TUBING
  6
Continuous
100
AcDbCircle
 10
2.507158956352842
 20
5.901122128572884
 30
0.0
 40
0.0171562946283539
100
AcDbArc
 50
143.2527725720169
 51
162.8143792335172
  0
ARC
  5
2826
330
1F
100
AcDbEntity
  8
NETAFIM-L-DETL-025M-TUBING
  6
Continuous
100
AcDbCircle
 10
2.511957211340531
 20
5.899638140018836
 30
0.0
 40
0.0221787913138104
100
AcDbArc
 50
162.8143792334996
 51
180.0000000000021
  0
ARC
  5
2827
330
1F
100
AcDbEntity
  8
NETAFIM-L-DETL-025M-TUBING
  6
Continuous
100
AcDbCircle
 10
2.511957211340552
 20
5.899638140018833
 30
0.0
 40
0.0221787913138331
100
AcDbArc
 50
179.9999999999999
 51
197.1856207664847
  0
ARC
  5
2828
330
1F
100
AcDbEntity
  8
NETAFIM-L-DETL-025M-TUBING
  6
Continuous
100
AcDbCircle
 10
2.507158956352858
 20
5.898154151464799
 30
0.0
 40
0.017156294628373
100
AcDbArc
 50
197.185620766507
 51
216.7472274279835
  0
ARC
  5
2829
330
1F
100
AcDbEntity
  8
NETAFIM-L-DETL-025M-TUBING
  6
Continuous
100
AcDbCircle
 10
2.504115876671109
 20
5.89588200544726
 30
0.0
 40
0.0133585345682197
100
AcDbArc
 50
216.7472274279777
 51
240.9804483706607
  0
ARC
  5
282A
330
1F
100
AcDbEntity
  8
NETAFIM-L-DETL-025M-TUBING
  6
Continuous
100
AcDbCircle
 10
2.502183941547922
 20
5.892399505354335
 30
0.0
 40
0.0093760503915509
100
AcDbArc
 50
240.9804483706535
 51
270.0
  0
ARC
  5
282B
330
1F
100
AcDbEntity
  8
NETAFIM-L-DETL-025M-TUBING
  6
Continuous
100
AcDbCircle
 10
2.502420752006914
 20
4.103359857052501
 30
0.0
 40
0.0093760503915539
100
AcDbArc
 50
270.0000000000055
 51
299.0195516293479
  0
ARC
  5
282C
330
1F
100
AcDbEntity
  8
NETAFIM-L-DETL-025M-TUBING
  6
Continuous
100
AcDbCircle
 10
2.500488816883727
 20
4.106842357145426
 30
0.0
 40
0.0133585345682255
100
AcDbArc
 50
299.0195516293518
 51
323.2527725720213
  0
ARC
  5
282D
330
1F
100
AcDbEntity
  8
NETAFIM-L-DETL-025M-TUBING
  6
Continuous
100
AcDbCircle
 10
2.497445737201998
 20
4.109114503162949
 30
0.0
 40
0.0171562946283519
100
AcDbArc
 50
323.2527725720158
 51
342.8143792335181
  0
ARC
  5
282E
330
1F
100
AcDbEntity
  8
NETAFIM-L-DETL-025M-TUBING
  6
Continuous
100
AcDbCircle
 10
2.492647482214312
 20
4.110598491716997
 30
0.0
 40
0.022178791313807
100
AcDbArc
 50
342.8143792334966
 51
0.0
  0
ARC
  5
282F
330
1F
100
AcDbEntity
  8
NETAFIM-L-DETL-025M-TUBING
  6
Continuous
100
AcDbCircle
 10
2.492647482214302
 20
4.110598491716997
 30
0.0
 40
0.0221787913138169
100
AcDbArc
 50
0.0
 51
17.18562076649996
  0
ARC
  5
2830
330
1F
100
AcDbEntity
  8
NETAFIM-L-DETL-025M-TUBING
  6
Continuous
100
AcDbCircle
 10
2.49744573720199
 20
4.112082480271043
 30
0.0
 40
0.0171562946283594
100
AcDbArc
 50
17.18562076649276
 51
36.74722742798348
  0
ARC
  5
2831
330
1F
100
AcDbEntity
  8
NETAFIM-L-DETL-025M-TUBING
  6
Continuous
100
AcDbCircle
 10
2.500488816883734
 20
4.114354626288573
 30
0.0
 40
0.0133585345682197
100
AcDbArc
 50
36.74722742797771
 51
60.98044837066065
  0
ARC
  5
2832
330
1F
100
AcDbEntity
  8
NETAFIM-L-DETL-025M-TUBING
  6
Continuous
100
AcDbCircle
 10
2.502420752006914
 20
4.117837126381497
 30
0.0
 40
0.0093760503915509
100
AcDbArc
 50
60.98044837065356
 51
90.0
  0
ARC
  5
2833
330
1F
100
AcDbEntity
  8
NETAFIM-L-DETL-025M-TUBING
  6
Continuous
100
AcDbCircle
 10
2.502420752006917
 20
4.117837126381497
 30
0.0
 40
0.009376050391553
100
AcDbArc
 50
90.00000000001078
 51
119.0195516293579
  0
ARC
  5
2834
330
1F
100
AcDbEntity
  8
NETAFIM-L-DETL-025M-TUBING
  6
Continuous
100
AcDbCircle
 10
2.504352687130101
 20
4.114354626288569
 30
0.0
 40
0.0133585345682214
100
AcDbArc
 50
119.019551629344
 51
143.2527725720182
  0
ARC
  5
2835
330
1F
100
AcDbEntity
  8
NETAFIM-L-DETL-025M-TUBING
  6
Continuous
100
AcDbCircle
 10
2.507395766811834
 20
4.112082480271046
 30
0.0
 40
0.0171562946283539
100
AcDbArc
 50
143.2527725720169
 51
162.8143792335172
  0
ARC
  5
2836
330
1F
100
AcDbEntity
  8
NETAFIM-L-DETL-025M-TUBING
  6
Continuous
100
AcDbCircle
 10
2.512194021799523
 20
4.110598491716999
 30
0.0
 40
0.0221787913138104
100
AcDbArc
 50
162.8143792334996
 51
180.0000000000021
  0
ARC
  5
2837
330
1F
100
AcDbEntity
  8
NETAFIM-L-DETL-025M-TUBING
  6
Continuous
100
AcDbCircle
 10
2.512194021799546
 20
4.110598491716997
 30
0.0
 40
0.0221787913138331
100
AcDbArc
 50
179.9999999999999
 51
197.1856207664847
  0
ARC
  5
2838
330
1F
100
AcDbEntity
  8
NETAFIM-L-DETL-025M-TUBING
  6
Continuous
100
AcDbCircle
 10
2.50739576681185
 20
4.109114503162961
 30
0.0
 40
0.017156294628373
100
AcDbArc
 50
197.185620766507
 51
216.7472274279835
  0
ARC
  5
2839
330
1F
100
AcDbEntity
  8
NETAFIM-L-DETL-025M-TUBING
  6
Continuous
100
AcDbCircle
 10
2.504352687130101
 20
4.106842357145422
 30
0.0
 40
0.0133585345682197
100
AcDbArc
 50
216.7472274279777
 51
240.9804483706607
  0
ARC
  5
283A
330
1F
100
AcDbEntity
  8
NETAFIM-L-DETL-025M-TUBING
  6
Continuous
100
AcDbCircle
 10
2.502420752006914
 20
4.103359857052499
 30
0.0
 40
0.0093760503915509
100
AcDbArc
 50
240.9804483706535
 51
270.0
  0
ARC
  5
283B
330
1F
100
AcDbEntity
  8
NETAFIM-L-DETL-025M-TUBING
  6
Continuous
100
AcDbCircle
 10
1.845747453369798
 20
2.74021044501819
 30
0.0
 40
0.0093760503915539
100
AcDbArc
 50
0.000000000005496
 51
29.01955162934813
  0
ARC
  5
283C
330
1F
100
AcDbEntity
  8
NETAFIM-L-DETL-025M-TUBING
  6
Continuous
100
AcDbCircle
 10
1.842264953276875
 20
2.738278509895003
 30
0.0
 40
0.0133585345682255
100
AcDbArc
 50
29.01955162935202
 51
53.25277257202149
  0
ARC
  5
283D
330
1F
100
AcDbEntity
  8
NETAFIM-L-DETL-025M-TUBING
  6
Continuous
100
AcDbCircle
 10
1.839992807259351
 20
2.735235430213274
 30
0.0
 40
0.0171562946283519
100
AcDbArc
 50
53.25277257201587
 51
72.81437923351815
  0
ARC
  5
283E
330
1F
100
AcDbEntity
  8
NETAFIM-L-DETL-025M-TUBING
  6
Continuous
100
AcDbCircle
 10
1.838508818705301
 20
2.730437175225588
 30
0.0
 40
0.022178791313807
100
AcDbArc
 50
72.81437923349685
 51
90.0
  0
ARC
  5
283F
330
1F
100
AcDbEntity
  8
NETAFIM-L-DETL-025M-TUBING
  6
Continuous
100
AcDbCircle
 10
1.838508818705301
 20
2.730437175225578
 30
0.0
 40
0.0221787913138169
100
AcDbArc
 50
90.0
 51
107.1856207665
  0
ARC
  5
2840
330
1F
100
AcDbEntity
  8
NETAFIM-L-DETL-025M-TUBING
  6
Continuous
100
AcDbCircle
 10
1.837024830151257
 20
2.735235430213267
 30
0.0
 40
0.0171562946283594
100
AcDbArc
 50
107.1856207664927
 51
126.7472274279835
  0
ARC
  5
2841
330
1F
100
AcDbEntity
  8
NETAFIM-L-DETL-025M-TUBING
  6
Continuous
100
AcDbCircle
 10
1.834752684133727
 20
2.738278509895009
 30
0.0
 40
0.0133585345682197
100
AcDbArc
 50
126.7472274279777
 51
150.9804483706605
  0
ARC
  5
2842
330
1F
100
AcDbEntity
  8
NETAFIM-L-DETL-025M-TUBING
  6
Continuous
100
AcDbCircle
 10
1.831270184040804
 20
2.740210445018192
 30
0.0
 40
0.0093760503915509
100
AcDbArc
 50
150.9804483706535
 51
180.0
  0
ARC
  5
2843
330
1F
100
AcDbEntity
  8
NETAFIM-L-DETL-025M-TUBING
  6
Continuous
100
AcDbCircle
 10
1.831270184040804
 20
2.740210445018194
 30
0.0
 40
0.009376050391553
100
AcDbArc
 50
180.0000000000109
 51
209.0195516293579
  0
ARC
  5
2844
330
1F
100
AcDbEntity
  8
NETAFIM-L-DETL-025M-TUBING
  6
Continuous
100
AcDbCircle
 10
1.83475268413373
 20
2.742142380141377
 30
0.0
 40
0.0133585345682214
100
AcDbArc
 50
209.019551629344
 51
233.2527725720185
  0
ARC
  5
2845
330
1F
100
AcDbEntity
  8
NETAFIM-L-DETL-025M-TUBING
  6
Continuous
100
AcDbCircle
 10
1.837024830151254
 20
2.745185459823112
 30
0.0
 40
0.0171562946283539
100
AcDbArc
 50
233.2527725720169
 51
252.8143792335173
  0
ARC
  5
2846
330
1F
100
AcDbEntity
  8
NETAFIM-L-DETL-025M-TUBING
  6
Continuous
100
AcDbCircle
 10
1.838508818705301
 20
2.749983714810801
 30
0.0
 40
0.0221787913138104
100
AcDbArc
 50
252.8143792334996
 51
270.0000000000022
  0
ARC
  5
2847
330
1F
100
AcDbEntity
  8
NETAFIM-L-DETL-025M-TUBING
  6
Continuous
100
AcDbCircle
 10
1.838508818705301
 20
2.749983714810824
 30
0.0
 40
0.0221787913138331
100
AcDbArc
 50
270.0
 51
287.1856207664849
  0
ARC
  5
2848
330
1F
100
AcDbEntity
  8
NETAFIM-L-DETL-025M-TUBING
  6
Continuous
100
AcDbCircle
 10
1.839992807259339
 20
2.745185459823126
 30
0.0
 40
0.017156294628373
100
AcDbArc
 50
287.1856207665069
 51
306.7472274279835
  0
ARC
  5
2849
330
1F
100
AcDbEntity
  8
NETAFIM-L-DETL-025M-TUBING
  6
Continuous
100
AcDbCircle
 10
1.842264953276875
 20
2.742142380141375
 30
0.0
 40
0.0133585345682197
100
AcDbArc
 50
306.7472274279773
 51
330.9804483706606
  0
ARC
  5
284A
330
1F
100
AcDbEntity
  8
NETAFIM-L-DETL-025M-TUBING
  6
Continuous
100
AcDbCircle
 10
1.845747453369801
 20
2.740210445018192
 30
0.0
 40
0.0093760503915509
100
AcDbArc
 50
330.9804483706535
 51
0.0
  0
MULTILEADER
  5
284B
330
1F
100
AcDbEntity
  8
NETAFIM-L-DETL-TEXT-LEADER-025M
 92
      768
310
00030000150000000C00000016000000000000C00C00000013000000993A0000B40000000B000000C5EDB887993E10408C6A8864A5D91940000000000000000000000000000000000000000000000000000000000000F03F000000000000F03F0000000000000000000000000000000052454D4F544520434F4E54524F4C20
310
56414C56450000200014000000010000000AD7A3703D0AB73F000000000000F03F0000000000000000000000000000F03F0000000000000000000000000000000000000000726F6D616E732E736878000000007000B80000000B00000084818E7A60471040F2D0EECA0B401940000000000000000000000000000000000000
310
000000000000000000000000F03F000000000000F03F000000000000000000000000000000005749544820444953432046494C54455220414E44205052560000650018000000010000000AD7A3703D0AB73F000000000000F03F0000000000000000000000000000F03F000000000000000000000000000000000000000072
310
6F6D616E732E7368780000000000000C00000010000000080000000C00000016000000000000C00C00000012000000FF7F00000C00000013000000010000000C0000001400000001000000540000000700000003000000BBB7BA82C6310C40867B451BBAD018400000000000000000389FDC937CE30B406E2EC93B765A1840
310
0000000000000000B96842C2D4E00B405CCEB59D07D7184000000000000000000C00000013000000891300003C00000006000000020000003A907EA24D090C40F1A47DDCE0D3184000000000000000003EFBBDD050660C404A0AA39382FE194000000000000000000C00000013000000112700003C00000006000000020000
310
003EFBBDD050660C404A0AA39382FE19400000000000000000CF0B43EFFCE70F404A0AA39382FE194000000000000000000C00000016000000000000C00C00000012000000FF7F00000C00000017000000000000000C000000130000009A3A00000C00000016000000000000C00C00000012000000FF7F00000C0000001700
310
0000FFFFFFFF
100
AcDbMLeader
300
CONTEXT_DATA{
 40
1.0
 10
3.98827540324553
 20
6.498544985605414
 30
0.0
 41
0.09
140
0.12
145
0.09
174
     1
175
     1
176
     0
177
     0
290
     1
304
{\Fromans|c0;REMOTE CONTROL VALVE WITH DISC FILTER AND PRV}
 11
0.0
 21
0.0
 31
1.0
340
2000
 12
4.07827540324553
 22
6.552544985605415
 32
0.0
 13
1.0
 23
0.0
 33
0.0
 42
0.0
 43
2.045079931307213
 44
0.0
 45
1.0
170
     1
 90
-1073741824
171
     1
172
     5
 91
-1073741824
141
0.0
 92
        0
291
     0
292
     0
173
     0
293
     0
142
0.0
143
0.0
294
     0
295
     0
296
     0
110
1.469877598386553
120
6.192492851279604
130
0.0
111
1.0
121
0.0
131
0.0
112
0.0
122
1.0
132
0.0
297
     0
302
LEADER{
290
     1
291
     1
 10
3.549958830640576
 20
6.498544985605414
 30
0.0
 11
1.0
 21
0.0
 31
0.0
 90
        0
 40
0.4383165726049546
304
LEADER_LINE{
 10
3.48607745663676
 20
6.08834165015615
 30
0.0
 91
        0
305
}
303
}
301
}
340
2001
 90
   279680
170
     1
 91
-1056964608
341
14
171
    -2
290
     1
291
     1
 41
0.36
 42
0.12
172
     2
343
2000
173
     1
 95
        1
174
     1
175
     0
 92
-1056964608
292
     0
 93
-1056964608
 10
1.0
 20
1.0
 30
1.0
 43
0.0
176
     0
293
     0
294
     0
178
     0
179
     1
 45
1.0
1001
ACAD_MLEADERVER
1070
     2
  0
MULTILEADER
  5
284C
330
1F
100
AcDbEntity
  8
NETAFIM-L-DETL-TEXT-LEADER-025M
 92
     1076
310
34040000170000000C00000016000000000000C00C00000013000000993A0000A80000000B000000644BF9F3C34B1040244E7F85C1D80C40000000000000000000000000000000000000000000000000000000000000F03F000000000000F03F00000000000000000000000000000000546563686C696E6500007C00080000
310
00010000000AD7A3703D0AB73F000000000000F03F0000000000000000000000000000F03F0000000000000000000000000000000000000000726F6D616E732E7368780001000000009C0000000B000000CD13B3C3F26B1240244E7F85C1D80C40000000000000000000000000000000000000000000000000000000000000
310
F03F000000000000F03F00000000000000000000000000000000AE00000001000000010000000AD7A3703D0AB73F000000000000F03F0000000000000000000000000000F03F0000000000000000000000000000000000000000417269616C00000000000000B00000000B00000007B79F0500CB1240244E7F85C1D80C4000
310
0000000000000000000000000000000000000000000000000000000000F03F000000000000F03F0000000000000000000000000000000020535441525420434F4E4E454354494F4E00650011000000010000000AD7A3703D0AB73F000000000000F03F0000000000000000000000000000F03F000000000000000000000000
310
0000000000000000726F6D616E732E736878000000000000AC0000000B000000C5EDB887993E1040F21A4C528EA50B40000000000000000000000000000000000000000000000000000000000000F03F000000000000F03F000000000000000000000000000000004D414C452041444150544552000057000C000000010000
310
000AD7A3703D0AB73F000000000000F03F0000000000000000000000000000F03F0000000000000000000000000000000000000000726F6D616E732E7368780000000000000C00000010000000080000000C00000016000000000000C00C00000012000000FF7F00000C00000013000000010000000C000000140000000100
310
0000540000000700000003000000496062D370C004401833095BED09104000000000000000002C1C8E3DEC1604405E5B48F8386510400000000000000000F10EC5077FF20440AA775FF8592A104000000000000000000C00000013000000891300003C00000006000000020000009DB793ED77D904406155B4A9231A104000
310
00000000000000D499DD626BCF08400C3F898FA0250D4000000000000000000C00000013000000112700003C0000000600000002000000D499DD626BCF08400C3F898FA0250D400000000000000000CF0B43EFFCE70F400C3F898FA0250D4000000000000000000C00000016000000000000C00C00000012000000FF7F0000
310
0C00000017000000000000000C000000130000009A3A00000C00000016000000000000C00C00000012000000FF7F00000C00000017000000FFFFFFFF
100
AcDbMLeader
300
CONTEXT_DATA{
 40
1.0
 10
3.98827540324553
 20
3.643372651458667
 30
0.0
 41
0.09
140
0.12
145
0.09
174
     1
175
     1
176
     0
177
     0
290
     1
304
{\Fromans|c0;Techline}®{\Fromans|c0; START CONNECTION \PMALE ADAPTER }
 11
0.0
 21
0.0
 31
1.0
340
2000
 12
4.07827540324553
 22
3.697372651458668
 32
0.0
 13
1.0
 23
0.0
 33
0.0
 42
0.0
 43
2.293090808140547
 44
0.0
 45
1.0
170
     1
 90
-1073741824
171
     1
172
     5
 91
-1073741824
141
0.0
 92
        0
291
     0
292
     0
173
     0
293
     0
142
0.0
143
0.0
294
     0
295
     0
296
     0
110
1.240216360485825
120
3.260807582041143
130
0.0
111
1.0
121
0.0
131
0.0
112
0.0
122
1.0
132
0.0
297
     0
302
LEADER{
290
     1
291
     1
 10
3.101279041660044
 20
3.643372651458667
 30
0.0
 11
1.0
 21
0.0
 31
0.0
 90
        0
 40
0.8869963615854864
304
LEADER_LINE{
 10
2.511192780398706
 20
4.098850135246577
 30
0.0
 91
        0
305
}
303
}
301
}
340
2001
 90
   279680
170
     1
 91
-1056964608
341
14
171
    -2
290
     1
291
     1
 41
0.36
 42
0.12
172
     2
343
2000
173
     1
 95
        1
174
     1
175
     0
 92
-1056964608
292
     0
 93
-1056964608
 10
1.0
 20
1.0
 30
1.0
 43
0.0
176
     0
293
     0
294
     0
178
     0
179
     1
 45
1.0
1001
ACAD_MLEADERVER
1070
     2
  0
MULTILEADER
  5
284D
330
1F
100
AcDbEntity
  8
NETAFIM-L-DETL-TEXT-LEADER-025M
 92
      580
310
44020000140000000C00000016000000000000C00C00000013000000993A0000B00000000B0000004415646D275010408F02ADD93F42FE3F000000000000000000000000000000000000000000000000000000000000F03F000000000000F03F0000000000000000000000000000000049534C414E4420504552494D455445
310
520000000010000000010000000AD7A3703D0AB73F000000000000F03F0000000000000000000000000000F03F0000000000000000000000000000000000000000726F6D616E732E7368780000000000000C00000010000000080000000C00000016000000000000C00C00000012000000FF7F00000C000000130000000100
310
00000C0000001400000001000000540000000700000003000000ABB36F41520B0640338FFB6D30C3FC3F000000000000000020E154BC7A120540786A28A46AAAFC3F000000000000000063488A6CDAF90540224D16D54263FD3F00000000000000000C00000013000000891300003C000000060000000200000007FEFC5696
310
0206402AEE88A13913FD3F00000000000000000E2A8ACD990A0A4088811796B4D5FE3F00000000000000000C00000013000000112700003C00000006000000020000000E2A8ACD990A0A4088811796B4D5FE3F0000000000000000CF0B43EFFCE70F4088811796B4D5FE3F00000000000000000C00000016000000000000C0
310
0C00000012000000FF7F00000C00000017000000000000000C000000130000009A3A00000C00000016000000000000C00C00000012000000FF7F00000C00000017000000FFFFFFFF
100
AcDbMLeader
300
CONTEXT_DATA{
 40
1.0
 10
3.98827540324553
 20
1.927174173637554
 30
0.0
 41
0.09
140
0.12
145
0.09
174
     1
175
     1
176
     0
177
     0
290
     1
304
\A1;{\Fromans|c0;ISLAND PERIMETER\A0;\fArial|b0|i0|c0|p34; }
 11
0.0
 21
0.0
 31
1.0
340
2000
 12
4.07827540324553
 22
1.981174173637555
 32
0.0
 13
1.0
 23
0.0
 33
0.0
 42
0.0
 43
0.0
 44
0.0
 45
1.0
170
     1
 90
-1073741824
171
     1
172
     5
 91
-1073741824
141
0.0
 92
        0
291
     0
292
     0
173
     0
293
     0
142
0.0
143
0.0
294
     0
295
     0
296
     0
110
2.785973798834014
120
1.927174173637554
130
0.0
111
1.0
121
0.0
131
0.0
112
0.0
122
1.0
132
0.0
297
     0
302
LEADER{
290
     1
291
     1
 10
3.255176168230952
 20
1.927174173637554
 30
0.0
 11
1.0
 21
0.0
 31
0.0
 90
        0
 40
0.7330992350145783
304
LEADER_LINE{
 10
2.63402316221267
 20
1.791605607263276
 30
0.0
 91
        0
305
}
303
}
301
}
340
2001
 90
   279680
170
     1
 91
-1056964608
341
14
171
    -2
290
     1
291
     1
 41
0.36
 42
0.12
172
     2
343
2000
173
     1
 95
        1
174
     1
175
     0
 92
-1056964608
292
     0
 93
-1056964608
 10
1.0
 20
1.0
 30
1.0
 43
0.0
176
     0
293
     0
294
     0
178
   256
179
     1
 45
1.0
1001
ACAD_MLEADERVER
1070
     2
  0
MULTILEADER
  5
284E
330
1F
100
AcDbEntity
  8
NETAFIM-L-DETL-TEXT-LEADER-025M
 92
      900
310
84030000160000000C00000016000000000000C00C00000013000000993A0000A80000000B000000644BF9F3C34B1040BFD0A0C34FDA1440000000000000000000000000000000000000000000000000000000000000F03F000000000000F03F00000000000000000000000000000000546563686C696E6500007C00080000
310
00010000000AD7A3703D0AB73F000000000000F03F0000000000000000000000000000F03F0000000000000000000000000000000000000000726F6D616E732E7368780001000000009C0000000B000000CD13B3C3F26B124064A4AB9886D91440000000000000000000000000000000000000000000000000000000000000
310
F03F000000000000F03F00000000000000000000000000000000AE00000001000000010000000AD7A3703D0AB73F000000000000F03F0000000000000000000000000000F03F0000000000000000000000000000000000000000417269616C00000000000000AC0000000B00000007B79F0500CB1240BFD0A0C34FDA144000
310
0000000000000000000000000000000000000000000000000000000000F03F000000000000F03F0000000000000000000000000000000020455A20445249504C494E45005445520C000000010000000AD7A3703D0AB73F000000000000F03F0000000000000000000000000000F03F00000000000000000000000000000000
310
00000000726F6D616E732E7368780073007800000C00000010000000080000000C00000016000000000000C00C00000012000000FF7F00000C00000013000000010000000C0000001400000001000000540000000700000003000000E8DDB1E4BCAF00402667B01D00A5164000000000000000002E02213551ADFF3FF2CCF9
310
E623E216400000000000000000B482ED7EA9CB00405A4490E181CB164000000000000000000C00000013000000891300003C00000006000000020000004EB0CF31B3BD0040C055A0FF40B8164000000000000000000E2A8ACD990A0A404A6237929C08154000000000000000000C00000013000000112700003C0000000600
310
0000020000000E2A8ACD990A0A404A6237929C0815400000000000000000CF0B43EFFCE70F404A6237929C08154000000000000000000C00000016000000000000C00C00000012000000FF7F00000C00000017000000000000000C000000130000009A3A00000C00000016000000000000C00C00000012000000FF7F00000C
310
00000017000000FFFFFFFF
100
AcDbMLeader
300
CONTEXT_DATA{
 40
1.0
 10
3.98827540324553
 20
5.258409771566741
 30
0.0
 41
0.09
140
0.12
145
0.09
174
     1
175
     1
176
     0
177
     0
290
     1
304
\A1;{\Fromans|c0;Techline\A0;\fArial|b0|i0|c0|p34;®\A1;\Fromans|c0; EZ DRIPLINE}
 11
0.0
 21
0.0
 31
1.0
340
2000
 12
4.07827540324553
 22
5.303962295441229
 32
0.0
 13
1.0
 23
0.0
 33
0.0
 42
0.0
 43
0.0
 44
0.0
 45
1.0
170
     1
 90
-1073741824
171
     1
172
     5
 91
-1073741824
141
0.0
 92
        0
291
     0
292
     0
173
     0
293
     0
142
0.0
143
0.0
294
     0
295
     0
296
     0
110
2.311969518099723
120
5.640974840984265
130
0.0
111
1.0
121
0.0
131
0.0
112
0.0
122
1.0
132
0.0
297
     0
302
LEADER{
290
     1
291
     1
 10
3.255176168230952
 20
5.258409771566741
 30
0.0
 11
1.0
 21
0.0
 31
0.0
 90
        0
 40
0.7330992350145783
304
LEADER_LINE{
 10
1.979813773665351
 20
5.720840081211678
 30
0.0
 91
        0
305
}
303
}
301
}
340
2001
 90
   279680
170
     1
 91
-1056964608
341
14
171
    -2
290
     1
291
     1
 41
0.36
 42
0.12
172
     2
343
2000
173
     1
 95
        1
174
     1
175
     0
 92
-1056964608
292
     0
 93
-1056964608
 10
1.0
 20
1.0
 30
1.0
 43
0.0
176
     0
293
     0
294
     0
178
   256
179
     1
 45
1.0
1001
ACAD_MLEADERVER
1070
     2
  0
MULTILEADER
  5
284F
330
1F
100
AcDbEntity
  8
NETAFIM-L-DETL-TEXT-LEADER-025M
 92
     1084
310
3C040000170000000C00000016000000000000C00C00000013000000993A0000B40000000B000000644BF9F3C34B1040BFE43765704EF53F000000000000000000000000000000000000000000000000000000000000F03F000000000000F03F000000000000000000000000000000004155544F4D4154494320464C555348
310
2056414C564500525615000000010000000AD7A3703D0AB73F000000000000F03F0000000000000000000000000000F03F0000000000000000000000000000000000000000726F6D616E732E736878007300780000B00000000B000000C5EDB887993E10405CE02468D2A1F23F000000000000000000000000000000000000
310
000000000000000000000000F03F000000000000F03F00000000000000000000000000000000504C554D42454420544F20546563686C696E650013000000010000000AD7A3703D0AB73F000000000000F03F0000000000000000000000000000F03F0000000000000000000000000000000000000000726F6D616E732E7368
310
780000000000009C0000000B000000E6234E0E363A16405CE02468D2A1F23F000000000000000000000000000000000000000000000000000000000000F03F000000000000F03F00000000000000000000000000000000AE00000001000000010000000AD7A3703D0AB73F000000000000F03F000000000000000000000000
310
0000F03F0000000000000000000000000000000000000000417269616C00000000000000A80000000B00000020C73A50439916405CE02468D2A1F23F000000000000000000000000000000000000000000000000000000000000F03F000000000000F03F0000000000000000000000000000000020455A202854595029007C
310
0009000000010000000AD7A3703D0AB73F000000000000F03F0000000000000000000000000000F03F0000000000000000000000000000000000000000726F6D616E732E7368780001000000000C00000010000000080000000C00000016000000000000C00C00000012000000FF7F00000C00000013000000010000000C00
310
000014000000010000005400000007000000030000004105E8B3C3AF00408FA306A922FAF13F0000000000000000DC508F86516DFF3FB8A600DAB1F0F13F0000000000000000A4B4C2B5C4A000403C71BAF4349BF23F00000000000000000C00000013000000891300003C0000000600000002000000F25CD53444A8004065
310
8AE0CEAB4AF23F00000000000000000E2A8ACD990A0A4038F9E5AC51C9F53F00000000000000000C00000013000000112700003C00000006000000020000000E2A8ACD990A0A4038F9E5AC51C9F53F0000000000000000CF0B43EFFCE70F4038F9E5AC51C9F53F00000000000000000C00000016000000000000C00C000000
310
12000000FF7F00000C00000017000000000000000C000000130000009A3A00000C00000016000000000000C00C00000012000000FF7F00000C00000017000000FFFFFFFF
100
AcDbMLeader
300
CONTEXT_DATA{
 40
1.0
 10
3.98827540324553
 20
1.361650157341115
 30
0.0
 41
0.09
140
0.12
145
0.09
174
     1
175
     1
176
     0
177
     0
290
     1
304
{\Fromans|c0;AUTOMATIC FLUSH VALVE PLUMBED TO Techline}®{\Fromans|c0; EZ (TYP)}
 11
0.0
 21
0.0
 31
1.0
340
2000
 12
4.07827540324553
 22
1.421650157341115
 32
0.0
 13
1.0
 23
0.0
 33
0.0
 42
0.0
 43
2.342680692474612
 44
0.0
 45
1.0
170
     1
 90
-1073741824
171
     1
172
     5
 91
-1073741824
141
0.0
 92
        0
291
     0
292
     0
173
     0
293
     0
142
0.0
143
0.0
294
     0
295
     0
296
     0
110
1.33864254965804
120
1.189185435526473
130
0.0
111
1.0
121
0.0
131
0.0
112
0.0
122
1.0
132
0.0
297
     0
302
LEADER{
290
     1
291
     1
 10
3.255176168230952
 20
1.361650157341115
 30
0.0
 11
1.0
 21
0.0
 31
0.0
 90
        0
 40
0.7330992350145783
304
LEADER_LINE{
 10
1.964189077019049
 20
1.121263362476765
 30
0.0
 91
        0
305
}
303
}
301
}
340
2001
 90
   279680
170
     1
 91
-1056964608
341
14
171
    -2
290
     1
291
     1
 41
0.36
 42
0.12
172
     2
343
2000
173
     1
 95
        1
174
     1
175
     0
 92
-1056964608
292
     0
 93
-1056964608
 10
1.0
 20
1.0
 30
1.0
 43
0.0
176
     0
293
     0
294
     0
178
     0
179
     1
 45
1.0
1001
ACAD_MLEADERVER
1070
     2
  0
MULTILEADER
  5
2850
330
1F
100
AcDbEntity
  8
NETAFIM-L-DETL-TEXT-LEADER-025M
 92
      576
310
40020000140000000C00000016000000000000C00C00000013000000993A0000AC0000000B000000A5B72301FD42104094E30623614F1140000000000000000000000000000000000000000000000000000000000000F03F000000000000F03F00000000000000000000000000000000535550504C59204845414445520068
310
6C0D000000010000000AD7A3703D0AB73F000000000000F03F0000000000000000000000000000F03F0000000000000000000000000000000000000000726F6D616E732E7368780073007800000C00000010000000080000000C00000016000000000000C00C00000012000000FF7F00000C00000013000000010000000C00
310
000014000000010000005400000007000000030000007E9657A0D7360740B81D59CC73F512400000000000000000C486933C1B87064052951E6CC24D1340000000000000000062D5E1939F66074040504531B916134000000000000000000C00000013000000891300003C0000000600000002000000F0B51C9ABB4E0740FC
310
36CF7E16061340000000000000000074D235D2FCAD0B40528321523E74114000000000000000000C00000013000000112700003C000000060000000200000074D235D2FCAD0B40528321523E7411400000000000000000CF0B43EFFCE70F40528321523E74114000000000000000000C00000016000000000000C00C000000
310
12000000FF7F00000C00000017000000000000000C000000130000009A3A00000C00000016000000000000C00C00000012000000FF7F00000C00000017000000FFFFFFFF
100
AcDbMLeader
300
CONTEXT_DATA{
 40
1.0
 10
3.98827540324553
 20
4.363518985076398
 30
0.0
 41
0.09
140
0.12
145
0.09
174
     1
175
     1
176
     0
177
     0
290
     1
304
{\Fromans|c0;SUPPLY HEADER}
 11
0.0
 21
0.0
 31
1.0
340
2000
 12
4.07827540324553
 22
4.417518985076398
 32
0.0
 13
1.0
 23
0.0
 33
0.0
 42
0.0
 43
2.342680692474612
 44
0.0
 45
1.0
170
     1
 90
-1073741824
171
     1
172
     5
 91
-1073741824
141
0.0
 92
        0
291
     0
292
     0
173
     0
293
     0
142
0.0
143
0.0
294
     0
295
     0
296
     0
110
1.33864254965804
120
3.445362680588688
130
0.0
111
1.0
121
0.0
131
0.0
112
0.0
122
1.0
132
0.0
297
     0
302
LEADER{
290
     1
291
     1
 10
3.459954874293822
 20
4.363518985076398
 30
0.0
 11
1.0
 21
0.0
 31
0.0
 90
        0
 40
0.5283205289517077
304
LEADER_LINE{
 10
2.815969918491505
 20
4.825936974875121
 30
0.0
 91
        0
305
}
303
}
301
}
340
2001
 90
   279680
170
     1
 91
-1056964608
341
14
171
    -2
290
     1
291
     1
 41
0.36
 42
0.12
172
     2
343
2000
173
     1
 95
        1
174
     1
175
     0
 92
-1056964608
292
     0
 93
-1056964608
 10
1.0
 20
1.0
 30
1.0
 43
0.0
176
     0
293
     0
294
     0
178
     0
179
     1
 45
1.0
1001
ACAD_MLEADERVER
1070
     2
  0
MULTILEADER
  5
2851
330
1F
100
AcDbEntity
  8
NETAFIM-L-DETL-TEXT-LEADER-025M
 92
      892
310
7C030000160000000C00000016000000000000C00C00000013000000993A0000A80000000B000000644BF9F3C34B10402007E254D61D0240000000000000000000000000000000000000000000000000000000000000F03F000000000000F03F00000000000000000000000000000000546563686C696E6500007C00080000
310
00010000000AD7A3703D0AB73F000000000000F03F0000000000000000000000000000F03F0000000000000000000000000000000000000000726F6D616E732E7368780001000000009C0000000B000000CD13B3C3F26B12402007E254D61D0240000000000000000000000000000000000000000000000000000000000000
310
F03F000000000000F03F00000000000000000000000000000000AE00440001000000010000000AD7A3703D0AB73F000000000000F03F0000000000000000000000000000F03F0000000000000000000000000000000000000000417269616C00590000002900A40000000B00000007B79F0500CB12402007E254D61D024000
310
0000000000000000000000000000000000000000000000000000000000F03F000000000000F03F000000000000000000000000000000002054454500BB2A1304000000010000000AD7A3703D0AB73F000000000000F03F0000000000000000000000000000F03F0000000000000000000000000000000000000000726F6D61
310
6E732E736878003F000000000C00000010000000080000000C00000016000000000000C00C00000012000000FF7F00000C00000013000000010000000C00000014000000010000005400000007000000030000006B2316AD1C08FF3F2AC612C0F0F604400000000000000000B607C6D16478FD3F9472EB76B58B0540000000
310
0000000000D037FF090153FF3FD1E10817CD3F054000000000000000000C00000013000000891300003C00000006000000020000009DAD8ADB8E2DFF3FFDD38DEB5E1B05400000000000000000F84CAE5115B10440EC82F947027C024000000000000000000C00000013000000112700003C0000000600000002000000F84C
310
AE5115B10440EC82F947027C02400000000000000000D10B43EFFCE70F40EC82F947027C024000000000000000000C00000016000000000000C00C00000012000000FF7F00000C00000017000000000000000C000000130000009A3A00000C00000016000000000000C00C00000012000000FF7F00000C00000017000000FF
310
FFFFFF
100
AcDbMLeader
300
CONTEXT_DATA{
 40
1.0
 10
3.988275403245531
 20
2.310551225950225
 30
0.0
 41
0.09
140
0.12
145
0.09
174
     1
175
     1
176
     0
177
     0
290
     1
304
{\Fromans|c0;Techline}®{\Fromans|c0; TEE}
 11
0.0
 21
0.0
 31
1.0
340
2000
 12
4.07827540324553
 22
2.356103749824713
 32
0.0
 13
1.0
 23
0.0
 33
0.0
 42
0.0
 43
0.0
 44
0.0
 45
1.0
170
     1
 90
-1073741824
171
     1
172
     5
 91
-1073741824
141
0.0
 92
        0
291
     0
292
     0
173
     0
293
     0
142
0.0
143
0.0
294
     0
295
     0
296
     0
110
1.240216360485824
120
1.927986156532702
130
0.0
111
1.0
121
0.0
131
0.0
112
0.0
122
1.0
132
0.0
297
     0
302
LEADER{
290
     1
291
     1
 10
2.586466444141134
 20
2.310551225950225
 30
0.0
 11
1.0
 21
0.0
 31
0.0
 90
        0
 40
1.401808959104397
304
LEADER_LINE{
 10
1.84189302389903
 20
2.693217209873475
 30
0.0
 91
        0
305
}
303
}
301
}
340
2001
 90
   279680
170
     1
 91
-1056964608
341
14
171
    -2
290
     1
291
     1
 41
0.36
 42
0.12
172
     2
343
2000
173
     1
 95
        1
174
     1
175
     0
 92
-1056964608
292
     0
 93
-1056964608
 10
1.0
 20
1.0
 30
1.0
 43
0.0
176
     0
293
     0
294
     0
178
     0
179
     1
 45
1.0
1001
ACAD_MLEADERVER
1070
     2
  0
ENDSEC
  0
SECTION
  2
OBJECTS
  0
DICTIONARY
  5
C
330
0
100
AcDbDictionary
281
     1
  3
ACAD_CIP_PREVIOUS_PRODUCT_INFO
350
24C2
  3
ACAD_COLOR
350
73
  3
ACAD_GROUP
350
D
  3
ACAD_LAYOUT
350
1A
  3
ACAD_MATERIAL
350
72
  3
ACAD_MLEADERSTYLE
350
D7
  3
ACAD_MLINESTYLE
350
17
  3
ACAD_PLOTSETTINGS
350
19
  3
ACAD_PLOTSTYLENAME
350
E
  3
ACAD_SCALELIST
350
B6
  3
ACAD_TABLESTYLE
350
86
  3
ACAD_VISUALSTYLE
350
99
  3
ACDB_RECOMPOSE_DATA
350
28CA
  3
AcDbVariableDictionary
350
66
  3
ADE_QUERY_LIBRARY
350
18F
  3
ASE_INDEX_DICTIONARY
350
1FA
  3
Autodesk_MAP
350
179
1001
ADE
1000
ADE02C004
1000
[Query]
1000
CaseSensitiveMatch=0
1000
SaveCurrQueryInSession=1
1000
MkSelSetWithQryObj=0
1000
ShowBlockAsInsPt=0
1000
CreateAssociativeHatchObjects=0
1000
ReferenceBoundaryForAreaLocation=1
1000
ShowImageAsBoundary=1
1000
DefaultJoinOperator=2
1000
ColorForAdd=red
1000
ColorForRemove=red
1000
BlockLocnForQuery=1
1000
TextLocnForQuery=1
1000
IncludeAllObjectsInGroups=0
1000
AlwaysUseLibraryDefinitions=0
1000
PreviewDefinitionsFrom=2
1000
[Save Back]
1000
RedefineBlockDefinitions=1
1000
RedefineLayerDefinitions=1
1000
RedefineTextStyleDefinitions=1
1000
RemoveUnusedGroups=1
1000
EraseSavedBackObjects=1
1000
RemoveLockAfterSave=1
1000
CreateHistoryFileOfChanges=0
1000
CreateBackupFileOfSourceDwg=1
1000
DontAddObjectsToSaveSet=0
1000
MarkObjectsForEditingWithoutPrompting=0
1000
FdoDontAddObjsToSvSet=0
1000
FdoEditWithoutPrompt=1
1000
FdoRemUnusedGrps=1
1000
FdoEraseSvdBkObjs=1
1000
FdoRemoveLockOnSave=1
1000
FdoTesselationMaxPointsDistance=0
1000
FdoTesselationMaxCurvesDistance=0
1000
[Coordinate Transformation]
1000
RestoreLastActiveDwgsOnStartup=1
1000
ActivateDwgsOnAttach=1
1000
AdjustSizesAndScalesForChangesInUnits=1
1000
AdjustRotationsForMapDistortions=1
1000
AdjustSizesAndScalesForMapDistortions=1
1000
AdjustElevations=1
1000
AdjustZeroRotationObjects=1
1000
ReconnectDbOnWSOpen=1
1000
NoOfSQLConditionsInHistory=10
  0
DICTIONARY
  5
288A
330
8
100
AcDbDictionary
280
     1
281
     1
  0
DICTIONARY
  5
20C
330
2
100
AcDbDictionary
280
     1
281
     1
  3
ACAD_LAYERSTATES
360
20D
  0
DICTIONARY
  5
E6
330
10
100
AcDbDictionary
280
     1
281
     1
  0
DICTIONARY
  5
1FF2
330
1FF1
100
AcDbDictionary
280
     1
281
     1
  0
DICTIONARY
  5
1FF4
330
1FF3
100
AcDbDictionary
280
     1
281
     1
  0
DICTIONARY
  5
1FF6
330
1FF5
100
AcDbDictionary
280
     1
281
     1
  0
DICTIONARY
  5
1FF9
330
1FF8
100
AcDbDictionary
280
     1
281
     1
  0
DICTIONARY
  5
1FFB
330
1FFA
100
AcDbDictionary
280
     1
281
     1
  0
DICTIONARY
  5
15D
330
1F
100
AcDbDictionary
280
     1
281
     1
  3
ACAD_GEOGRAPHICDATA
360
18D
  3
ACAD_SORTENTS
360
188
  0
XRECORD
  5
24C2
102
{ACAD_REACTORS
330
C
102
}
330
C
100
AcDbXrecord
280
     1
300
MAP
300
2012
300
MAP_F_S
  0
DICTIONARY
  5
73
102
{ACAD_REACTORS
330
C
102
}
330
C
100
AcDbDictionary
281
     1
  0
DICTIONARY
  5
D
102
{ACAD_REACTORS
330
C
102
}
330
C
100
AcDbDictionary
281
     1
  0
DICTIONARY
  5
1A
102
{ACAD_REACTORS
330
C
102
}
330
C
100
AcDbDictionary
281
     1
  3
Layout1
350
59
  3
Layout2
350
5E
  3
Model
350
22
  0
DICTIONARY
  5
72
102
{ACAD_REACTORS
330
C
102
}
330
C
100
AcDbDictionary
281
     1
  3
ByBlock
350
97
  3
ByLayer
350
96
  3
Global
350
98
  0
DICTIONARY
  5
D7
102
{ACAD_REACTORS
330
C
102
}
330
C
100
AcDbDictionary
281
     1
  3
Netafim Detail
350
2001
  3
Standard
350
D8
  0
DICTIONARY
  5
17
102
{ACAD_REACTORS
330
C
102
}
330
C
100
AcDbDictionary
281
     1
  3
Standard
350
18
  0
DICTIONARY
  5
19
102
{ACAD_REACTORS
330
C
102
}
330
C
100
AcDbDictionary
281
     1
  0
ACDBDICTIONARYWDFLT
  5
E
102
{ACAD_REACTORS
330
C
102
}
330
C
100
AcDbDictionary
281
     1
  3
Normal
350
F
100
AcDbDictionaryWithDefault
340
F
  0
DICTIONARY
  5
B6
102
{ACAD_REACTORS
330
C
102
}
330
C
100
AcDbDictionary
281
     1
  3
A0
350
B7
  3
A1
350
124
  3
A2
350
125
  3
A3
350
126
  3
A4
350
127
  3
A5
350
128
  3
A6
350
129
  3
A7
350
12A
  3
A8
350
12B
  3
A9
350
12C
  3
B0
350
12D
  3
B1
350
12E
  3
B2
350
12F
  3
B3
350
130
  3
B4
350
131
  3
B5
350
132
  3
B6
350
133
  3
B7
350
134
  3
B8
350
135
  3
B9
350
136
  3
C0
350
137
  3
C1
350
138
  3
C2
350
139
  3
C3
350
13A
  3
C4
350
13B
  3
C5
350
13C
  3
C6
350
13D
  3
C7
350
13E
  3
C8
350
13F
  3
C9
350
140
  3
D0
350
141
  3
D1
350
142
  3
D2
350
143
  0
DICTIONARY
  5
86
102
{ACAD_REACTORS
330
C
102
}
330
C
100
AcDbDictionary
281
     1
  3
Legend
350
181
  3
Standard
350
87
  0
DICTIONARY
  5
99
102
{ACAD_REACTORS
330
C
102
}
330
C
100
AcDbDictionary
281
     1
  3
2dWireframe
350
9F
  3
3D Hidden
350
A1
  3
3dWireframe
350
A0
  3
Basic
350
9E
  3
Brighten
350
A5
  3
ColorChange
350
A9
  3
Conceptual
350
A2
  3
Dim
350
A4
  3
EdgeColorOff
350
175
  3
Facepattern
350
A8
  3
Flat
350
9A
  3
FlatWithEdges
350
9B
  3
Gouraud
350
9C
  3
GouraudWithEdges
350
9D
  3
Hidden
350
1AE
  3
JitterOff
350
173
  3
Linepattern
350
A7
  3
OverhangOff
350
174
  3
Realistic
350
A3
  3
Shaded
350
1B1
  3
Shaded with edges
350
1B4
  3
Shades of Gray
350
1B7
  3
Sketchy
350
1BA
  3
Thicken
350
A6
  3
Wireframe
350
1BD
  3
X-Ray
350
1C0
  0
XRECORD
  5
28CA
102
{ACAD_REACTORS
330
C
102
}
330
C
100
AcDbXrecord
280
     1
 90
        1
330
87
330
181
330
259C
  0
DICTIONARY
  5
66
102
{ACAD_REACTORS
330
C
102
}
330
C
100
AcDbDictionary
281
     1
  3
CANNOSCALE
350
F0
  3
CMLEADERSTYLE
350
EF
  3
CTABLESTYLE
350
89
  3
DIMASSOC
350
67
  3
EXPORTMODELSPACE
350
2866
  3
HIDETEXT
350
6B
  3
LAYEREVAL
350
14D
  3
LAYERNOTIFY
350
14E
  3
LIGHTINGUNITS
350
BA3
  3
MSLTSCALE
350
28B9
  3
STEPSIZE
350
28BA
  3
XCLIPFRAME
350
28C7
  0
DICTIONARY
  5
18F
102
{ACAD_REACTORS
330
C
102
}
330
C
100
AcDbDictionary
281
     1
  3
_CurrQry
350
28C6
  0
DICTIONARY
  5
1FA
102
{ACAD_REACTORS
330
C
102
}
330
C
100
AcDbDictionary
281
     1
  3
ASEBlockHierarchyIndexRecord
350
1FB
1001
DCO15
1040
1758272223.807
  0
DICTIONARY
  5
179
102
{ACAD_REACTORS
330
C
102
}
330
C
100
AcDbDictionary
281
     1
  3
AcMapDMStylizedEntities
350
189
  3
FSD_Dictionary
350
18A
  3
MAP_DISPLAY_CUSTOMOBJ_REG_TABLE
350
17D
  3
MAP_DISPLAY_MANAGEMENT_DICTIONARY
350
17A
  3
MAP_DISPLAY_STYLELIBRARY_DICTIONARY
350
17B
  3
MAP_RESOURCE_VERSION_MANAGEMENT_DICTIONARY
350
17E
1001
MapGWS
1000
D:\ProgramData\Autodesk\AutoCAD Map 3D 2010\R18.0\MapCache\EZ103L-Techline_LITE_ISLAND_LAYOUTGWS1344891727.xml
  0
DICTIONARY
  5
20D
102
{ACAD_REACTORS
330
20C
102
}
330
20C
100
AcDbDictionary
281
     1
  0
GEODATA
  5
18D
102
{ACAD_REACTORS
330
15D
102
}
330
15D
100
AcDbGeoData
 90
        1
 70
     0
330
1F
 40
37.795
 41
-122.394
 42
0.0
 91
        6
 10
0.0
 20
0.0
 30
0.0
 11
0.0
 21
0.0
 31
0.0
210
0.0
220
0.0
230
1.0
 52
0.0
 43
1.0
 44
1.0
 45
1.0
301

302
<georss:point>37.7950 -122.3940</georss:point>
 46
1.0
303

304

305

306

307

 93
        0
 96
        0
  3
CIVIL3D_DATA_BEGIN
292
     0
 14
-122.394
 24
37.795
 15
-122.394
 25
37.795
 93
        0
 94
        0
293
     0
 16
0.0
 26
0.0
 17
0.0
 27
0.0
 54
0.0
140
0.0
 95
        3
141
1.0
294
     0
142
0.0
143
0.0
  4
CIVIL3D_DATA_END
  0
SORTENTSTABLE
  5
188
102
{ACAD_REACTORS
330
15D
102
}
330
15D
100
AcDbSortentsTable
330
1F
  0
LAYOUT
  5
59
102
{ACAD_REACTORS
330
1A
102
}
330
1A
100
AcDbPlotSettings
  1

  2
None
  4

  6

 40
0.0
 41
0.0
 42
0.0
 43
0.0
 44
0.0
 45
0.0
 46
0.0
 47
0.0
 48
0.0
 49
0.0
140
0.0
141
0.0
142
1.0
143
1.0
 70
   688
 72
     0
 73
     0
 74
     5
  7
NETAFIM.ctb
 75
    16
147
1.0
 76
     0
 77
     2
 78
   300
148
0.0
149
0.0
100
AcDbLayout
  1
Layout1
 70
     1
 71
     1
 10
0.0
 20
0.0
 11
12.0
 21
9.0
 12
0.0
 22
0.0
 32
0.0
 14
0.0
 24
0.0
 34
0.0
 15
0.0
 25
0.0
 35
0.0
146
0.0
 13
0.0
 23
0.0
 33
0.0
 16
1.0
 26
0.0
 36
0.0
 17
0.0
 27
1.0
 37
0.0
 76
     0
330
58
  0
LAYOUT
  5
5E
102
{ACAD_REACTORS
330
1A
102
}
330
1A
100
AcDbPlotSettings
  1

  2
None
  4

  6

 40
0.0
 41
0.0
 42
0.0
 43
0.0
 44
0.0
 45
0.0
 46
0.0
 47
0.0
 48
0.0
 49
0.0
140
0.0
141
0.0
142
1.0
143
1.0
 70
   688
 72
     0
 73
     0
 74
     5
  7
NETAFIM.ctb
 75
    16
147
1.0
 76
     0
 77
     2
 78
   300
148
0.0
149
0.0
100
AcDbLayout
  1
Layout2
 70
     1
 71
     2
 10
0.0
 20
0.0
 11
12.0
 21
9.0
 12
0.0
 22
0.0
 32
0.0
 14
0.0
 24
0.0
 34
0.0
 15
0.0
 25
0.0
 35
0.0
146
0.0
 13
0.0
 23
0.0
 33
0.0
 16
1.0
 26
0.0
 36
0.0
 17
0.0
 27
1.0
 37
0.0
 76
     0
330
5D
  0
LAYOUT
  5
22
102
{ACAD_XDICTIONARY
360
999
102
}
102
{ACAD_REACTORS
330
1A
102
}
330
1A
100
AcDbPlotSettings
  1

  2
Adobe PDF
  4
Letter
  6

 40
3.174999952316284
 41
3.174999952316284
 42
3.175003051757812
 43
3.17498779296875
 44
215.8999938964844
 45
279.3999938964844
 46
14.27194387215362
 47
14.05199713127974
 48
0.0
 49
0.0
140
0.0
141
0.0
142
1.0
143
1.0
 70
 11940
 72
     0
 73
     1
 74
     1
  7
NETAFIM.ctb
 75
     0
147
1.114718953385386
 76
     0
 77
     2
 78
   300
148
0.0186023801347695
149
0.0139519008138898
100
AcDbLayout
  1
Model
 70
     1
 71
     0
 10
0.0
 20
0.0
 11
12.0
 21
9.0
 12
0.0
 22
0.0
 32
0.0
 14
0.0
 24
0.0
 34
0.0
 15
0.0
 25
0.0
 35
0.0
146
0.0
 13
0.0
 23
0.0
 33
0.0
 16
1.0
 26
0.0
 36
0.0
 17
0.0
 27
1.0
 37
0.0
 76
     0
330
1F
331
94
1001
ACAD_PSEXT
1000
Adobe PDF
1000
Adobe PDF Converter
1000
Documents\*.pdf
1000

1070
     0
  0
MATERIAL
  5
97
102
{ACAD_XDICTIONARY
360
28CE
102
}
102
{ACAD_REACTORS
330
72
102
}
330
72
100
AcDbMaterial
  1
ByBlock
  0
MATERIAL
  5
96
102
{ACAD_XDICTIONARY
360
28CC
102
}
102
{ACAD_REACTORS
330
72
102
}
330
72
100
AcDbMaterial
  1
ByLayer
  0
MATERIAL
  5
98
102
{ACAD_XDICTIONARY
360
110
102
}
102
{ACAD_REACTORS
330
72
102
}
330
72
100
AcDbMaterial
  1
Global
 43
0.0208000000566244
 43
0.0
 43
0.0
 43
0.0
 43
0.0
 43
0.0208000000566244
 43
0.0
 43
0.0
 43
0.0
 43
0.0
 43
1.0
 43
0.0
 43
0.0
 43
0.0
 43
0.0
 43
1.0
 49
0.0208000000566244
 49
0.0
 49
0.0
 49
0.0
 49
0.0
 49
0.0208000000566244
 49
0.0
 49
0.0
 49
0.0
 49
0.0
 49
1.0
 49
0.0
 49
0.0
 49
0.0
 49
0.0
 49
1.0
142
0.0208000000566244
142
0.0
142
0.0
142
0.0
142
0.0
142
0.0208000000566244
142
0.0
142
0.0
142
0.0
142
0.0
142
1.0
142
0.0
142
0.0
142
0.0
142
0.0
142
1.0
144
0.0208000000566244
144
0.0
144
0.0
144
0.0
144
0.0
144
0.0208000000566244
144
0.0
144
0.0
144
0.0
144
0.0
144
1.0
144
0.0
144
0.0
144
0.0
144
0.0
144
1.0
1001
ACAD
1070
    -1
1070
     3
1070
     0
1000

1071
        0
1070
     0
  0
MLEADERSTYLE
  5
2001
102
{ACAD_REACTORS
330
D7
330
284B
330
284C
330
284D
330
284E
330
284F
330
2850
330
2851
102
}
330
D7
100
AcDbMLeaderStyle
170
     2
171
     1
172
     0
 90
        2
 40
0.0
 41
0.0
173
     1
 91
-1056964608
340
14
 92
       -2
290
     1
 42
0.09
291
     1
 43
0.36
  3
Standard
 44
0.12
300

342
2000
174
     1
178
     1
175
     1
176
     0
 93
-1056964608
 45
0.09
292
     0
297
     0
 46
0.18
 94
-1056964608
 47
1.0
 49
1.0
140
1.0
293
     1
141
0.0
294
     1
177
     0
142
1.0
295
     0
296
     0
143
0.125
1001
ACAD_MLEADERVER
1070
     2
  0
MLEADERSTYLE
  5
D8
102
{ACAD_REACTORS
330
D7
102
}
330
D7
100
AcDbMLeaderStyle
170
     2
171
     1
172
     0
 90
        2
 40
0.0
 41
0.0
173
     1
 91
-1056964608
340
14
 92
       -2
290
     1
 42
0.09
291
     1
 43
0.36
  3
Standard
 44
0.18
300

342
11
174
     1
178
     1
175
     1
176
     0
 93
-1056964608
 45
0.18
292
     0
297
     0
 46
0.18
 94
-1056964608
 47
1.0
 49
1.0
140
1.0
293
     1
141
0.0
294
     1
177
     0
142
1.0
295
     0
296
     0
143
0.125
1001
ACAD_MLEADERVER
1070
     2
  0
MLINESTYLE
  5
18
102
{ACAD_REACTORS
330
17
102
}
330
17
100
AcDbMlineStyle
  2
STANDARD
 70
     0
  3

 62
   256
 51
90.0
 52
90.0
 71
     2
 49
0.5
 62
   256
  6
BYLAYER
 49
-0.5
 62
   256
  6
BYLAYER
  0
ACDBPLACEHOLDER
  5
F
102
{ACAD_REACTORS
330
E
102
}
330
E
  0
SCALE
  5
B7
102
{ACAD_REACTORS
330
B6
102
}
330
B6
100
AcDbScale
 70
     0
300
1:1
140
1.0
141
1.0
290
     1
  0
SCALE
  5
124
102
{ACAD_REACTORS
330
B6
102
}
330
B6
100
AcDbScale
 70
     0
300
1:2
140
1.0
141
2.0
290
     0
  0
SCALE
  5
125
102
{ACAD_REACTORS
330
B6
102
}
330
B6
100
AcDbScale
 70
     0
300
1:4
140
1.0
141
4.0
290
     0
  0
SCALE
  5
126
102
{ACAD_REACTORS
330
B6
102
}
330
B6
100
AcDbScale
 70
     0
300
1:5
140
1.0
141
5.0
290
     0
  0
SCALE
  5
127
102
{ACAD_REACTORS
330
B6
102
}
330
B6
100
AcDbScale
 70
     0
300
1:8
140
1.0
141
8.0
290
     0
  0
SCALE
  5
128
102
{ACAD_REACTORS
330
B6
102
}
330
B6
100
AcDbScale
 70
     0
300
1:10
140
1.0
141
10.0
290
     0
  0
SCALE
  5
129
102
{ACAD_REACTORS
330
B6
102
}
330
B6
100
AcDbScale
 70
     0
300
1:16
140
1.0
141
16.0
290
     0
  0
SCALE
  5
12A
102
{ACAD_REACTORS
330
B6
102
}
330
B6
100
AcDbScale
 70
     0
300
1:20
140
1.0
141
20.0
290
     0
  0
SCALE
  5
12B
102
{ACAD_REACTORS
330
B6
102
}
330
B6
100
AcDbScale
 70
     0
300
1:30
140
1.0
141
30.0
290
     0
  0
SCALE
  5
12C
102
{ACAD_REACTORS
330
B6
102
}
330
B6
100
AcDbScale
 70
     0
300
1:40
140
1.0
141
40.0
290
     0
  0
SCALE
  5
12D
102
{ACAD_REACTORS
330
B6
102
}
330
B6
100
AcDbScale
 70
     0
300
1:50
140
1.0
141
50.0
290
     0
  0
SCALE
  5
12E
102
{ACAD_REACTORS
330
B6
102
}
330
B6
100
AcDbScale
 70
     0
300
1:100
140
1.0
141
100.0
290
     0
  0
SCALE
  5
12F
102
{ACAD_REACTORS
330
B6
102
}
330
B6
100
AcDbScale
 70
     0
300
2:1
140
2.0
141
1.0
290
     0
  0
SCALE
  5
130
102
{ACAD_REACTORS
330
B6
102
}
330
B6
100
AcDbScale
 70
     0
300
4:1
140
4.0
141
1.0
290
     0
  0
SCALE
  5
131
102
{ACAD_REACTORS
330
B6
102
}
330
B6
100
AcDbScale
 70
     0
300
8:1
140
8.0
141
1.0
290
     0
  0
SCALE
  5
132
102
{ACAD_REACTORS
330
B6
102
}
330
B6
100
AcDbScale
 70
     0
300
10:1
140
10.0
141
1.0
290
     0
  0
SCALE
  5
133
102
{ACAD_REACTORS
330
B6
102
}
330
B6
100
AcDbScale
 70
     0
300
100:1
140
100.0
141
1.0
290
     0
  0
SCALE
  5
134
102
{ACAD_REACTORS
330
B6
102
}
330
B6
100
AcDbScale
 70
     0
300
1/128" = 1'-0"
140
0.0078125
141
12.0
290
     0
  0
SCALE
  5
135
102
{ACAD_REACTORS
330
B6
102
}
330
B6
100
AcDbScale
 70
     0
300
1/64" = 1'-0"
140
0.015625
141
12.0
290
     0
  0
SCALE
  5
136
102
{ACAD_REACTORS
330
B6
102
}
330
B6
100
AcDbScale
 70
     0
300
1/32" = 1'-0"
140
0.03125
141
12.0
290
     0
  0
SCALE
  5
137
102
{ACAD_REACTORS
330
B6
102
}
330
B6
100
AcDbScale
 70
     0
300
1/16" = 1'-0"
140
0.0625
141
12.0
290
     0
  0
SCALE
  5
138
102
{ACAD_REACTORS
330
B6
102
}
330
B6
100
AcDbScale
 70
     0
300
3/32" = 1'-0"
140
0.09375
141
12.0
290
     0
  0
SCALE
  5
139
102
{ACAD_REACTORS
330
B6
102
}
330
B6
100
AcDbScale
 70
     0
300
1/8" = 1'-0"
140
0.125
141
12.0
290
     0
  0
SCALE
  5
13A
102
{ACAD_REACTORS
330
B6
102
}
330
B6
100
AcDbScale
 70
     0
300
3/16" = 1'-0"
140
0.1875
141
12.0
290
     0
  0
SCALE
  5
13B
102
{ACAD_REACTORS
330
B6
102
}
330
B6
100
AcDbScale
 70
     0
300
1/4" = 1'-0"
140
0.25
141
12.0
290
     0
  0
SCALE
  5
13C
102
{ACAD_REACTORS
330
B6
102
}
330
B6
100
AcDbScale
 70
     0
300
3/8" = 1'-0"
140
0.375
141
12.0
290
     0
  0
SCALE
  5
13D
102
{ACAD_REACTORS
330
B6
102
}
330
B6
100
AcDbScale
 70
     0
300
1/2" = 1'-0"
140
0.5
141
12.0
290
     0
  0
SCALE
  5
13E
102
{ACAD_REACTORS
330
B6
102
}
330
B6
100
AcDbScale
 70
     0
300
3/4" = 1'-0"
140
0.75
141
12.0
290
     0
  0
SCALE
  5
13F
102
{ACAD_REACTORS
330
B6
102
}
330
B6
100
AcDbScale
 70
     0
300
1" = 1'-0"
140
1.0
141
12.0
290
     0
  0
SCALE
  5
140
102
{ACAD_REACTORS
330
B6
102
}
330
B6
100
AcDbScale
 70
     0
300
1-1/2" = 1'-0"
140
1.5
141
12.0
290
     0
  0
SCALE
  5
141
102
{ACAD_REACTORS
330
B6
102
}
330
B6
100
AcDbScale
 70
     0
300
3" = 1'-0"
140
3.0
141
12.0
290
     0
  0
SCALE
  5
142
102
{ACAD_REACTORS
330
B6
102
}
330
B6
100
AcDbScale
 70
     0
300
6" = 1'-0"
140
6.0
141
12.0
290
     0
  0
SCALE
  5
143
102
{ACAD_REACTORS
330
B6
102
}
330
B6
100
AcDbScale
 70
     0
300
1'-0" = 1'-0"
140
12.0
141
12.0
290
     0
  0
TABLESTYLE
  5
181
102
{ACAD_XDICTIONARY
360
2887
102
}
102
{ACAD_REACTORS
330
86
102
}
330
86
100
AcDbTableStyle
  3

 70
     0
 71
     3
 40
0.06
 41
0.06
280
     0
281
     0
  7
Legend
140
0.4
170
     4
 62
     0
 63
     7
283
     0
274
    -2
284
     0
 64
     0
275
    -2
285
     0
 65
     0
276
    -2
286
     0
 66
     0
277
    -2
287
     0
 67
     0
278
    -2
288
     0
 68
     0
279
    -2
289
     0
 69
     0
  7
Legend
140
0.5
170
     5
 62
     0
 63
     7
283
     0
274
    -2
284
     0
 64
     0
275
    -2
285
     0
 65
     0
276
    -2
286
     0
 66
     0
277
    -2
287
     0
 67
     0
278
    -2
288
     0
 68
     0
279
    -2
289
     0
 69
     0
  7
Legend
140
0.4
170
     4
 62
     0
 63
     7
283
     0
274
    -2
284
     0
 64
     0
275
    -2
285
     0
 65
     0
276
    -2
286
     0
 66
     0
277
    -2
287
     0
 67
     0
278
    -2
288
     0
 68
     0
279
    -2
289
     0
 69
     0
  0
TABLESTYLE
  5
87
102
{ACAD_XDICTIONARY
360
104
102
}
102
{ACAD_REACTORS
330
86
102
}
330
86
100
AcDbTableStyle
  3
Standard
 70
     0
 71
     0
 40
0.06
 41
0.06
280
     0
281
     0
  7
Standard
140
0.18
170
     2
 62
     0
 63
     7
283
     0
274
    -2
284
     1
 64
     0
275
    -2
285
     1
 65
     0
276
    -2
286
     1
 66
     0
277
    -2
287
     1
 67
     0
278
    -2
288
     1
 68
     0
279
    -2
289
     1
 69
     0
  7
Standard
140
0.25
170
     5
 62
     0
 63
     7
283
     0
274
    -2
284
     1
 64
     0
275
    -2
285
     1
 65
     0
276
    -2
286
     1
 66
     0
277
    -2
287
     1
 67
     0
278
    -2
288
     1
 68
     0
279
    -2
289
     1
 69
     0
  7
Standard
140
0.18
170
     5
 62
     0
 63
     7
283
     0
274
    -2
284
     1
 64
     0
275
    -2
285
     1
 65
     0
276
    -2
286
     1
 66
     0
277
    -2
287
     1
 67
     0
278
    -2
288
     1
 68
     0
279
    -2
289
     1
 69
     0
  0
VISUALSTYLE
  5
9F
102
{ACAD_XDICTIONARY
360
28DB
102
}
102
{ACAD_REACTORS
330
99
102
}
330
99
100
AcDbVisualStyle
  2
2dWireframe
 70
     4
 71
     0
 72
     2
 73
     1
 90
        0
 40
-0.6
 41
-30.0
 62
     5
 63
     7
421
 16777215
 74
     1
 91
        4
 64
     7
 65
   257
 75
     1
175
     1
 42
1.0
 92
        0
 66
   257
 43
1.0
 76
     1
 77
     6
 78
     2
 67
     7
 79
     5
170
     0
171
     0
290
     0
174
     0
 93
        1
 44
0.0
173
     0
291
     0
 45
0.0
1001
ACAD
1000
AcDbSavedByObjectVersion
1070
     0
  0
VISUALSTYLE
  5
A1
102
{ACAD_XDICTIONARY
360
28DF
102
}
102
{ACAD_REACTORS
330
99
102
}
330
99
100
AcDbVisualStyle
  2
3D Hidden
 70
     6
 71
     1
 72
     2
 73
     2
 90
        0
 40
-0.6
 41
-30.0
 62
     5
 63
     7
421
 16777215
 74
     2
 91
        2
 64
     7
 65
   257
 75
     2
175
     1
 42
40.0
 92
        0
 66
   257
 43
1.0
 76
     1
 77
     6
 78
     2
 67
     7
 79
     3
170
     0
171
     0
290
     0
174
     0
 93
        1
 44
0.0
173
     0
291
     0
 45
0.0
1001
ACAD
1000
AcDbSavedByObjectVersion
1070
     0
  0
VISUALSTYLE
  5
A0
102
{ACAD_XDICTIONARY
360
28DD
102
}
102
{ACAD_REACTORS
330
99
102
}
330
99
100
AcDbVisualStyle
  2
3dWireframe
 70
     5
 71
     0
 72
     2
 73
     1
 90
        0
 40
-0.6
 41
-30.0
 62
     5
 63
     7
421
 16777215
 74
     1
 91
        4
 64
     7
 65
   257
 75
     1
175
     1
 42
1.0
 92
        0
 66
   257
 43
1.0
 76
     1
 77
     6
 78
     2
 67
     7
 79
     5
170
     0
171
     0
290
     0
174
     0
 93
        1
 44
0.0
173
     0
291
     0
 45
0.0
1001
ACAD
1000
AcDbSavedByObjectVersion
1070
     0
  0
VISUALSTYLE
  5
9E
102
{ACAD_XDICTIONARY
360
28D9
102
}
102
{ACAD_REACTORS
330
99
102
}
330
99
100
AcDbVisualStyle
  2
Basic
 70
     7
 71
     1
 72
     0
 73
     1
 90
        0
 40
-0.6
 41
-30.0
 62
     5
 63
     7
421
 16777215
 74
     0
 91
        4
 64
     7
 65
   257
 75
     1
175
     1
 42
1.0
 92
        8
 66
     7
 43
1.0
 76
     1
 77
     6
 78
     2
 67
     7
 79
     5
170
     0
171
     0
290
     0
174
     0
 93
        1
 44
0.0
173
     0
291
     1
 45
0.0
1001
ACAD
1000
AcDbSavedByObjectVersion
1070
     0
  0
VISUALSTYLE
  5
A5
102
{ACAD_XDICTIONARY
360
28E7
102
}
102
{ACAD_REACTORS
330
99
102
}
330
99
100
AcDbVisualStyle
  2
Brighten
 70
    12
 71
     2
 72
     2
 73
     1
 90
        0
 40
-0.6
 41
-30.0
 62
     5
 63
     7
421
 16777215
 74
     1
 91
        4
 64
     7
 65
   257
 75
     1
175
     1
 42
1.0
 92
        8
 66
     7
 43
1.0
 76
     1
 77
     6
 78
     2
 67
     7
 79
     5
170
     0
171
     0
290
     0
174
     0
 93
        1
 44
50.0
173
     0
291
     1
 45
0.0
1001
ACAD
1000
AcDbSavedByObjectVersion
1070
     0
  0
VISUALSTYLE
  5
A9
102
{ACAD_XDICTIONARY
360
28EF
102
}
102
{ACAD_REACTORS
330
99
102
}
330
99
100
AcDbVisualStyle
  2
ColorChange
 70
    16
 71
     2
 72
     2
 73
     3
 90
        0
 40
-0.6
 41
-30.0
 62
     5
 63
     8
421
  8421504
 74
     1
 91
        4
 64
     7
 65
   257
 75
     1
175
     1
 42
1.0
 92
        8
 66
     8
424
  8421504
 43
1.0
 76
     1
 77
     6
 78
     2
 67
     7
 79
     5
170
     0
171
     0
290
     0
174
     0
 93
        1
 44
0.0
173
     0
291
     1
 45
0.0
1001
ACAD
1000
AcDbSavedByObjectVersion
1070
     0
  0
VISUALSTYLE
  5
A2
102
{ACAD_XDICTIONARY
360
28E1
102
}
102
{ACAD_REACTORS
330
99
102
}
330
99
100
AcDbVisualStyle
  2
Conceptual
 70
     9
 71
     3
 72
     2
 73
     1
 90
        0
 40
-0.6
 41
-30.0
 62
     5
 63
     7
421
 16777215
 74
     2
 91
        2
 64
     7
 65
   257
 75
     1
175
     1
 42
40.0
 92
        8
 66
     7
 43
1.0
 76
     1
 77
     6
 78
     2
 67
     7
 79
     3
170
     0
171
     0
290
     0
174
     0
 93
        1
 44
0.0
173
     0
291
     0
 45
0.0
1001
ACAD
1000
AcDbSavedByObjectVersion
1070
     0
  0
VISUALSTYLE
  5
A4
102
{ACAD_XDICTIONARY
360
28E5
102
}
102
{ACAD_REACTORS
330
99
102
}
330
99
100
AcDbVisualStyle
  2
Dim
 70
    11
 71
     2
 72
     2
 73
     1
 90
        0
 40
-0.6
 41
-30.0
 62
     5
 63
     7
421
 16777215
 74
     1
 91
        4
 64
     7
 65
   257
 75
     1
175
     1
 42
1.0
 92
        8
 66
     7
 43
1.0
 76
     1
 77
     6
 78
     2
 67
     7
 79
     5
170
     0
171
     0
290
     0
174
     0
 93
        1
 44
-50.0
173
     0
291
     1
 45
0.0
1001
ACAD
1000
AcDbSavedByObjectVersion
1070
     0
  0
VISUALSTYLE
  5
175
102
{ACAD_XDICTIONARY
360
28F5
102
}
102
{ACAD_REACTORS
330
99
102
}
330
99
100
AcDbVisualStyle
  2
EdgeColorOff
 70
    22
 71
     2
 72
     2
 73
     0
 90
        0
 40
-0.6
 41
-30.0
 62
     5
 63
     7
421
 16777215
 74
     1
 91
        4
 64
     7
 65
   257
 75
     1
175
     1
 42
1.0
 92
        8
 66
     7
 43
1.0
 76
     1
 77
     6
 78
     2
 67
     7
 79
     5
170
     0
171
     0
290
     0
174
     0
 93
        1
 44
0.0
173
     0
291
     1
 45
0.0
1001
ACAD
1000
AcDbSavedByObjectVersion
1070
     0
  0
VISUALSTYLE
  5
A8
102
{ACAD_XDICTIONARY
360
28ED
102
}
102
{ACAD_REACTORS
330
99
102
}
330
99
100
AcDbVisualStyle
  2
Facepattern
 70
    15
 71
     2
 72
     2
 73
     1
 90
        0
 40
-0.6
 41
-30.0
 62
     5
 63
     7
421
 16777215
 74
     1
 91
        4
 64
     7
 65
   257
 75
     1
175
     1
 42
1.0
 92
        8
 66
     7
 43
1.0
 76
     1
 77
     6
 78
     2
 67
     7
 79
     5
170
     0
171
     0
290
     0
174
     0
 93
        1
 44
0.0
173
     0
291
     1
 45
0.0
1001
ACAD
1000
AcDbSavedByObjectVersion
1070
     0
  0
VISUALSTYLE
  5
9A
102
{ACAD_XDICTIONARY
360
28D1
102
}
102
{ACAD_REACTORS
330
99
102
}
330
99
100
AcDbVisualStyle
  2
Flat
 70
     0
 71
     2
 72
     1
 73
     1
 90
        2
 40
-0.6
 41
30.0
 62
     5
 63
     7
421
 16777215
 74
     0
 91
        4
 64
     7
 65
   257
 75
     1
175
     1
 42
1.0
 92
        8
 66
     7
 43
1.0
 76
     1
 77
     6
 78
     2
 67
     7
 79
     5
170
     0
171
     0
290
     0
174
     0
 93
        1
 44
0.0
173
     0
291
     1
 45
0.0
1001
ACAD
1000
AcDbSavedByObjectVersion
1070
     0
  0
VISUALSTYLE
  5
9B
102
{ACAD_XDICTIONARY
360
28D3
102
}
102
{ACAD_REACTORS
330
99
102
}
330
99
100
AcDbVisualStyle
  2
FlatWithEdges
 70
     1
 71
     2
 72
     1
 73
     1
 90
        2
 40
-0.6
 41
30.0
 62
     5
 63
     7
421
 16777215
 74
     1
 91
        4
 64
     7
 65
   257
 75
     1
175
     1
 42
1.0
 92
        0
 66
   257
 43
1.0
 76
     1
 77
     6
 78
     2
 67
     7
 79
     5
170
     0
171
     0
290
     0
174
     0
 93
        1
 44
0.0
173
     0
291
     1
 45
0.0
1001
ACAD
1000
AcDbSavedByObjectVersion
1070
     0
  0
VISUALSTYLE
  5
9C
102
{ACAD_XDICTIONARY
360
28D5
102
}
102
{ACAD_REACTORS
330
99
102
}
330
99
100
AcDbVisualStyle
  2
Gouraud
 70
     2
 71
     2
 72
     2
 73
     1
 90
        2
 40
-0.6
 41
30.0
 62
     5
 63
     7
421
 16777215
 74
     0
 91
        4
 64
     7
 65
   257
 75
     1
175
     1
 42
1.0
 92
        0
 66
     7
 43
1.0
 76
     1
 77
     6
 78
     2
 67
     7
 79
     5
170
     0
171
     0
290
     0
174
     0
 93
        1
 44
0.0
173
     0
291
     1
 45
0.0
1001
ACAD
1000
AcDbSavedByObjectVersion
1070
     0
  0
VISUALSTYLE
  5
9D
102
{ACAD_XDICTIONARY
360
28D7
102
}
102
{ACAD_REACTORS
330
99
102
}
330
99
100
AcDbVisualStyle
  2
GouraudWithEdges
 70
     3
 71
     2
 72
     2
 73
     1
 90
        2
 40
-0.6
 41
30.0
 62
     5
 63
     7
421
 16777215
 74
     1
 91
        4
 64
     7
 65
   257
 75
     1
175
     1
 42
1.0
 92
        0
 66
   257
 43
1.0
 76
     1
 77
     6
 78
     2
 67
     7
 79
     5
170
     0
171
     0
290
     0
174
     0
 93
        1
 44
0.0
173
     0
291
     1
 45
0.0
1001
ACAD
1000
AcDbSavedByObjectVersion
1070
     0
  0
VISUALSTYLE
  5
1AE
102
{ACAD_XDICTIONARY
360
1AF
102
}
102
{ACAD_REACTORS
330
99
102
}
330
99
100
AcDbVisualStyle
  2
Hidden
 70
     6
 71
     1
 72
     2
 73
     2
 90
        0
 40
-0.6
 41
-30.0
 62
     5
 63
     7
421
 16777215
 74
     2
 91
        2
 64
     7
 65
   257
 75
     2
175
     1
 42
40.0
 92
        0
 66
   257
 43
1.0
 76
     1
 77
     6
 78
     2
 67
     7
 79
     3
170
     0
171
     0
290
     0
174
     0
 93
        1
 44
0.0
173
     0
291
     0
 45
0.0
1001
ACAD
1000
AcDbSavedByObjectVersion
1070
     0
  0
VISUALSTYLE
  5
173
102
{ACAD_XDICTIONARY
360
28F1
102
}
102
{ACAD_REACTORS
330
99
102
}
330
99
100
AcDbVisualStyle
  2
JitterOff
 70
    20
 71
     2
 72
     2
 73
     0
 90
        0
 40
-0.6
 41
-30.0
 62
     5
 63
     7
421
 16777215
 74
     1
 91
        4
 64
     7
 65
   257
 75
     1
175
     1
 42
1.0
 92
       10
 66
     7
 43
1.0
 76
     1
 77
     6
 78
     2
 67
     7
 79
     5
170
     0
171
     0
290
     0
174
     0
 93
        1
 44
0.0
173
     0
291
     1
 45
0.0
1001
ACAD
1000
AcDbSavedByObjectVersion
1070
     0
  0
VISUALSTYLE
  5
A7
102
{ACAD_XDICTIONARY
360
28EB
102
}
102
{ACAD_REACTORS
330
99
102
}
330
99
100
AcDbVisualStyle
  2
Linepattern
 70
    14
 71
     2
 72
     2
 73
     1
 90
        0
 40
-0.6
 41
-30.0
 62
     5
 63
     7
421
 16777215
 74
     1
 91
        4
 64
     7
 65
   257
 75
     7
175
     7
 42
1.0
 92
        8
 66
     7
 43
1.0
 76
     1
 77
     6
 78
     2
 67
     7
 79
     5
170
     0
171
     0
290
     0
174
     0
 93
        1
 44
0.0
173
     0
291
     1
 45
0.0
1001
ACAD
1000
AcDbSavedByObjectVersion
1070
     0
  0
VISUALSTYLE
  5
174
102
{ACAD_XDICTIONARY
360
28F3
102
}
102
{ACAD_REACTORS
330
99
102
}
330
99
100
AcDbVisualStyle
  2
OverhangOff
 70
    21
 71
     2
 72
     2
 73
     0
 90
        0
 40
-0.6
 41
-30.0
 62
     5
 63
     7
421
 16777215
 74
     1
 91
        4
 64
     7
 65
   257
 75
     1
175
     1
 42
1.0
 92
        9
 66
     7
 43
1.0
 76
     1
 77
     6
 78
     2
 67
     7
 79
     5
170
     0
171
     0
290
     0
174
     0
 93
        1
 44
0.0
173
     0
291
     1
 45
0.0
1001
ACAD
1000
AcDbSavedByObjectVersion
1070
     0
  0
VISUALSTYLE
  5
A3
102
{ACAD_XDICTIONARY
360
28E3
102
}
102
{ACAD_REACTORS
330
99
102
}
330
99
100
AcDbVisualStyle
  2
Realistic
 70
     8
 71
     2
 72
     2
 73
     1
 90
        0
 40
-0.6
 41
-30.0
 62
     5
 63
     7
421
 16777215
 74
     1
 91
        0
 64
     7
 65
   257
 75
     1
175
     1
 42
1.0
 92
        8
 66
     8
424
  7895160
 43
1.0
 76
     1
 77
     6
 78
     2
 67
     7
 79
     5
170
     0
171
     0
290
     0
174
     0
 93
       13
 44
0.0
173
     0
291
     0
 45
0.0
1001
ACAD
1000
AcDbSavedByObjectVersion
1070
     0
  0
VISUALSTYLE
  5
1B1
102
{ACAD_XDICTIONARY
360
1B2
102
}
102
{ACAD_REACTORS
330
99
102
}
330
99
100
AcDbVisualStyle
  2
Shaded
 70
    27
 71
     2
 72
     2
 73
     1
 90
        2
 40
-0.6
 41
30.0
 62
     5
 63
     7
421
 16777215
 74
     0
 91
        4
 64
     7
 65
   257
 75
     1
175
     1
 42
1.0
 92
        8
 66
   257
 43
1.0
 76
     1
 77
     6
 78
     2
 67
     8
425
  7895160
 79
     3
170
     0
171
     0
290
     0
174
     0
 93
        5
 44
0.0
173
     0
291
     0
 45
0.0
1001
ACAD
1000
AcDbSavedByObjectVersion
1070
     0
  0
VISUALSTYLE
  5
1B4
102
{ACAD_XDICTIONARY
360
1B5
102
}
102
{ACAD_REACTORS
330
99
102
}
330
99
100
AcDbVisualStyle
  2
Shaded with edges
 70
    26
 71
     2
 72
     2
 73
     1
 90
        2
 40
-0.6
 41
30.0
 62
     5
 63
     7
421
 16777215
 74
     1
 91
       10
 64
     7
 65
   257
 75
     2
175
     1
 42
1.0
 92
        8
 66
   257
 43
1.0
 76
     1
 77
     6
 78
     2
 67
     7
 79
     3
170
     0
171
     0
290
     0
174
     0
 93
        5
 44
0.0
173
     0
291
     0
 45
0.0
1001
ACAD
1000
AcDbSavedByObjectVersion
1070
     0
  0
VISUALSTYLE
  5
1B7
102
{ACAD_XDICTIONARY
360
1B8
102
}
102
{ACAD_REACTORS
330
99
102
}
330
99
100
AcDbVisualStyle
  2
Shades of Gray
 70
    23
 71
     2
 72
     2
 73
     3
 90
        0
 40
-0.6
 41
-30.0
 62
     5
 63
     7
421
 16777215
 74
     2
 91
        2
 64
     7
 65
     7
 75
     1
175
     1
 42
40.0
 92
        8
 66
     7
 43
1.0
 76
     1
 77
     6
 78
     2
 67
     7
 79
     3
170
     0
171
     0
290
     0
174
     0
 93
        1
 44
0.0
173
     0
291
     0
 45
0.0
1001
ACAD
1000
AcDbSavedByObjectVersion
1070
     0
  0
VISUALSTYLE
  5
1BA
102
{ACAD_XDICTIONARY
360
1BB
102
}
102
{ACAD_REACTORS
330
99
102
}
330
99
100
AcDbVisualStyle
  2
Sketchy
 70
    24
 71
     1
 72
     2
 73
     2
 90
        0
 40
-0.6
 41
-30.0
 62
     5
 63
     7
421
 16777215
 74
     2
 91
        2
 64
     7
 65
     7
 75
     1
175
     1
 42
40.0
 92
       11
 66
     7
 43
1.0
 76
     1
 77
     6
 78
     2
 67
     7
 79
     6
170
     0
171
     0
290
     0
174
     0
 93
        1
 44
0.0
173
     0
291
     0
 45
0.0
1001
ACAD
1000
AcDbSavedByObjectVersion
1070
     0
  0
VISUALSTYLE
  5
A6
102
{ACAD_XDICTIONARY
360
28E9
102
}
102
{ACAD_REACTORS
330
99
102
}
330
99
100
AcDbVisualStyle
  2
Thicken
 70
    13
 71
     2
 72
     2
 73
     1
 90
        0
 40
-0.6
 41
-30.0
 62
     5
 63
     7
421
 16777215
 74
     1
 91
        4
 64
     7
 65
   257
 75
     1
175
     1
 42
1.0
 92
       12
 66
     7
 43
1.0
 76
     1
 77
     6
 78
     2
 67
     7
 79
     5
170
     0
171
     0
290
     0
174
     0
 93
        1
 44
0.0
173
     0
291
     1
 45
0.0
1001
ACAD
1000
AcDbSavedByObjectVersion
1070
     0
  0
VISUALSTYLE
  5
1BD
102
{ACAD_XDICTIONARY
360
1BE
102
}
102
{ACAD_REACTORS
330
99
102
}
330
99
100
AcDbVisualStyle
  2
Wireframe
 70
     5
 71
     0
 72
     2
 73
     0
 90
        0
 40
-0.6
 41
-30.0
 62
     5
 63
     7
421
 16777215
 74
     1
 91
        4
 64
     7
 65
   257
 75
     1
175
     1
 42
1.0
 92
        0
 66
   257
 43
1.0
 76
     1
 77
     6
 78
     2
 67
     7
 79
     3
170
     0
171
     0
290
     0
174
     0
 93
        1
 44
0.0
173
     0
291
     0
 45
0.0
1001
ACAD
1000
AcDbSavedByObjectVersion
1070
     0
  0
VISUALSTYLE
  5
1C0
102
{ACAD_XDICTIONARY
360
1C1
102
}
102
{ACAD_REACTORS
330
99
102
}
330
99
100
AcDbVisualStyle
  2
X-Ray
 70
    25
 71
     2
 72
     2
 73
     1
 90
        1
 40
0.5
 41
-30.0
 62
     5
 63
     7
421
 16777215
 74
     1
 91
        0
 64
     7
 65
   257
 75
     1
175
     1
 42
1.0
 92
        8
 66
     7
 43
1.0
 76
     1
 77
     6
 78
     2
 67
     7
 79
     3
170
     0
171
     0
290
     0
174
     0
 93
       13
 44
0.0
173
     0
291
     0
 45
0.0
1001
ACAD
1000
AcDbSavedByObjectVersion
1070
     0
  0
DICTIONARYVAR
  5
F0
102
{ACAD_REACTORS
330
66
102
}
330
66
100
DictionaryVariables
280
     0
  1
1:1
  0
DICTIONARYVAR
  5
EF
102
{ACAD_REACTORS
330
66
102
}
330
66
100
DictionaryVariables
280
     0
  1
STANDARD
  0
DICTIONARYVAR
  5
89
102
{ACAD_REACTORS
330
66
102
}
330
66
100
DictionaryVariables
280
     0
  1
STANDARD
  0
DICTIONARYVAR
  5
67
102
{ACAD_REACTORS
330
66
102
}
330
66
100
DictionaryVariables
280
     0
  1
2
  0
DICTIONARYVAR
  5
2866
102
{ACAD_REACTORS
330
66
102
}
330
66
100
DictionaryVariables
280
     0
  1
1
  0
DICTIONARYVAR
  5
6B
102
{ACAD_REACTORS
330
66
102
}
330
66
100
DictionaryVariables
280
     0
  1
1
  0
DICTIONARYVAR
  5
14D
102
{ACAD_REACTORS
330
66
102
}
330
66
100
DictionaryVariables
280
     0
  1
0
  0
DICTIONARYVAR
  5
14E
102
{ACAD_REACTORS
330
66
102
}
330
66
100
DictionaryVariables
280
     0
  1
0
  0
DICTIONARYVAR
  5
BA3
102
{ACAD_REACTORS
330
66
102
}
330
66
100
DictionaryVariables
280
     0
  1
0
  0
DICTIONARYVAR
  5
28B9
102
{ACAD_REACTORS
330
66
102
}
330
66
100
DictionaryVariables
280
     0
  1
1
  0
DICTIONARYVAR
  5
28BA
102
{ACAD_REACTORS
330
66
102
}
330
66
100
DictionaryVariables
280
     0
  1
100.000000
  0
DICTIONARYVAR
  5
28C7
102
{ACAD_REACTORS
330
66
102
}
330
66
100
DictionaryVariables
280
     0
  1
2
  0
XRECORD
  5
28C6
102
{ACAD_REACTORS
330
18F
102
}
330
18F
100
AcDbXrecord
280
     1
1000
ADE02C001
1070
     1
1070
     0
1002
{
1002
}
1002
{
1002
}
1002
{
1002
}
1000

  0
XRECORD
  5
1FB
102
{ACAD_REACTORS
330
1FA
102
}
330
1FA
100
AcDbXrecord
280
     1
  0
DMSTYLIZEDENTITIESTABLE
  5
189
102
{ACAD_REACTORS
330
179
102
}
330
179
100
AcMapDMStylizedEntitiesTable
 70
     1
  0
DICTIONARY
  5
18A
102
{ACAD_REACTORS
330
179
102
}
330
179
100
AcDbDictionary
280
     1
281
     1
  0
DATATABLE
  5
17D
102
{ACAD_REACTORS
330
179
102
}
330
179
100
AcDbDataTable
 70
     2
 90
        4
 91
       15
  1

 92
        3
  2
OriginalClassName
  3
AcMapDMDefaultStyle
  3
AcMapDMEntityStyle
  3
AcMapDMRasterStyle
  3
AcMapDMSEAnnotationStyle
  3
AcMapDMSEHatchStyle
  3
AcMapDMSETextStyle
  3
AcMapDMThematicStyle
  3
AcMapDMBaseElement
  3
AcMapDMAttachedDwgsQueryElement
  3
AcMapDMFeatureElement
  3
AcMapDMLayerElement
  3
AcMapDMCurrentDwgQueryElement
  3
AcMapDMRasterElement
  3
AcMapDMTopoElement
  3
AcMapDMTopoQueryElement
 92
        3
  2
ProxyDisplayName
  3
Default
  3
Entity
  3
Raster
  3
Annotation
  3
Hatch
  3
Text
  3
Thematic
  3
Map Base
  3
Ade Query
  3
Feature Class
  3
Layer
  3
Ade Project Query
  3
Raster
  3
Topology
  3
Topology Query
 92
        1
  2
CustomObjectType
 93
        2
 93
        2
 93
        2
 93
        2
 93
        2
 93
        2
 93
        2
 93
        1
 93
        1
 93
        1
 93
        1
 93
        1
 93
        1
 93
        1
 93
        1
 92
        1
  2
StyleCoExistanceType
 93
        1
 93
        1
 93
        1
 93
        1
 93
        1
 93
        1
 93
        2
 93
        0
 93
        0
 93
        0
 93
        0
 93
        0
 93
        0
 93
        0
 93
        0
  0
DMMAPMANAGER
  5
17A
102
{ACAD_REACTORS
330
179
102
}
330
179
100
AcDbDictionary
281
     1
  3
DisplayMap1
350
17F
100
AcDbDictionaryWithDefault
340
17F
100
AcMapDMMapManager
 70
     1
340
17F
  0
DMSTYLELIBRARY
  5
17B
102
{ACAD_REACTORS
330
179
102
}
330
179
100
AcMapDMStyleLibrary
 70
     1
 70
     1
360
17C
  0
DICTIONARY
  5
17E
102
{ACAD_REACTORS
330
179
102
}
330
179
100
AcDbDictionary
281
     1
  0
DICTIONARY
  5
999
330
22
100
AcDbDictionary
280
     1
281
     1
  3
AcPublish_PlotSettingsOverride
360
286B
  3
ADSK_XREC_LAYOUTTHUMBNAIL
360
99A
  0
DICTIONARY
  5
28CE
330
97
100
AcDbDictionary
280
     1
281
     1
  3
ACAD_XREC_ROUNDTRIP
360
28CF
  0
DICTIONARY
  5
28CC
330
96
100
AcDbDictionary
280
     1
281
     1
  3
ACAD_XREC_ROUNDTRIP
360
28CD
  0
DICTIONARY
  5
110
330
98
100
AcDbDictionary
280
     1
281
     1
  3
ACAD_XREC_ROUNDTRIP
360
28D0
  3
BUMPTILE
360
112
  3
DIFFUSETILE
360
111
  3
OPACITYTILE
360
113
  3
REFLECTIONTILE
360
114
  0
DICTIONARY
  5
2887
330
181
100
AcDbDictionary
280
     1
281
     1
  3
ACAD_ROUNDTRIP_2008_TABLESTYLE_CELLSTYLEMAP
360
28C9
  3
ACAD_XREC_ROUNDTRIP
360
28F7
  0
DICTIONARY
  5
104
330
87
100
AcDbDictionary
280
     1
281
     1
  3
ACAD_ROUNDTRIP_2008_TABLESTYLE_CELLSTYLEMAP
360
28C8
  3
ACAD_XREC_ROUNDTRIP
360
28CB
  0
DICTIONARY
  5
28DB
330
9F
100
AcDbDictionary
280
     1
281
     1
  3
ACAD_XREC_ROUNDTRIP
360
28DC
  0
DICTIONARY
  5
28DF
330
A1
100
AcDbDictionary
280
     1
281
     1
  3
ACAD_XREC_ROUNDTRIP
360
28E0
  0
DICTIONARY
  5
28DD
330
A0
100
AcDbDictionary
280
     1
281
     1
  3
ACAD_XREC_ROUNDTRIP
360
28DE
  0
DICTIONARY
  5
28D9
330
9E
100
AcDbDictionary
280
     1
281
     1
  3
ACAD_XREC_ROUNDTRIP
360
28DA
  0
DICTIONARY
  5
28E7
330
A5
100
AcDbDictionary
280
     1
281
     1
  3
ACAD_XREC_ROUNDTRIP
360
28E8
  0
DICTIONARY
  5
28EF
330
A9
100
AcDbDictionary
280
     1
281
     1
  3
ACAD_XREC_ROUNDTRIP
360
28F0
  0
DICTIONARY
  5
28E1
330
A2
100
AcDbDictionary
280
     1
281
     1
  3
ACAD_XREC_ROUNDTRIP
360
28E2
  0
DICTIONARY
  5
28E5
330
A4
100
AcDbDictionary
280
     1
281
     1
  3
ACAD_XREC_ROUNDTRIP
360
28E6
  0
DICTIONARY
  5
28F5
330
175
100
AcDbDictionary
280
     1
281
     1
  3
ACAD_XREC_ROUNDTRIP
360
28F6
  0
DICTIONARY
  5
28ED
330
A8
100
AcDbDictionary
280
     1
281
     1
  3
ACAD_XREC_ROUNDTRIP
360
28EE
  0
DICTIONARY
  5
28D1
330
9A
100
AcDbDictionary
280
     1
281
     1
  3
ACAD_XREC_ROUNDTRIP
360
28D2
  0
DICTIONARY
  5
28D3
330
9B
100
AcDbDictionary
280
     1
281
     1
  3
ACAD_XREC_ROUNDTRIP
360
28D4
  0
DICTIONARY
  5
28D5
330
9C
100
AcDbDictionary
280
     1
281
     1
  3
ACAD_XREC_ROUNDTRIP
360
28D6
  0
DICTIONARY
  5
28D7
330
9D
100
AcDbDictionary
280
     1
281
     1
  3
ACAD_XREC_ROUNDTRIP
360
28D8
  0
DICTIONARY
  5
1AF
330
1AE
100
AcDbDictionary
280
     1
281
     1
  3
ACAD_XREC_ROUNDTRIP
360
1B0
  0
DICTIONARY
  5
28F1
330
173
100
AcDbDictionary
280
     1
281
     1
  3
ACAD_XREC_ROUNDTRIP
360
28F2
  0
DICTIONARY
  5
28EB
330
A7
100
AcDbDictionary
280
     1
281
     1
  3
ACAD_XREC_ROUNDTRIP
360
28EC
  0
DICTIONARY
  5
28F3
330
174
100
AcDbDictionary
280
     1
281
     1
  3
ACAD_XREC_ROUNDTRIP
360
28F4
  0
DICTIONARY
  5
28E3
330
A3
100
AcDbDictionary
280
     1
281
     1
  3
ACAD_XREC_ROUNDTRIP
360
28E4
  0
DICTIONARY
  5
1B2
330
1B1
100
AcDbDictionary
280
     1
281
     1
  3
ACAD_XREC_ROUNDTRIP
360
1B3
  0
DICTIONARY
  5
1B5
330
1B4
100
AcDbDictionary
280
     1
281
     1
  3
ACAD_XREC_ROUNDTRIP
360
1B6
  0
DICTIONARY
  5
1B8
330
1B7
100
AcDbDictionary
280
     1
281
     1
  3
ACAD_XREC_ROUNDTRIP
360
1B9
  0
DICTIONARY
  5
1BB
330
1BA
100
AcDbDictionary
280
     1
281
     1
  3
ACAD_XREC_ROUNDTRIP
360
1BC
  0
DICTIONARY
  5
28E9
330
A6
100
AcDbDictionary
280
     1
281
     1
  3
ACAD_XREC_ROUNDTRIP
360
28EA
  0
DICTIONARY
  5
1BE
330
1BD
100
AcDbDictionary
280
     1
281
     1
  3
ACAD_XREC_ROUNDTRIP
360
1BF
  0
DICTIONARY
  5
1C1
330
1C0
100
AcDbDictionary
280
     1
281
     1
  3
ACAD_XREC_ROUNDTRIP
360
1C2
  0
DMMAP
  5
17F
102
{ACAD_REACTORS
330
17A
330
182
102
}
330
17A
100
AcMapDMMap
 70
     1
  1
Default
 70
     1
330
0
100
AcMapDMMap
 70
     1
 90
        1
360
182
 90
        1
 40
1.797693134862314E+99
 70
     1
100
AcMapDMMap
 70
     2
 70
     0
 40
1.797693134862314E+99
290
     1
290
     1
 40
1.0
 40
3.0
  1
Legend
 90
        1
 40
1.797693134862314E+99
  1

 70
     0
 40
1.0
 70
     1
 90
        0
 90
        1
360
183
  0
DMSTYLECATEGORY
  5
17C
102
{ACAD_REACTORS
330
17B
102
}
330
17B
100
AcMapDMStyleCategory
 70
     1
  1
Display Styles
 70
     0
  0
PLOTSETTINGS
  5
286B
102
{ACAD_REACTORS
330
999
102
}
330
999
100
AcDbPlotSettings
  1

  2
Adobe PDF
  4
Letter
  6

 40
3.174999952316284
 41
3.174999952316284
 42
3.175003051757812
 43
3.17498779296875
 44
215.8999938964844
 45
279.3999938964844
 46
14.28204591794378
 47
33.06698088132935
 48
0.0
 49
0.0
140
0.0
141
0.0
142
1.0
143
1.0
 70
 11940
 72
     0
 73
     1
 74
     1
  7
NETAFIM.ctb
 75
     0
147
1.114718953385386
 76
     0
 77
     2
 78
   300
148
22.75709407650904
149
0.0104621448125251
1001
ACAD_PSEXT
1000
Adobe PDF
1000
Adobe PDF Converter
1000
Documents\*.pdf
1000

1070
     0
  0
XRECORD
  5
99A
102
{ACAD_REACTORS
330
999
102
}
330
999
100
AcDbXrecord
280
     1
310
28000000000100008F0000000100080000000000008F0000000000000000000000010000000000000000000000000000FFFFFF000000000000000000000000000000000000000000000000000000000000000000330000006600000099000000CC000000FF00000000330000333300006633000099330000CC330000FF3300
310
0000660000336600006666000099660000CC660000FF66000000990000339900006699000099990000CC990000FF99000000CC000033CC000066CC000099CC0000CCCC0000FFCC000000FF000033FF000066FF000099FF0000CCFF0000FFFF000000003300330033006600330099003300CC003300FF003300003333003333
310
33006633330099333300CC333300FF33330000663300336633006666330099663300CC663300FF66330000993300339933006699330099993300CC993300FF99330000CC330033CC330066CC330099CC3300CCCC3300FFCC330000FF330033FF330066FF330099FF3300CCFF3300FFFF330000006600330066006600660099
310
006600CC006600FF00660000336600333366006633660099336600CC336600FF33660000666600336666006666660099666600CC666600FF66660000996600339966006699660099996600CC996600FF99660000CC660033CC660066CC660099CC6600CCCC6600FFCC660000FF660033FF660066FF660099FF6600CCFF6600
310
FFFF660000009900330099006600990099009900CC009900FF00990000339900333399006633990099339900CC339900FF33990000669900336699006666990099669900CC669900FF66990000999900339999006699990099999900CC999900FF99990000CC990033CC990066CC990099CC9900CCCC9900FFCC990000FF99
310
0033FF990066FF990099FF9900CCFF9900FFFF99000000CC003300CC006600CC009900CC00CC00CC00FF00CC000033CC003333CC006633CC009933CC00CC33CC00FF33CC000066CC003366CC006666CC009966CC00CC66CC00FF66CC000099CC003399CC006699CC009999CC00CC99CC00FF99CC0000CCCC0033CCCC0066CC
310
CC0099CCCC00CCCCCC00FFCCCC0000FFCC0033FFCC0066FFCC0099FFCC00CCFFCC00FFFFCC000000FF003300FF006600FF009900FF00CC00FF00FF00FF000033FF003333FF006633FF009933FF00CC33FF00FF33FF000066FF003366FF006666FF009966FF00CC66FF00FF66FF000099FF003399FF006699FF009999FF00CC
310
99FF00FF99FF0000CCFF0033CCFF0066CCFF0099CCFF00CCCCFF00FFCCFF0000FFFF0033FFFF0066FFFF0099FFFF00CCFFFF00FFFFFF00000000000D0D0D001A1A1A00282828003535350043434300505050005D5D5D006B6B6B00787878008686860093939300A1A1A100AEAEAE00BBBBBB00C9C9C900D6D6D600E4E4E400
310
F1F1F100FFFFFF0000000000000000000000000000000000000000000000000000000000000000000000000000000000E2E2E2E2E2E2E2E2E2E2E2E2E2E2E2E2E2E2E2E2E2E2E2E2E2E2E2E2E2E2E2E2E2E2E2E2E2E2E2E2E2E2E2E2E2E2BEBEBEBEBEBEBEBEBEBEBEBEBEBEBEBEBEBEBEBEBEBEBEBEBEBEBEBEBEBEBEBEBE
310
BEBEBEBEBEBEBEBEBEBEBEBEBEBEBEBEBEBEBEBEBEBEBEBEBEBEBEBEBEBEBEBEBEBEBEBEBEBEBEBEBEBEBEBEBEBEBEBEBEBEBEBEBEBEBEBEBEBEBEBEBEBEBEBEBEBEBEBEBEBEBEBEBEBEBEBEBEBEBEBEBEBEBEBEBEBEBEBEBEBEBEBEBEBEBEBEBEBEBEBEBEBEBEBEBEBEBEBEBEBEBEBEBEBEBEBEBEBEBEBEBEBEBEBEBEBEBE
310
BEBEBEBEE2E2E2E2E2E2E2E2E2E2E2E2E2E2E2E2E2E2E2E2E2E2E2E2E2E2E2E2E2E2E2E2E2E2E2E2E2E2E2E2E2E2E2E2E2E2E2E2E2E2E2E2E2E2E2E2E2E2E2E2E2E2E2E2E2E2E2E2E2E2E2E2E2E2E2E2E2E2E2E2E2E2E2E2E2E2E2E2E2E2E2E2BEE2E2E2E2E2E2E2E2E2E2E2E2E2E2E2E2E2BEE2E2E2E2E2E2E2E2E2E2E2E2
310
E2E2E2E2E2E2E2E2E2E2E2E2E2E2E2E2E2E2E2E2E2E2E2E2E2E2E2E2E2E2E2E2E2E2E2E2E2E2E2E2E2E2E2E2E2E2E2E2E2E2E2E2E2E2E2E2E2E2E2E2E2E2E2E2E2E2E2E2E2E2E2E2E2E2E2E2E2E2E2E2E2E2E2E2E2E2E2E2E2E2E2E2E2E2E2E2E2E2E2E2E2E2E2E2E2E2E2E2E2E2E2E2E2E2E2E2E2E2E2E2E2E2E2E2E2E2E2
310
E2E2E2E2E2BEE2E2E2E2E2E2E2E2E2E2E2E2E2E2E2E2E2E2E2E2E2E2E2E2E2E2E2E2E2E2E2E2E2E2E2E2E2E2E2E2E2E2E2E2E2E2E2E2E2E2E2E2E2E2E2E2E2E2E2E2E2E2E2E2E2E2E2E2E2E2E2E2E2E2E2E2E2E2E2E2E2E2E2E2E2E2E2E2E2E2E2E2BEE2E2E2E2E2E2E2E2E2E2E2E2E2E2E2E2E2BEE2E2E2E2E2C3C3C3C3C3
310
C3E2E2E2E2E2E2E2E2E2E2E2E2E2E2E2E2E2E2E2E2E2E2E2E2E2E2E2E2E2E2E2E2E2E2E2E2E2E2E2E2E2E2E2E2E2E2E2E2E2E2E2E2E2E2E2E2E2E2E2E2E2E2E2E2E2E2E2E2E2E2E2E2E2E2E2E2E2E2E2E2E2E2E2E2E2E2E2E2E2E2E2E2E2E2E2E2E2E2E2E2E2E2E2E2E2E2E2E2E2E2E2E2E2E2E2E2E2E2E2E2E2E2E2E2E2E2
310
E2E2E2E2E2E2E2BEE2E2E2E2E2E2E2E2E2E2E2E2E2E2E2E2E2E2E2E2E2E2E2E2E2E2E2E2E2E2E2E2E2E2E2E2E2E2E2E2E2E2E2E2E2E2E2E2E2E2E2E2E2E2E2E2E2E2E2E2E2E2E2E2E2E2E2E2E2E2E2E2E2E2E2E2E2E2E2E2E2E2E2E2E2E2E2E2E2E2E2E2BEE2E2E2E2E2E2E2E2E2E2E2E2E2E2E2E2E2BEE2E2E2E2C3E2E2E2
310
E2E2C3C3E2E2E2E2E2DCDCDCDCDCE2E2DCE2DCE2E2DCDCDCDCE2DCDCDCDCE2E2E2E2E2E2E2E2E2E2E2E2E2E2E2E2E2E2E2E2E2E2E2E2E2E2E2E2E2E2E2E2E2E2E2E2E2E2E2E2E2E2E2E2E2E2E2E2E2E2E2E2E2E2E2E2E2E2E2E2E2E2E2E2E2E2E2E2E2E2E2E2DCDCDCDCDCDCDCDCDCE2E2E2E2E2DCDCDCDCDCDCDCDCDCE2DC
310
DCDCE2DCDCE2E2E2E2BEE2E2E2E2E2E2E2E2E2E2E2E2E2E2E2E2E2E2E2E2E2E2E2E2E2E2E2E2E2E2E2E2E2E2E2E2E2E2E2E2E2E2E2E2E2E2E2E2E2E2E2E2E2E2E2E2E2E2E2E2E2E2E2E2E2E2E2E2E2E2E2E2E2E2E2E2E2E2E2E2E2E2E2E2E2E2E2E2E2E2E2E2BEE2E2E2E2E2E2E2E2E2E2E2E2E2E2E2E2E2BEE2E2E2C3E2E2
310
E2E2E2E2E2C3C3E2E2E2E2DCDCDCDCDCE2E2DCDCDCDCE2DCDCDCDCDCDCE2DCE2E2E2E2E2E2E2E2E2E2E2E2E2E2E2E2E2E2E2E2E2E2E2E2E2E2E2E2E2E2E2E2E2E2E2E2E2E2E2E2E2E2E2E2E2E2E2E2E2E2E2E2E2E2E2E2E2E2E2E2E2E2E2E2E2E2E2E2E2E2E2E2E2DCDCDCDCDCDCDCDCE2E2DCDCE2E2DCE2DCE2DCDCDCDCDC
310
E2DCDCDCE2DCE2E2E2E2E2BEE2E2E2E2E2E2E2E2E2E2E2E2E2E2E2E2E2E2E2E2E2E2E2E2E2E2E2E2E2E2E2E2E2E2E2E2E2E2E2E2E2E2E2E2E2E2E2E2E2E2E2E2E2E2E2E2E2E2E2E2E2E2E2E2E2E2E2E2E2E2E2E2E2E2E2E2E2E2E2E2E2E2E2E2E2E2E2E2E2E2E2E2BEE2BEBEE2E2BEBEBEBEBEBEBEBEBEBEE2E2BEE2E2C3E2
310
DCDCDCDCDCDCE2E2C3E2E2E2E2DCDCDCDCDCDCE2DCDCDCDCE2DCDCDCDCDCDCE2DCDCE2E2E2E2E2E2E2E2E2E2E2E2E2E2E2E2E2E2E2E2E2E2E2E2E2E2E2E2E2E2E2E2E2E2E2E2E2E2E2E2E2E2E2E2E2E2E2E2E2E2E2E2E2E2E2E2E2E2E2E2E2E2E2E2E2E2E2E2E2E2E2E2DCDCDCDCDCDCDCDCE2E2E2E2E2E2DCDCDCDCDCDCDC
310
DCDCE2DCDCDCDCDCDCE2E2E2E2BEE2E2E2E2E2E2E2E2E2E2E2E2E2E2E2E2E2E2E2E2E2E2E2E2E2E2E2E2E2E2E2E2E2E2E2E2E2E2E2E2E2E2E2E2E2E2E2E2E2E2E2E2E2E2E2E2E2E2E2E2E2E2E2E2E2E2E2E2E2E2E2E2E2E2E2E2E2E2E2E2E2E2E2E2E2E2E2E2E2E2E2E2BEE2BEBEE2E2BEBEBEBEBEBEBEBEBEBEE2E2BEE2E2
310
C3E2DCE2DCDCE2DCE2E2E2C3E2E2E2E2E2E2E2E2E2E2E2E2E2E2E2E2E2E2E2E2E2E2E2E2E2E2E2E2E2E2E2E2E2E2E2E2E2E2E2E2E2E2E2E2E2E2E2E2E2E2E2E2E2E2E2E2E2E2E2E2E2E2E2E2E2E2E2E2E2E2E2E2E2E2E2E2E2E2E2E2E2E2E2E2E2E2E2E2E2E2E2E2E2E2E2E2E2E2E2E2E2E2E2E2E2E2E2E2E2E2E2E2E2E2E2
310
E2E2E2E2E2E2E2E2E2E2E2E2E2E2E2BEE2E2E2E2E2E2E2E2E2E2E2E2E2E2E2E2E2E2E2E2E2E2E2E2E2E2E2E2E2E2E2E2E2E2E2E2E2E2E2E2E2E2E2E2E2E2E2E2E2E2E2E2E2E2E2E2E2E2E2E2E2E2E2E2E2E2E2E2E2E2E2E2E2E2E2E2E2E2E2E2E2E2E2E2E2E2E2E2E2E2E2E2BEE2BEBEE2E2BEBEBEBEBEBEBEBEBEBEE2E2BE
310
E2E2C3E2DCE2DCDCE2DCE2E2E2C3C3C3DCDCDCDCDCDCDCDCDCDCDCDCDCDCDCDCDCDCDCDCDCDCDCDCDCC3C3DCDCDCDCDCDCC3DCDCDCDCDCDCDCDCDCDCDCDCC3C3DCDCDCDCDCDCDCDCDCDCDCDCDCDCDCDCC3C3DCDCDCDCDCDCDCDCDCDCDCDCDCDCDCDCDCC3C3C3C3C3C3C3C3C3C3C3C3C3C3C3C3C3C3C3C3C3C3C3C3C3C3C3C3
310
C3C3C3C3C3C3C3C3C3C3C3C3C3E2E2E2E2BEE2E2E2E2E2E2E2E2E2E2E2E2E2E2E2E2E2E2E2E2E2E2E2E2E2E2E2E2E2E2E2E2E2E2E2E2E2E2E2E2E2E2E2E2E2E2E2E2E2E2E2E2E2E2E2E2E2E2E2E2E2E2E2E2E2E2E2E2E2E2E2E2E2E2E2E2E2E2E2E2E2E2E2E2E2E2E2E2E2E2E2E2BEE2BEBEE2E2BEBEBEBEBEBEBEBEBEBEE2
310
E2BEE2E2C3E2DCE2DCDCE2DCE2E2E2C3E2E2DCDCDCDCDCDCDCDCDCDCDCDCDCDCDCDCDCDCDCDCDCDCDCDCDCE2E2DCDCDCDCDCDCE2DCDCDCDCDCDCDCDCDCDCDCDCE2E2DCDCDCDCDCDCDCDCDCDCDCDCDCDCDCDCE2E2DCDCDCDCDCDCDCDCDCDCDCDCDCDCDCDCDCE2E2E2E2E2E2E2E2E2E2E2E2E2E2E2E2E2E2E2E2E2E2E2E2E2E2
310
E2E2E2E2E2E2E2E2E2E2E2E2E2E2E2E2E2E2E2BEE2E2E2E2E2E2E2E2E2E2E2E2E2E2E2E2E2E2E2E2E2E2E2E2E2E2E2E2E2E2E2E2E2E2E2E2E2E2E2E2E2E2E2E2E2E2E2E2E2E2E2E2E2E2E2E2E2E2E2E2E2E2E2E2E2E2E2E2E2E2E2E2E2E2E2E2E2E2E2E2E2E2E2E2E2E2E2E2E2E2E2E2BEE2BEBEE2E2BEBEBEBEBEBEBEBEBE
310
BEE2E2BEE2E2C3E2DCDCDCDCDCDCE2E2C3C3E2E2DCDCDCDCDCDCDCDCDCDCDCDCDCDCDCDCDCDCDCDCDCDCDCDCDCE2E2DCDCDCDCDCDCE2DCDCDCDCDCDCDCDCDCDCDCDCE2E2DCDCDCDCDCDCDCDCDCDCDCDCDCDCDCDCE2E2DCDCDCDCDCDCDCDCDCDCDCDCDCDCDCDCDCE2E2E2E2E2E2E2E2E2E2E2E2E2E2E2E2BEBEBEE2E2E2E2E2
310
E2E2E2E2E2E2E2E2E2E2E2E2E2E2E2E2E2E2E2E2E2BEE2E2E2E2E2E2E2E2E2E2E2E2E2E2E2E2E2E2E2E2E2E2E2E2E2E2E2E2E2E2E2E2E2E2E2E2E2E2E2E2E2E2E2E2E2E2E2E2E2E2E2E2E2E2E2E2E2E2E2E2E2E2E2E2E2E2E2E2E2E2E2E2E2E2E2E2E2E2E2E2E2E2E2E2E2E2E2E2E2E2E2E2BEE2BEBEE2E2BEBEBEBEBEBEBE
310
BEBEBEE2E2BEE2E2C3C3E2E2E2E2E2E2E2E2C3E2E2E2DCDCDCDCDCDCDCDCDCDCDCDCDCDCDCDCDCDCDCDCDCDCDCDCDCE2E2DCDCDCDCDCDCE2DCDCDCDCDCDCDCDCDCDCDCDCE2E2DCDCDCDCDCDCDCDCDCDCDCDCDCDCDCDCE2E2DCDCDCDCDCDCDCDCDCDCDCDCDCDCDCDCDCE2E2E2E2E2E2E2E2E2E2E2E2E2E2E2BEBEBEBEE2E2E2
310
E2E2E2E2E2E2E2E2E2E2E2E2E2E2E2E2E2E2E2E2E2E2E2BEE2E2E2E2E2E2E2E2E2E2E2E2E2E2E2E2E2E2E2E2E2E2E2E2E2E2E2E2E2E2E2E2E2E2E2E2E2E2E2E2E2E2E2E2E2E2E2E2E2E2E2E2E2E2E2E2E2E2E2E2E2E2E2E2E2E2E2E2E2E2E2E2E2E2E2E2E2E2E2E2E2E2E2E2E2E2E2E2E2E2E2E2BEE2BEBEE2E2BEBEBEBEBE
310
BEBEBEBEBEE2E2BEE2E2E2C3C3E2E2E2E2E2E2C3E2E2E2E2DCDCDCDCDCDCDCDCDCDCDCDCDCDCDCDCDCDCDCDCDCDCDCDCDCE2E2DCDCDCDCDCDCE2DCDCDCDCDCDCDCDCDCDCDCDCE2E2DCDCDCDCDCDCDCDCDCDCDCDCDCDCDCDCE2E2DCDCDCDCDCDCDCDCDCDCDCDCDCDCDCDCDCE2E2E2E2E2E2E2E2E2E2E2E2E2E2E2E2BEBEBEE2
310
E2E2E2E2E2E2E2E2E2E2E2E2E2E2E2E2E2E2E2E2E2E2E2E2E2BEE2E2E2E2E2E2E2E2E2E2E2E2E2E2E2E2E2E2E2E2E2E2E2E2E2E2E2E2E2E2E2E2E2E2E2E2E2E2E2E2E2E2E2E2E2E2E2E2E2E2E2E2E2E2E2E2E2E2E2E2E2E2E2E2E2E2E2E2E2E2E2E2E2E2E2E2E2E2E2E2E2E2E2E2E2E2E2E2E2E2E2E2BEE2BEBEE2E2BEBEBE
310
BEBEBEBEBEBEBEE2E2BEE2E2E2E2C3C3E2E2E2C3C3E2E2E2E2E2DCDCDCDCDCDCDCDCDCDCDCDCDCDCDCDCDCDCDCDCDCDCDCDCDCE2E2DCDCDCDCDCDCE2DCDCDCDCDCDCDCDCDCDCDCDCE2E2DCDCDCDCDCDCDCDCDCDCDCDCDCDCDCDCE2E2DCDCDCDCDCDCDCDCDCDCDCDCDCDCDCDCDCE2E2E2E2E2E2E2E2E2E2E2E2E2E2E2E2E2BE
310
BEBEBEBEBEBEBEBEBEBEBEBEBEBEBEBEBEBEBEBEBEE2E2E2E2E2E2BEE2E2E2E2E2E2E2E2E2E2E2E2E2E2E2E2E2E2E2E2E2E2E2E2E2E2E2E2E2E2E2E2E2E2E2E2E2E2E2E2E2E2E2E2E2E2E2E2E2E2E2E2E2E2E2E2E2E2E2E2E2E2E2E2E2E2E2E2E2E2E2E2E2E2E2E2E2E2E2E2E2E2E2E2E2E2E2E2E2E2E2E2BEE2BEBEE2E2BE
310
BEBEBEBEBEBEBEBEBEE2E2BEE2E2E2E2E2E2C3C3C3C3E2E2E2E2E2E2E2E2E2E2E2E2E2E2E2E2E2E2E2E2E2E2E2E2E2E2E2E2E2E2E2E2E2E2E2E2E2E2E2E2E2E2E2E2E2E2E2E2E2E2E2E2E2E2E2E2E2E2E2E2E2E2E2E2E2E2E2E2E2E2E2E2E2E2E2E2E2E2E2E2E2E2E2E2E2E2E2E2E2E2E2E2E2E2E2E2E2E2E2E2E2E2E2E2E2
310
E2BEBEBEBEBEBEBEBEBEBEBEBEBEBEBEBEBEBEBEBEBEBEE2E2E2E2E2E2BEE2E2E2E2E2E2E2E2E2E2E2E2E2E2E2E2E2E2E2E2E2E2E2E2E2E2E2E2E2E2E2E2E2E2E2E2E2E2E2E2E2E2E2E2E2E2E2E2E2E2E2E2E2E2E2E2E2E2E2E2E2E2E2E2E2E2E2E2E2E2E2E2E2E2E2E2E2E2E2E2E2E2E2E2E2E2E2E2E2E2E2E2BEE2BEBEE2
310
E2BEBEBEBEBEBEBEBEBEBEE2E2BEE2E2E2E2E2E2E2E2E2E2E2E2E2E2E2E2E2E2E2E2E2E2E2E2E2E2E2E2E2E2E2E2E2E2E2E2E2E2E2E2E2E2E2E2E2E2E2E2E2E2E2E2E2E2E2E2E2E2E2E2E2E2E2E2E2E2E2E2E2E2E2E2E2E2E2E2E2E2E2E2E2E2E2E2E2E2E2E2E2E2E2E2E2E2E2E2E2E2E2E2E2E2E2E2E2E2E2E2E2E2E2E2E2
310
E2E2E2E2BEBEE2BEBEBEBEBEBEBEBEBEBEBEBEBEBEBEBEBEBEBEBEE2E2E2E2BEE2E2E2E2E2E2E2E2E2E2E2E2E2E2E2E2E2E2E2E2E2E2E2E2E2E2E2E2E2E2E2E2E2E2E2E2E2E2E2E2E2E2E2E2E2E2E2E2E2E2E2E2E2E2E2E2E2E2E2E2E2E2E2E2E2E2E2E2E2E2E2E2E2E2E2E2E2E2E2E2E2E2E2E2E2E2E2E2E2E2E2E2BEE2BE
310
BEE2E2BEBEBEBEBEBEBEBEBEBEE2E2BEE2E2E2E2E2E2E2E2E2E2E2E2E2E2E2E2E2E2E2E2E2E2E2E2E2E2E2E2E2E2E2E2E2E2E2E2E2E2E2E2E2E2E2E2E2E2E2E2E2E2E2E2E2E2E2E2E2E2E2E2E2E2E2E2E2E2E2E2E2E2E2E2E2E2E2E2E2E2E2E2E2E2E2E2E2E2E2E2E2E2E2E2E2E2E2E2E2E2E2E2E2E2E2E2E2E2E2E2E2E2E2
310
E2E2E2E2E2E2BEE2E2BEBEBEBEBEBEBEBEBEBEBEBEBEBEBEBEBEBEBEBEE2E2E2E2BEE2E2E2E2E2E2E2E2E2E2E2E2E2E2E2E2E2E2E2E2E2E2E2E2E2E2E2E2E2E2E2E2E2E2E2E2E2E2E2E2E2E2E2E2E2E2E2E2E2E2E2E2E2E2E2E2E2E2E2E2E2E2E2E2E2E2E2E2E2E2E2E2E2E2E2E2E2E2E2E2E2E2E2E2E2E2E2E2E2E2E2E2BE
310
E2E2E2E2E2BEBEBEBEBEBEBEBEBEBEE2E2BEE2E2E2E2E2E2E2E2E2E2E2E2E2E2E2E2E2E2E2E2E2E2E2E2E2E2E2E2E2E2E2E2E2E2E2E2E2E2E2E2E2E2E2E2E2E2E2E2E2E2E2E2E2E2E2E2E2E2E2E2E2E2E2E2E2E2E2E2E2E2E2E2E2E2E2E2E2E2E2E2E2E2E2E2E2E2E2E2E2E2E2E2E2E2E2E2E2E2E2E2E2E2E2E2E2E2E2E2E2
310
E2E2E2E2E2E2E2E2E2E2E2E2E2E2E2E2E2E2E2E2E2E2E2E2E2E2E2E2E2E2E2E2E2E2E2BEE2E2E2E2E2E2E2E2E2E2E2E2E2E2E2E2E2E2E2E2E2E2E2E2E2E2E2E2E2E2E2E2E2E2E2E2E2E2E2E2E2E2E2E2E2E2E2E2E2E2E2E2E2E2E2E2E2E2E2E2E2E2E2E2E2E2E2E2E2E2E2E2E2E2E2E2E2E2E2E2E2E2E2E2E2E2E2E2E2E2E2
310
E2BEE2E2E2E2E2BEBEBEBEBEBEBEBEBEBEE2E2BEE2E2E2E2E2E2E2E2E2E2E2E2E2E2E2E2E2E2E2E2E2E2E2E2E2E2E2E2E2E2E2E2E2E2E2E2E2E2E2E2E2E2E2E2E2E2E2E2E2E2E2E2E2E2E2E2E2E2E2E2E2E2E2E2E2E2E2E2E2E2E2E2E2E2E2E2E2E2E2E2E2E2E2E2E2E2E2E2E2E2E2E2E2E2E2E2E2E2E2E2E2E2E2E2E2E2E2
310
E2E2E2E2E2E2E2E2E2E2E2E2E2E2E2E2E2E2E2E2E2E2E2E2E2E2E2E2E2E2E2E2E2E2E2E2E2BEE2E2E2E2E2E2E2E2E2E2E2E2E2E2E2E2E2E2E2E2E2E2E2E2E2E2E2E2E2E2E2E2E2E2E2E2E2E2E2E2E2E2E2E2E2E2E2E2E2E2E2E2E2E2E2E2E2E2E2E2E2E2E2E2E2E2E2E2E2E2E2E2E2E2E2E2E2E2E2E2E2E2E2E2E2E2E2E2E2
310
E2E2E2BEE2E2E2E2E2BEBEBEBEBEBEBEBEBEBEE2E2BEE2E2E2E2E2E2E2E2E2E2E2E2E2E2E2E2E2E2E2E2E2E2E2E2E2E2E2E2E2E2E2E2E2E2E2E2E2E2E2E2E2E2E2E2E2E2E2E2E2E2E2E2E2E2E2E2E2E2E2E2E2E2E2E2E2E2E2E2E2E2E2E2E2E2E2E2E2E2E2E2E2E2E2E2E2E2E2E2E2E2E2E2E2E2E2E2E2E2E2E2E2E2E2E2E2
310
E2E2E2E2E2E2E2E2E2E2E2E2E2E2E2E2E2E2E2E2E2E2E2E2E2E2E2E2E2E2E2E2E2E2E2E2E2E2E2BEE2E2E2E2E2E2E2E2E2E2E2E2E2E2E2E2E2E2E2E2E2E2E2E2E2E2E2E2E2E2E2E2E2E2E2E2E2E2E2E2E2E2E2E2E2E2E2E2E2E2E2E2E2E2E2E2E2E2E2E2E2E2E2E2E2E2E2E2E2E2E2E2E2E2E2E2E2E2E2E2E2E2E2E2E2E2E2
310
E2E2E2E2E2BEE2E2E2E2E2BEBEBEBEBEBEBEBEBEBEE2E2BEE2E2E2E2E2E2E2E2E2E2E2E2E2E2E2E2E2E2E2E2E2E2E2E2E2E2E2E2E2E2E2E2E2E2E2E2E2E2E2E2E2E2E2E2E2E2E2E2E2E2E2E2E2E2E2E2E2E2E2E2E2E2E2E2E2E2E2E2E2E2E2E2E2E2E2E2E2E2E2E2E2E2E2E2E2E2E2E2E2E2E2E2E2E2E2E2E2E2E2E2E2E2E2
310
E2E2E2E2E2E2E2E2E2E2E2E2E2E2E2E2E2E2E2E2E2E2E2E2E2E2E2E2E2E2E2E2E2E2E2E2E2E2E2E2E2BEE2E2E2E2E2E2E2E2E2E2E2E2E2E2E2E2E2E2E2E2E2E2E2E2E2E2E2E2E2E2E2E2E2E2E2E2E2E2E2E2E2E2E2E2E2E2E2E2E2E2E2E2E2E2E2E2E2E2E2E2E2E2E2E2E2E2E2E2E2E2E2E2E2E2E2E2E2E2E2E2E2E2E2E2E2
310
E2E2E2E2E2E2E2BEE2E2E2E2E2BEBEBEBEBEBEBEBEBEBEE2E2BEE2E2E2E2E2E2E2E2E2E2E2E2E2E2E2E2E2E2E2E2E2E2E2E2E2E2E2E2E2E2E2E2E2E2E2E2E2E2E2E2E2E2E2E2E2E2E2E2E2E2E2E2E2E2E2E2E2E2E2E2E2E2E2E2E2E2E2E2E2E2E2E2E2E2E2E2E2E2E2E2E2E2E2E2E2E2E2E2E2E2E2E2E2E2E2E2E2E2E2E2E2
310
E2E2E2E2E2E2E2E2E2E2E2E2E2E2E2E2E2E2E2E2E2E2E2E2E2E2E2E2E2E2E2E2E2E2E2E2E2E2E2E2E2E2E2BEE2E2E2E2E2E2E2E2E2E2E2E2E2E2E2E2E2E2E2E2E2E2E2E2E2E2E2E2E2E2E2E2E2E2E2E2E2E2E2E2E2E2E2E2E2E2E2E2E2E2E2E2E2E2E2E2E2E2E2E2E2E2E2E2E2E2E2E2E2E2E2E2E2E2E2E2E2E2E2E2E2E2E2
310
E2E2E2E2E2E2E2E2E2BEE2E2E2E2E2BEBEBEBEBEBEBEBEBEBEE2E2BEE2E2E2E2E2E2E2E2E2E2E2E2E2E2E2E2E2E2E2E2E2E2E2E2E2E2E2E2E2E2E2E2E2E22D2D2D2D2DE2E2E2E2E2E2E2E2E2E2E2E2E2E2E2E2E2E2E2E2E2E2E2E2E2E2E2E2E2E2E2E2E2E2E2E2E2E2E2E2E2E2E2E2E2E2E2E2E2E2E2E2E2E2E2E2E2E2E2E2
310
E2E2E2E2E2E2E2E2E2E2E2E2E2E2E2E2E2E2E2E2E2E2E2E2E2E2E2E2E2E2E2E2E2E2E2E2E2E2E2E2E2E2E2E2E2BEE2E2E2E2E2E2E2E2E2E2E2E2E2E2E2E2E2E2E2E2E2E2E2E2E2E2E2E2E2E2E2E2E2E2E2E2E2E2E2E2E2E2E2E2E2E2E2E2E2E2E2E2E2E2E2E2E2E2E2E2E2E2E2E2E2E2E2E2E2E2E2E2E2E2E2E2E2E2E2E2E2
310
E2E2E2E2E2E2E2E2E2E2E2BEE2E2E2E2E2BEBEBEBEBEBEBEBEBEBEE2E2BEE2E2E2E2E2E2E2E2E2E2E2E2E2E2E2E2E2E2E2E2E2E2E2E2E2E2E2E2E2E2E2E2E2E2DCE2DCE22DE2E2E2E2E2E2E2E2E2E2E2E2E2E2E2E2E2E2E2E2E2E2E2E2E2E2E2E2E2E2E2E2E2E2E2E2E2E2E2E2E2E2E2E2E2E2E2E2E2E2E2E2E2E2E2E2E2E2
310
E2E2E2E2E2E2E2E2E2E2E2E2E2DCDCDCE2E2E2E2E2E2E2E2E2E2E2E2E2E2E2E2E2E2E2E2E2E2E2E2E2E2E2E2E2E2E2BEE2E2E2E2E2E2E2E2E2E2E2E2E2E2E2E2E2E2E2E2E2E2E2E2E2E2E2E2E2E2E2E2E2E2E2E2E2E2E2E2E2E2E2E2E2E2E2E2E2E2E2E2E2E2E2E2E2E2E2E2E2E2E2E2E2E2E2E2E2E2E2E2E2E2E2E2E2E2E2
310
E2E2E2E2E2E2E2E2E2E2E2E2E2BEE2E2E2E2E2BEBEBEBEBEBEBEBEBEBEE2E2BEE2E2E2E2E2E2E2E2E2E2E2E2E2E2E2E2E2E2E2E2E2E2E2E2E2E2E2E2E2E2E2E2E2E22DDCDCDCDCDCDCDCDCDCE2E2E2E2E2E2E2E2E2E2E2E2E2E2E2E2E2E2E2E2E2E2E2E2E2E2E2E2E2E2E2E2E2E2E2E2E2E2E2E2E2E2E2E2E2E2E2E2E2E2E2
310
E2E2E2E2E2E2E2E2E2E2E2E2E2E2E2DCDCDCE2E2E2E2E2E2DCDCE2E2E2E2DCE2E2E2E2E2E2E2E2E2E2E2E2E2E2E2E2E2E2BEE2E2E2E2E2E2E2E2E2E2E2E2E2E2E2E2E2E2E2E2E2E2E2E2E2E2E2E2E2E2E2E2E2E2E2E2E2E2E2E2E2E2E2E2E2E2E2E2E2E2E2E2E2E2E2E2E2E2E2E2E2E2E2E2E2E2E2E2E2E2E2E2E2E2E2E2E2
310
E2E2E2E2E2E2E2E2E2E2E2E2E2E2E2BEE2E2E2E2E2BEBEBEBEBEBEBEBEBEBEE2E2BEE2E2E2E2E2E2E2E2E2E2E2E2E2E2E2E2E2E2E2E2E2E2E2E2E2E2E2E2E2E2E2E2E2E22DDCDCDC2DE2DCDCE2E2DCDCDCDCDCDCE2E2E2E2E2E2E2E2E2E2E2E2E2E2E2E2E2E2E2E2E2E2E2E2E2E2E2E2E2E2DCDCDCDCDCDCDCDCDCDCDCDCDC
310
E2E2DCDCDCE2E2DCDCDCDCDCDCDCDCDCDCDCDCDCE2DCDCDCDCE2DCE2DCDCDCDCDCE2E2E2E2E2E2E2E2E2E2E2E2E2E2E2E2E2E2BEE2E2E2E2E2E2E2E2E2E2E2E2E2E2E2E2E2E2E2E2E2E2E2E2E2E2E2E2E2E2E2E2E2E2E2E2E2E2E2E2E2E2E2E2E2E2E2E2E2E2E2E2E2E2E2E2E2E2E2E2E2E2E2E2E2E2E2E2E2E2E2E2E2E2E2
310
E2E2E2E2E2E2E2E2E2E2E2E2E2E2E2E2E2BEE2E2E2E2E2BEBEBEBEBEBEBEBEBEBEE2E2BEE2E2E2E2E2E2E2E2E2E2E2E2E2E2E2E2E2E2E2E2E2E2E2E2E2E2E2E2E2E2E2E2E2E22D2D832D2DE2E2E2E2E2E2E2E2E2E2E2DCDCDCDCDCDCE2E2E2E2E2E2E2E2E2E2E2E2E2E2E2E2E2E2E2E2E2E2E2E2DCDCDCE2DCDCDCDCDCDCDC
310
DCDCE2DCDCDCDCE2DCDCDCDCDCDCDCDCDCDCDCDCDCDCE2DCDCDCDCE2DCDCDCE2DCDCDCE2E2E2E2E2E2E2E2E2E2E2E2E2E2E2E2E2E2BEE2E2E2E2E2E2E2E2E2E2E2E2E2E2E2E2E2E2E2E2E2E2E2E2E2E2E2E2E2E2E2E2E2E2E2E2E2E2E2E2E2E2E2E2E2E2E2E2E2E2E2E2E2E2E2E2E2E2E2E2E2E2E2E2E2E2E2E2E2E2E2E2E2
310
E2E2E2E2E2E2E2E2E2E2E2E2E2E2E2E2E2E2E2BEE2E2E2E2E2BEBEBEBEBEBEBEBEBEBEE2E2BEE2E2E2E2E2E2E2E2E2E2E2E2E2E2E2E2E2E2E2E2E22D2D2D2DE22D2D2D2D2D2DE2E22D2D832D2D2DE22D2D2D2D2D2DE2E22D2D2D2DE2E2E2DCDCDCDCDCDCE2E2E2E2E2E2E2E2E2E2E2E2E2E2E2E2E2E2E2E2E2E2E2E2E2E2E2
310
E2E2E2E2E2E2E2E2E2E2E2E2E2E2E2E2E2E2E2E2E2E2E2E2E2E2E2E2E2E2E2DCE2E2E2E2DCE2E2E2E2E2E2E2E2E2E2E2E2E2E2E2E2E2E2BEE2E2E2E2E2E2E2E2E2E2E2E2E2E2E2E2E2E2E2E2E2E2E2E2E2E2E2E2E2E2E2E2E2E2E2E2E2E2E2E2E2E2E2E2E2E2E2E2E2E2E2E2E2E2E2E2E2E2E2E2E2E2E2E2E2E2E2E2E2E2E2
310
E2E2E2E2E2E2E2E2E2E2E2E2E2E2E2E2E2E2E2E2E2BEE2E2E2E2E2BEBEBEBEBEBEBEBEBEBEE2E2BEE2E2E2E2E2E2E2E2E2E2E2E2E2E2E2E2E2E2E2E2E22DE2E2E2E2E2E2E2E2E2E2E2E2E2E283E2E2E2E2E2E2E2E2E2E2E2E2E2E2E22DE2E2E2E2E2E2E2E2E2DCDCDCDCDCDCDCDCDCDCDCDCDCDCDCDCDCDCDCDCDCDCDCDCDC
310
DCDCDCDCDCDCDCDCE2E2DCDCDCDCDCDCDCDCE2E2DCDCDCDCDCDCDCDCE2E2E2E2E2E2E2E2E2E2E2E2E2E2E2E2E2E2E2E2E2E2E2E2E2E2E2E2E2BEE2E2E2E2E2E2E2E2E2E2E2E2E2E2E2E2E2E2E2E2E2E2E2E2E2E2E2E2E2E2E2E2E2E2E2E2E2E2E2E2E2E2E2E2E2E2E2E2E2E2E2E2E2E2E2E2E2E2E2E2E2E2E2E2E2E2E2E2E2
310
E2E2E2E2E2E2E2E2E2E2E2E2E2E2E2E2E2E2E2E2E2E2E2BEE2E2E2E2E2BEBEBEBEBEBEBEBEBEBEE2E2BEE2E2E2E2E2E2E2E2E2E2E2E2E2E2E2E2E2E2E2E2E22DE28383838383E2E2E2E2E2E28383838383E2E2E2E2E2E28383838383E2E22DE2E2E2E2E2E2E2E2E2E2E2E2E2E2E2E2E2E2E2E2E2E2E2E2E2E2E2E2DCDCDCDC
310
DCDCDCDCDCDCDCDCDCDCE2E2DCDCE2DCDCDCDCDCE2E2DCDCDCDCE2DCDCDCE2E2E2E2E2E2E2E2E2E2E2E2E2E2E2E2E2E2E2E2E2E2E2E2E2E2E2E2E2BEE2E2E2E2E2E2E2E2E2E2E2E2E2E2E2E2E2E2E2E2E2E2E2E2E2E2E2E2E2E2E2E2E2E2E2E2E2E2E2E2E2E2E2E2E2E2E2E2E2E2E2E2E2E2E2E2E2E2E2E2E2E2E2E2E2E2E2
310
E2E2E2E2E2E2E2E2E2E2E2E2E2E2E2E2E2E2E2E2E2E2E2E2E2BEE2E2E2E2E2BEBEBEBEBEBEBEBEBEBEE2E2BEE2E2E2E2E2E2E2E2E2E2E2E2E2E2E2E2E2E2E2E2E22DE28383E28383E2E2E2E2E2838383E2838383E2E2E2E2838383E28383E2E22DE2E2E2E2E2E2E2E2E2E2E2E2E2E2E2E2E2E2E2E2E2E2E2E2E2E2E2E2DCDC
310
DCDCDCDCDCE2DCDCDCDCDCDCE2E2DCDCE2DCDCDCDCDCE2E2DCDCDCDCDCDCDCDCE2E2E2E2E2E2E2E2E2E2E2E2E2E2E2E2E2E2E2E2E2E2E2E2E2E2E2E2E2BEE2E2E2E2E2E2E2E2E2E2E2E2E2E2E2E2E2E2E2E2E2E2E2E2E2E2E2E2E2E2E2E2E2E2E2E2E2E2E2E2E2E2E2E2E2E2E2E2E2E2E2E2E2E2E2E2E2E2E2E2E2E2E2E2E2
310
E2E2E2E2E2E2E2E2E2E2E2E2E2E2E2E2E2E2E2E2E2E2E2E2E2E2E2BEE2E2E2E2E2BEBEBEBEBEBEBEBEBEBEE2E2BEE2E2E2E2E2E2E2E2E2E2E2E2E2E2E2E2E2E2E2E2E2E28383E2E2E28383E2E2E2E28383E2E2E28383E2E2E2E28383E2E2E28383E2E2E2E2E2E2E2E2E2E2E2E2E2E2E2E2E2E2E2E2E2E2E2E2E2E2E2E2E2E2
310
E2E2E2E2E2E2E2E2E2E2E2E2E2E2E2E2E2E2E2E2E2E2E2E2E2E2E2E2E2E2E2E2E2E2E2E2E2E2E2E2E2E2E2E2E2E2E2E2E2E2E2E2E2E2E2E2E2E2E2E2E2E2E2BEE2E2E2E2E2E2E2E2E2E2E2E2E2E2E2E2E2E2E2E2E2E2E2E2E2E2E2E2E2E2E2E2E2E2E2E2E2E2E2E2E2E2E2E2E2E2E2E2E2E2E2E2E2E2E2E2E2E2E2E2E2E2E2
310
E2E2E2E2E2E2E2E2E2E2E2E2E2E2E2E2E2E2E2E2E2E2E2E2E2E2E2E2E2BEE2E2E2E2E2BEBEBEBEBEBEBEBEBEBEE2E2BEE2E2E2E2E2E2E2E2E2E2E2E2E2E2E2E2E2E2E2E2E2E28383E2E2E28383E2E2E2E283E2E2E2E28383E2E2E2E283E2E2E2E28383E2E2E2E2E2E2E2E2E2E2E2E2E2E2E2E2E2E2E2E2E2E2E2E2E2E2E2E2
310
E2E2E2E2E2E2E2E2E2E2E2E2E2E2E2E2E2E2E2E2E2E2E2E2E2E2E2E2E2E2E2E2E2E2E2E2E2E2E2E2E2E2E2E2E2E2E2E2E2E2E2E2E2E2E2E2E2E2E2E2E2E2E2E2E2BEE2E2E2E2E2E2E2E2E2E2E2E2E2E2E2E2E2E2E2E2E2E2E2E2E2E2E2E2E2E2E2E2E2E2E2E2E2E2E2E2E2E2E2E2E2E2E2E2E2E2E2E2E2E2E2E2E2E2E2E2E2
310
E2E2E2E2E2E2E2E2E2E2E2E2E2E2E2E2E2E2E2E2E2E2E2E2E2E2E2E2E2E2E2BEE2E2E2E2E2BEBEBEBEBEBEBEBEBEBEE2E2BEE2E2E2E2E2E2E2E2E2E2E2E2E2E2E2E2E2E2E2E2E22D8383E2E2E28383E2E2E2E283E2E2E2E28383E2E2E2E283E2E2E2E28383E22DE2E2E2E2E2E2E2E2E2E2E2E2E2E2E2E2E2E2E2E2E2E2E2E2
310
E2E2E2E2E2E2E2E2E2E2E2E2E2E2E2E2E2E2E2E2E2E2E2E2E2E2E2E2E2E2E2E2E2E2E2E2E2E2E2E2E2E2E2E2E2E2E2E2E2E2E2E2E2E2E2E2E2E2E2E2E2E2E2E2E2E2E2BEE2E2E2E2E2E2E2E2E2E2E2E2E2E2E2E2E2E2E2E2E2E2E2E2E2E2E2E2E2E2E2E2E2E2E2E2E2E2E2E2E2E2E2E2E2E2E2E2E2E2E2E2E2E2E2E2E2E2E2
310
E2E2E2E2E2E2E2E2E2E2E2E2E2E2E2E2E2E2E2E2E2E2E2E2E2E2E2E2E2E2E2E2E2BEE2E2E2E2E2BEBEBEBEBEBEBEBEBEBEE2E2BEE2E2E2E2E2E2E2E2E2E2E2E2E2E2E2E2E2E2E2E2E22D8383E2E2E28383E2E2E2E283E2E2E2E28383E2E2E2E283E2E2E2E28383E22DE2E2E2E2E2E2E2E2E2E2E2E2E2E2E2E2E2E2E2E2E2E2
310
E2E2E2E2E2E2E2E2E2E2E2E2E2E2E2E2E2E2E2E2E2E2E2E2E2E2E2E2E2E2E2E2E2E2E2E2E2E2E2E2E2E2E2E2E2E2E2E2E2E2E2E2E2E2E2E2E2E2E2E2E2E2E2E2E2E2E2E2E2BEE2E2E2E2E2E2E2E2E2E2E2E2E2E2E2E2E2E2E2E2E2E2E2E2E2E2E2E2E2E2E2E2E2E2E2E2E2E2E2E2E2E2E2E2E2E2E2E2E2E2E2E2E2E2E2E2E2
310
E2E2E2E2E2E2E2E2E2E2E2E2E2E2E2E2E2E2E2E2E2E2E2E2E2E2E2E2E2E2E2E2E2E2E2BEE2E2E2E2E2BEBEBEBEBEBEBEBEBEBEE2E2BEE2E2E2E2E2E2E2E2E2E2E2E2E2E2E2E2E2E2E2E2E22D8383E2E2E28383E2E2E2E283E2E2E2E28383E2E2E2E283E2E2E2E28383E22DE2E2E2E2E2E2E2E2E2E2E2E2E2E2E2E2E2E2E2E2
310
E2E2E2E2E2E2E2E2E2E2E2E2E2E2E2E2E2E2E2E2E2E2E2E2E2E2E2E2E2E2E2E2E2E2E2E2E2E2E2E2E2E2E2E2E2E2E2E2E2E2E2E2E2E2E2E2E2E2E2E2E2E2E2E2E2E2E2E2E2E2E2BEE2E2E2E2E2E2E2E2E2E2E2E2E2E2E2E2E2E2E2E2E2E2E2E2E2E2E2E2E2E2E2E2E2E2E2E2E2E2E2E2E2E2E2E2E2E2E2E2E2E2E2E2E2E2E2
310
E2E2E2E2E2E2E2E2E2E2E2E2E2E2E2E2E2E2E2E2E2E2E2E2E2E2E2E2E2E2E2E2E2E2E2E2E2BEE2E2E2E2E2BEBEBEBEBEBEBEBEBEBEE2E2BEE2E2E2E2E2E2E2E2E2E2E2E2E2E2E2E2E2E2E2E2E22D8383E2E2E28383E2E2E2E283E2E2E2E28383E2E2E2E283E2E2E2E28383E22DE2E2E2E2E2E2E2E2E2E2E2E2E2E2E2E2E2E2
310
E2E2E2E2E2E2E2E2E2E2E2E2E2E2E2E2E2E2E2E2E2E2E2E2E2E2E2E2E2E2E2E2E2E2E2E2E2E2E2E2E2E2E2E2E2E2E2E2E2E2E2E2E2E2E2E2E2E2E2E2E2E2E2E2E2E2E2E2E2E2E2E2E2BEE2E2E2E2E2E2E2E2E2E2E2E2E2E2E2E2E2E2E2E2E2E2E2E2E2E2E2E2E2E2E2E2E2E2E2E2E2E2E2E2E2E2E2E2E2E2E2E2E2E2E2E2E2
310
E2E2E2E2E2E2E2E2E2E2E2E2E2E2E2E2E2E2E2E2E2E2E2E2E2E2E2E2E2E2E2E2E2E2E2E2E2E2E2BEE2E2E2E2E2BEBEBEBEBEBEBEBEBEBEE2E2BEE2E2E2E2E2E2E2E2E2E2E2E2E2E2E2E2E2E2E2E2E22D8383E2E2E28383E2E2E2E283E2E2E2E28383E2E2E2E283E2E2E2E28383E2DCDCDCDCE2E2E2E2E2E2E2E2E2E2E2E2E2
310
E2E2E2E2E2E2E2E2E2E2E2E2E2E2E2E2E2E2E2E2E2E2E2E2E2E2E2E2E2E2E2E2E2E2E2E2E2E2E2E2E2E2E2E2E2E2E2E2E2E2E2E2E2E2E2E2E2E2E2E2E2E2E2E2E2E2E2E2E2E2E2E2E2E2E2BEE2E2E2E2E2E2E2E2E2E2E2E2E2E2E2E2E2E2E2E2E2E2E2E2E2E2E2E2E2E2E2E2E2E2E2E2E2E2E2E2E2E2E2E2E2E2E2E2E2E2E2
310
E2E2E2E2E2E2E2E2E2E2E2E2E2E2E2E2E2E2E2E2E2E2E2E2E2E2E2E2E2E2E2E2E2E2E2E2E2E2E2E2E2BEE2E2E2E2E2BEBEBEBEBEBEBEBEBEBEE2E2BEE2E2E2E2E2E2E2E2E2E2E2E2E2E2E2E2E2E2E2E2E2E28383E2E2E28383E2E2E2E283E2E2E2E28383E2E2E2E283E2E2E2E28383E2E2DCDCE2DCDCDCE2E2E2E2E2E2E2E2
310
E2E2E2E2E2E2E2E2E2E2E2E2E2E2E2E2E2E2E2E2E2E2E2E2E2E2E2E2E2E2E2E2E2E2E2E2E2E2E2E2E2E2E2E2E2E2E2E2E2E2E2E2E2E2E2E2E2E2E2E2E2E2E2E2E2E2E2E2E2E2E2E2E2E2E2E2E2BEE2E2E2E2E2E2E2E2E2E2E2E2E2E2E2E2E2E2E2E2E2E2E2E2E2E2E2E2E2E2E2E2E2E2E2E2E2E2E2E2E2E2E2E2E2E2E2E2E2
310
E2E2E2E2E2E2E2E2E2E2E2E2E2E2E2E2E2E2E2E2E2E2E2E2E2E2E2E2E2E2E2E2E2E2E2E2E2E2E2E2E2E2E2BEE2E2E2E2E2BEBEBEBEBEBEBEBEBEBEE2E2BEE2E2E2E2E2E2E2E2E2E2E2E2E2E2E2E2E2E2E2E2E2E28383E2E2E28383E2E2E2E283E2E2E2E28383E2E2E2E283E2E2E2E28383E2E2E2E2E2E2E2E2DCDCDCDCE2E2
310
E2E2E2E2E2E2E2E2E2E2E2E2E2E2E2E2DCDCDCDCE2DCDCDCDCE2E2DCDCDCDCDCDCDCDCDCDCDCDCDCDCE2E2E2E2E2E2E2E2E2E2E2E2E2E2E2E2E2E2E2E2E2E2E2E2E2E2E2E2E2E2E2E2E2E2E2E2E2E2BEE2E2E2E2E2E2E2E2E2E2E2E2E2E2E2E2E2E2E2E2E2E2E2E2E2E2E2E2E2E2E2E2E2E2E2E2E2E2E2E2E2E2E2E2E2E2E2
310
E2E2E2E2E2E2E2E2E2E2E2E2E2E2E2E2E2E2E2E2E2E2E2E2E2E2E2E2E2E2E2E2E2E2E2E2E2E2E2E2E2E2E2E2E2BEE2E2E2E2E2BEBEBEBEBEBEBEBEBEBEE2E2BEE2E2E2E2E2E2E2E2E2E2E2E2E2E2E2E2E2E2E2E2E22D8383E2E2E28383E2E2E2E283E2E2E2E28383E2E2E2E283E2E2E2E28383E22DE2E2E2E2E2E2E2E2E2E2
310
DCDCDCDCDCDCDCDCDCDCDCDCDCDCDCDCDCE2DCDCDCE2DCDCDCDCDCE2E2DCDCDCDCDCDCDCDCDCE2DCDCDCDCE2E2E2E2E2E2E2E2E2E2E2E2E2E2E2E2E2E2E2E2E2E2E2E2E2E2E2E2E2E2E2E2E2E2E2E2E2E2BEE2E2E2E2E2E2E2E2E2E2E2E2E2E2E2E2E2E2E2E2E2E2E2E2E2E2E2E2E2E2E2E2E2E2E2E2E2E2E2E2E2E2E2E2E2
310
E2E2E2E2E2E2E2E2E2E2E2E2E2E2E2E2E2E2E2E2E2E2E2E2E2E2E2E2E2E2E2E2E2E2E2E2E2E2E2E2E2E2E2E2E2E2E2BEE2E2E2E2E2BEBEBEBEBEBEBEBEBEBEE2E2BEE2E2E2E2E2E2E2E2E2E2E2E2E2E2E2E2E2E2E2E2E22D8383E2E2E28383E2E2E2E283E2E2E2E28383E2E2E2E283E2E2E2E28383E22DE2E2E2E2E2E2E2E2
310
E2E2E2E2E2E2E2E2E2E2E2E2E2E2E2E2E2E2E2E2DCDCDCE2DCDCDCDCDCE2E2DCDCDCDCDCDCDCDCDCDCDCDCDCDCE2E2E2E2E2E2E2E2E2E2E2E2E2E2E2E2E2E2E2E2E2E2E2E2E2E2E2E2E2E2E2E2E2E2E2E2E2E2BEE2E2E2E2E2E2E2E2E2E2E2E2E2E2E2E2E2E2E2E2E2E2E2E2E2E2E2E2E2E2E2E2E2E2E2E2E2E2E2E2E2E2E2
310
E2E2E2E2E2E2E2E2E2E2E2E2E2E2E2E2E2E2E2E2E2E2E2E2E2E2E2E2E2E2E2E2E2E2E2E2E2E2E2E2E2E2E2E2E2E2E2E2E2BEE2E2E2E2E2BEBEBEBEBEBEBEBEBEBEE2E2BEE2E2E2E2E2E2E2E2E2E2E2E2E2E2E2E2E2E2E2E2E22D8383E2E2E28383E2E2E2E283E2E2E2E28383E2E2E2E283E2E2E2E28383E22DE2E2E2E2E2E2
310
E2E2E2E2E2E2E2E2E2E2E2E2E2E2E2E2E2E2E2E2E2E2E2E2E2E2E2E2E2E2E2E2E2E2E2E2E2E2E2E2E2E2E2E2E2E2E2E2E2E2E2E2E2E2E2E2E2E2E2E2E2E2E2E2E2E2E2E2E2E2E2E2E2E2E2E2E2E2E2E2E2E2E2E2E2BEE2E2E2E2E2E2E2E2E2E2E2E2E2E2E2E2E2E2E2E2E2E2E2E2E2E2E2E2E2E2E2E2E2E2E2E2E2E2E2E2E2
310
E2E2E2E2E2E2E2E2E2E2E2E2E2E2E2E2E2E2E2E2E2E2E2E2E2E2E2E2E2E2E2E2E2E2E2E2E2E2E2E2E2E2E2E2E2E2E2E2E2E2E2BEE2E2E2E2E2BEBEBEBEBEBEBEBEBEBEE2E2BEE2E2E2E2E2E2E2E2E2E2E2E2E2E2E2E2E2E2E2E2E22D8383E2E2E28383E2E2E2E283E2E2E2E28383E2E2E2E283E2E2E2E28383E22DE2E2E2E2
310
E2E2E2E2E2E2E2E2E2E2E2E2E2E2E2E2E2E2E2E2E2E2E2E2E2E2E2E2E2E2E2E2E2E2E2E2E2E2E2E2E2E2E2E2E2E2E2E2E2E2E2E2E2E2E2E2E2E2E2E2E2E2E2E2E2E2E2E2E2E2E2E2E2E2E2E2E2E2E2E2E2E2E2E2E2E2E2BEE2E2E2E2E2E2E2E2E2E2E2E2E2E2E2E2E2E2E2E2E2E2E2E2E2E2E2E2E2E2E2E2E2E2E2E2E2E2E2
310
E2E2E2E2E2E2E2E2E2E2E2E2E2E2E2E2E2E2E2E2E2E2E2E2E2E2E2E2E2E2E2E2E2E2E2E2E2E2E2E2E2E2E2E2E2E2E2E2E2E2E2E2E2BEE2E2E2E2E2BEBEBEBEBEBEBEBEBEBEE2E2BEE2E2E2E2E2E2E2E2E2E2E2E2E2E2E2E2E2E2E2E2E22D8383E2E2E28383E2E2E2E283E2E2E2E28383E2E2E2E283E2E2E2E28383E22DE2E2
310
E2E2E2E2E2E2E2E2E2E2E2E2E2E2E2E2E2E2E2E2E2E2E2E2E2E2E2E2E2E2E2E2E2E2E2E2E2E2E2E2E2E2E2E2E2E2E2E2E2E2E2E2E2E2E2E2E2E2E2E2E2E2E2E2E2E2E2E2E2E2E2E2E2E2E2E2E2E2E2E2E2E2E2E2E2E2E2E2E2BEE2E2E2E2E2E2E2E2E2E2E2E2E2E2E2E2E2E2E2E2E2E2E2E2E2E2E2E2E2E2E2E2E2E2E2E2E2
310
E2E2E2E2E2E2E2E2E2E2E2E2E2E2E2E2E2E2E2E2E2E2E2E2E2E2E2E2E2E2E2E2E2E2E2E2E2E2E2E2E2E2E2E2E2E2E2E2E2E2E2E2E2E2E2BEE2E2E2E2E2BEBEBEBEBEBEBEBEBEBEE2E2BEE2E2E2E2E2E2E2E2E2E2E2E2E2E2E2E2E2E2E2E2E22D8383E2E2E28383E2E2E2E283E2E2E2E28383E2E2E2E283E2E2E2E28383E22D
310
E2E2E2E2E2E2E2E2E2E2E2E2E2E2E2E2E2E2E2E2E2E2E2E2E2E2E2E2E2E2E2E2E2E2E2E2E2E2DCDCDCE2E2E2E2E2E2E2E2E2E2E2E2E2E2E2E2E2E2E2E2E2E2E2E2E2E2E2E2E2E2E2E2E2E2E2E2E2E2E2E2E2E2E2E2E2E2E2E2E2E2BEE2E2E2E2E2E2E2E2E2E2E2E2E2E2E2E2E2E2E2E2E2E2E2E2E2E2E2E2E2E2E2E2E2E2E2
310
E2E2E2E2E2E2E2E2E2E2E2E2E2E2E2E2E2E2E2E2E2E2E2E2E2E2E2E2E2E2E2E2E2E2E2E2E2E2E2E2E2E2E2E2E2E2E2E2E2E2E2E2E2E2E2E2E2BEE2E2E2E2E2BEBEBEBEBEBEBEBEBEBEE2E2BEE2E2E2E2E2E2E2E2E2E2E2E2E2E2E2E2E2E2E2E2E2E28383E2E2E28383E2E2E2E283E2E2E2E28383E2E2E2E283E2E2E2E28383
310
E2E2E2E2E2E2E2E2E2E2E2E2E2E2E2E2E2E2E2E2E2E2E2E2E2E2E2E2E2E2DCDCDCDCDCDCDCDCDCDCDCDCDCE2DCDCDCDCDCE2E2E2E2E2E2E2E2E2E2E2E2E2E2E2E2E2E2E2E2E2E2E2E2E2E2E2E2E2E2E2E2E2E2E2E2E2E2E2E2E2E2E2E2BEE2E2E2E2E2E2E2E2E2E2E2E2E2E2E2E2E2E2E2E2E2E2E2E2E2E2E2E2E2E2E2E2E2
310
E2E2E2E2E2E2E2E2E2E2E2E2E2E2E2E2E2E2E2E2E2E2E2E2E2E2E2E2E2E2E2E2E2E2E2E2E2E2E2E2E2E2E2E2E2E2E2E2E2E2E2E2E2E2E2E2E2E2E2BEE2E2E2E2E2BEBEBEBEBEBEBEBEBEBEE2E2BEE2E2E2E2E2E2E2E2E2E2E2E2E2E2E2E2E2E2E2E2E22D8383E2E2E28383E2E2E2E283E2E2E2E28383E2E2E2E283E2E2E2E2
310
8383DCDCDCDCDCDCDCDCDCDCDCDCDCDCDCDCDCDCDCDCDCDCDCDCDCDCDCDCDCE2DCDCDCDCDCDCDCDCDCDCDCDCDCE2DCDCDCDCDCE2E2E2E2E2E2E2E2E2E2E2E2E2E2E2E2E2E2E2E2E2E2E2E2E2E2E2E2E2E2E2E2E2E2E2E2E2E2E2E2E2E2E2E2BEE2E2E2E2E2E2E2E2E2E2E2E2E2E2E2E2E2E2E2E2E2E2E2E2E2E2E2E2E2E2E2
310
E2E2E2E2E2E2E2E2E2E2E2E2E2E2E2E2E2E2E2E2E2E2E2E2E2E2E2E2E2E2E2E2E2E2E2E2E2E2E2E2E2E2E2E2E2E2E2E2E2E2E2E2E2E2E2E2E2E2E2E2E2BEE2E2E2E2E2BEBEBEBEBEBEBEBEBEBEE2E2BEE2E2E2E2E2E2E2E2E2E2E2E2E2E2E2E2E2E2E2E2E22D8383E2E2E28383E2E2E2E283E2E2E2E28383E2E2E2E283E2E2
310
E2E2DCDCE22DE2E2E2E2E2E2E2E2E2E2E2E2E2E2E2E2E2E2E2E2E2E2E2E2E2E2E2DCDCDCE2E2DCE2DCDCE2E2E2E2E2E2DCDCDCDCDCE2E2E2E2E2E2E2E2E2E2E2E2E2E2E2E2E2E2E2E2E2E2E2E2E2E2E2E2E2E2E2E2E2E2E2E2E2E2E2E2E2E2E2E2BEE2E2E2E2E2E2E2E2E2E2E2E2E2E2E2E2E2E2E2E2E2E2E2E2E2E2E2E2E2
310
E2E2E2E2E2E2E2E2E2E2E2E2E2E2E2E2E2E2E2E2E2E2E2E2E2E2E2E2E2E2E2E2E2E2E2E2E2E2E2E2E2E2E2E2E2E2E2E2E2E2E2E2E2E2E2E2E2E2E2E2E2E2E2BEE2E2E2E2E2BEBEBEBEBEBEBEBEBEBEE2E2BEE2E2E2E2E2E2E2E2E2E2E2E2E2E2E2E2E2E2E2E2E22D8383E2E2E2E28383E2E28383E2E2E2E2E28383E2E28383
310
E2E2DCDC8383E22DE2E2E2E2E2E2E2E2E2E2E2E2E2E2E2E2E2E2E2E2E2E2E2E2E2E2E2E2E2E2E2E2E2E2E2E2E2E2E2E2E2E2E2E2E2E2E2E2E2E2E2E2E2E2E2E2E2E2E2E2E2E2E2E2E2E2E2E2E2E2E2E2E2E2E2E2E2E2E2E2E2E2E2E2E2E2E2E2E2E2E2BEE2E2E2E2E2E2E2E2E2E2E2E2E2E2E2E2E2E2E2E2E2E2E2E2E2E2E2
310
E2E2E2E2E2E2E2E2E2E2E2E2E2E2E2E2E2E2E2E2E2E2E2E2E2E2E2E2E2E2E2E2E2E2E2E2E2E2E2E2E2E2E2E2E2E2E2E2E2E2E2E2E2E2E2E2E2E2E2E2E2E2E2E2E2BEE2E2E2E2E2BEBEBEBEBEBEBEBEBEBEE2E2BEE2E2E2E2E2E2E2E2E2E2E2E2E2E2E2E2E2E2E2E2E22D8383E2E2E2E2838383838383E2E2E2E2E283838383
310
83E2DCDCE2E28383E22DE2E2E2E2E2E2E2E2E2E2E2E2E2E2E2E2E2E2E2E2E2E2E2E2E2E2E2E2E2E2E2E2E2E2E2E2E2E2E2E2E2E2E2E2E2E2E2E2E2E2E2E2E2E2E2E2E2E2E2E2E2E2E2E2E2E2E2E2E2E2E2E2E2E2E2E2E2E2E2E2E2E2E2E2E2E2E2E2E2E2E2BEE2E2E2E2E2E2E2E2E2E2E2E2E2E2E2E2E2E2E2E2E2E2E2E2E2
310
E2E2E2E2E2E2E2E2E2E2E2E2E2E2E2E2E2E2E2E2E2E2E2E2E2E2E2E2E2E2E2E2E2E2E2E2E2E2E2E2E2E2E2E2E2E2E2E2E2E2E2E2E2E2E2E2E2E2E2E2E2E2E2E2E2E2E2BEE2E2E2E2E2BEBEBEBEBEBEBEBEBEBEE2E2BEE2E2E2E2E2E2E2E2E2E2E2E2E2E2E2E2E2E2E2E2E22D8383E2E2E2E2E2E28383E2E2E2E2E2E2E2E2E2
310
8383DCDCE2E2E2E28383E22DE2E2E2E2E2E2E2E2E2E2E2E2E2E2E2E2E2E2E2E2E2E2E2E2E2E2E2E2E2E2E2E2E2E2E2E2E2E2E2E2E2E2E2E2E2E2E2E2E2E2E2E2E2E2E2E2E2E2E2E2E2E2E2E2E2E2E2E2E2E2E2E2E2E2E2E2E2E2E2E2E2E2E2E2E2E2E2E2E2E2E2BEE2E2E2E2E2E2E2E2E2E2E2E2E2E2E2E2E2E2E2E2E2E2E2
310
E2E2E2E2E2E2E2E2E2E2E2E2E2E2E2E2E2E2E2E2E2E2E2E2E2E2E2E2E2E2E2E2E2E2E2E2E2E2E2E2E2E2E2E2E2E2E2E2E2E2E2E2E2E2E2E2E2E2E2E2E2E2E2E2E2E2E2E2E2BEE2E2E2E2E2BEBEBEBEBEBEBEBEBEBEE2E2BEE2E2E2E2E2E2E2E2E2E2E2E2E2E2E2E2E2E2E2E2E22D8383E2E2E2E2E2E2E2E2E2E2E2E2E2E2E2
310
E2E2DCDCE2E2E2E2E2E28383E22DE2E2E2E2E2E2E2E2E2E2E2E2E2E2E2E2E2E2E2E2E2E2E2E2E2E2E2E2E2E2E2E2E2E2E2E2E2E2E2E2E2E2E2E2E2E2E2E2E2E2E2E2E2E2E2E2E2E2E2E2E2E2E2E2E2E2E2E2E2E2E2E2E2E2E2E2E2E2E2E2E2E2E2E2E2E2E2E2E2E2E2BEE2E2E2E2E2E2E2E2E2E2E2E2E2E2E2E2E2E2E2E2E2
310
E2E2E2E2E2E2E2E2E2E2E2E2E2E2E2E2E2E2E2E2E2E2E2E2E2E2E2E2E2E2E2E2E2E2E2E2E2E2E2E2E2E2E2E2E2E2E2E2E2E2E2E2E2E2E2E2E2E2E2E2E2E2E2E2E2E2E2E2E2E2E2BEE2E2E2E2E2BEBEBEBEBEBEBEBEBEBEE2E2BEE2E2E2E2E2E2E2E2E2E2E2E2E2E2E2E2E2E2E2E2E2E28383E2E2E2E2E2E2E2E2E2E2E2E2E2
310
E2DCDCDCE2E2E2E2E2E2E2E28383E2E2E2E2E2E2E2E2E2E2E2E2E2E2E2E2E2E2E2E2E2E2E2E2E2E2E2E2E2E2E2E2E2E2E2E2E2E2E2E2E2E2E2E2E2E2E2E2E2E2E2E2E2E2E2E2E2E2E2E2E2E2E2E2E2E2E2E2E2E2E2E2E2E2E2E2E2E2E2E2E2E2E2E2E2E2E2E2E2E2E2E2E2BEE2E2E2E2E2E2E2E2E2E2E2E2E2E2E2E2E2E2E2
310
E2E2E2E2E2E2E2E2E2E2E2E2E2E2E2E2E2E2E2E2E2E2E2E2E2E2E2E2E2E2E2E2E2E2E2E2E2E2E2E2E2E2E2E2E2E2E2E2E2E2E2E2E2E2E2E2E2E2E2E2E2E2E2E2E2E2E2E2E2E2E2E2E2BEE2E2E2E2E2BEBEBEBEBEBEBEBEBEBEE2E2BEE2E2E2E2E2E2E2E2E2E2E2E2E2E2E2E2E2E2E2E2E2E28383E2E2E2E2E2E2E2E2E2E2E2
310
E2E2DCDCE2E2E2E2E2E2E2E2E2E28383E2E2E2E2E2E2E2E2E2E2E2E2E2E2E2E2E2E2E2E2E2E2E2E2E2E2E2E2E2E2E2E2E2E2E2E2E2E2E2E2E2E2E2E2E2E2E2E2E2E2E2E2E2E2E2E2E2E2E2E2E2E2E2E2E2E2E2E2E2E2E2E2E2E2E2E2E2E2E2E2E2E2E2E2E2E2E2E2E2E2E2E2E2BEE2E2E2E2E2E2E2E2E2E2E2E2E2E2E2E2E2
310
E2E2E2E2E2E2E2E2E2E2E2E2E2E2E2E2E2E2E2E2E2E2E2E2E2E2E2E2E2E2E2E2E2E2E2E2E2E2E2E2E2E2E2E2E2E2E2E2E2E2E2E2E2E2E2E2E2E2E2E2E2E2E2E2E2E2E2E2E2E2E2E2E2E2E2BEE2E2E2E2E2BEBEBEBEBEBEBEBEBEBEE2E2BEE2E2E2E2E2E2E2E2E2E2E2E2E2E2E2E2E2E2E2E2E22DE283838383838383838383
310
838383DCDC838383838383838383838383E2E22DE2E2E2E2E2E2E2E2E2E2E2E2E2E2E2E2E2E2E2E2E2E2E2E2E2E2E2E2E2E2E2E2E2E2E2E2E2E2E2E2E2E2E2E2E2E2E2E2E2E2E2E2E2E2E2E2E2E2E2E2E2E2E2E2E2E2E2E2E2E2E2E2E2E2E2E2E2E2E2E2E2E2E2E2E2E2E2E2E2E2E2BEE2E2E2E2E2E2E2E2E2E2E2E2E2E2E2
310
E2E2E2E2E2E2E2E2E2E2E2E2E2E2E2E2E2E2E2E2E2E2E2E2E2E2E2E2E2E2E2E2E2E2E2E2E2E2E2E2E2E2E2E2E2E2E2E2E2E2E2E2E2E2E2E2E2E2E2E2E2E2E2E2E2E2E2E2E2E2E2E2E2E2E2E2E2BEE2E2E2E2E2BEBEBEBEBEBEBEBEBEBEE2E2BEE2E2E2E2E2E2E2E2E2E2E2E2E2E2E2E2E2E2E2E2E22DE2E283838383838383
310
838383838383838383838383838383838383E2E2E22DE2E2E2E2E2E2E2E2E2E2E2E2E2E2E2E2E2E2E2E2E2E2E2E2E2E2E2E2E2E2E2E2E2E2E2E2E2E2E2E2E2E2E2E2E2E2E2E2E2E2E2E2E2E2E2E2E2E2E2E2E2E2E2E2E2E2E2E2E2E2E2E2E2E2E2E2E2E2E2E2E2E2E2E2E2E2E2E2E2E2E2BEE2E2E2E2E2E2E2E2E2E2E2E2E2
310
E2E2E2E2E2E2E2E2E2E2E2E2E2E2E2E2E2E2E2E2E2E2E2E2E2E2E2E2E2E2E2E2E2E2E2E2E2E2E2E2E2E2E2E2E2E2E2E2E2E2E2E2E2E2E2E2E2E2E2E2E2E2E2E2E2E2E2E2E2E2E2E2E2E2E2E2E2E2E2BEE2E2E2E2E2BEBEBEBEBEBEBEBEBEBEE2E2BEE2E2E2E2E2E2E2E2E2E2E2E2E2E2E2E2E2E2E2E2E22D2D2D2DE22D2D2D
310
2D2D2DE2E22D2D2D2D2D2DE22D2D2D2D2D2DE2E22D2D2D2DE2E2E2E2E2E2E2E2E2E2E2E2E2E2E2E2E2E2E2E2E2E2E2E2E2E2E2E2E2E2E2E2E2E2E2E2E2E2E2E2E2E2E2E2E2E2E2E2E2E2E2E2E2E2E2E2E2E2E2E2E2E2E2E2E2E2E2E2E2E2E2E2E2E2E2E2E2E2E2E2E2E2E2E2E2E2E2E2E2E2E2BEE2E2E2E2E2E2E2E2E2E2E2
310
E2E2E2E2E2E2E2E2E2E2E2E2E2E2E2E2E2E2E2E2E2E2E2E2E2E2E2E2E2E2E2E2E2E2E2E2E2E2E2E2E2E2E2E2E2E2E2E2E2E2E2E2E2E2E2E2E2E2E2E2E2E2E2E2E2E2E2E2E2E2E2E2E2E2E2E2E2E2E2E2E2BEE2E2E2E2E2BEBEBEBEBEBEBEBEBEBEE2E2BEE2E2E2E2E2E2E2E2E2E2E2E2E2E2E2E2E2E2E2E2E22D2DE2E2E2E2
310
E2E2E2E2E2E2E2E2DCDCDCE2E2E2E2E2E2E2E2E2E2E2E2E2E2E2E2E2E2E2E2E2E2E2E2E2E2E2E2E2E2E2E2E2E2E2E2E2E2E2E2E2E2E2E2E2E2E2E2E2E2E2E2E2E2E2E2E2E2E2E2E2E2E2E2E2E2E2E2E2E2E2E2E2E2E2E2E2E2E2E2E2E2E2E2E2E2E2E2E2E2E2E2E2E2E2E2E2E2E2E2E2E2E2E2E2E2BEE2E2E2E2E2E2E2E2E2
310
E2E2E2E2E2E2E2E2E2E2E2E2E2E2E2E2E2E2E2E2E2E2E2E2E2E2E2E2E2E2E2E2E2E2E2E2E2E2E2E2E2E2E2E2E2E2E2E2E2E2E2E2E2E2E2E2E2E2E2E2E2E2E2E2E2E2E2E2E2E2E2E2E2E2E2E2E2E2E2E2E2E2E2BEE2E2E2E2E2BEBEBEBEBEBEBEBEBEBEE2E2BEE2E2E2E2E2E2E2E2E2E2E2E2E2E2E2E2E2E2E2E2E2E2E2E2E2
310
E2E2E2E2E2E2E2E2E2E2DCE2DC2D2D2D2D2D2D2D2D2D2D2D2D2D2D2DDCDCDCE2E2E2E2E2E2E2E2E2E2E2E2E2E2E2E2E2E2E2E2E2E2E2E2E2E2E2E2E2E2E2E2E2E2E2E2E2E2E2E2E2E2E2E2E2E2E2E2E2E2E2E2E2E2E2E2E2E2E2E2E2E2E2E2E2E2E2E2E2E2E2E2E2E2E2E2E2E2E2E2E2E2E2E2E2E2E2E2BEE2E2E2E2E2E2E2
310
E2E2E2E2E2E2E2E2E2E2E2E2E2E2E2E2E2E2E2E2E2E2E2E2E2E2E2E2E2E2E2E2E2E2E2E2E2E2E2E2E2E2E2E2E2E2E2E2E2E2E2E2E2E2E2E2E2E2E2E2E2E2E2E2E2E2E2E2E2E2E2E2E2E2E2E2E2E2E2E2E2E2E2E2E2BEE2E2E2E2E2BEBEBEBEBEBEBEBEBEBEE2E2BEE2E2E2E2E2E2E2E2E2E2E2E2E2E2E2E2E2E2E2E2E2E2E2
310
E2E2E2E2E2E2E2E2E2E2E2E2DCE2DCE2E2E2E2E2E2E2E2E2E2E2E2E2E2E2DCE2DCDCE2E2E2E2E2E2E2E2E2E2E2E2E2E2E2E2E2E2E2E2E2E2E2E2E2E2E2E2E2E2E2E2E2E2E2E2E2E2E2E2E2E2E2E2E2E2E2E2E2E2E2E2E2E2E2E2E2E2E2E2E2E2E2E2E2E2E2E2E2E2E2E2E2E2E2E2E2E2E2E2E2E2E2E2E2E2E2BEE2E2E2E2E2
310
E2E2E2E2E2E2E2E2E2E2E2E2E2E2E2E2E2E2E2E2E2E2E2E2E2E2E2E2E2E2E2E2E2E2E2E2E2E2E2E2E2E2E2E2E2E2E2E2E2E2E2E2E2E2E2E2E2E2E2E2E2E2E2E2E2E2E2E2E2E2E2E2E2E2E2E2E2E2E2E2E2E2E2E2E2E2E2BEE2E2E2E2E2BEBEBEBEBEBEBEBEBEBEE2E2BEE2E2E2E2E2E2E2E2E2E2E2E2E2E2E2E2E2E2E2E2E2
310
E2E2E2E2E2E2E2E2E2E2E2E2E2E2E2DCDC2D2D2D2D2D2D2D2D2D2D2D2D2D2D2DDCDCE2DCE2E2E2E2E2E2E2E2E2E2E2E2E2E2E2E2E2E2E2E2E2E2E2E2E2E2E2E2E2E2E2E2E2E2E2E2E2E2E2E2E2E2E2E2E2E2E2E2E2E2E2E2E2E2E2E2E2E2E2E2E2E2E2E2E2E2E2E2E2E2E2E2E2E2E2E2E2E2E2E2E2E2E2E2E2E2E2BEE2E2E2
310
E2E2E2E2E2E2E2E2E2E2E2E2E2E2E2E2E2E2E2E2E2E2E2E2E2E2E2E2E2E2E2E2E2E2E2E2E2E2E2E2E2E2E2E2E2E2E2E2E2E2E2E2E2E2E2E2E2E2E2E2E2E2E2E2E2E2E2E2E2E2E2E2E2E2E2E2E2E2E2E2E2E2E2E2E2E2E2E2E2BEE2E2E2E2E2BEBEBEBEBEBEBEBEBEBEE2E2BEE2E2E2E2E2E2E2E2E2E2E2E2E2E2E2E2E2E2E2
310
E2E2E2E2E2E2E2E2E2E2E2E2E2E2E2E2E2E2E2E2E2E2E2E2E2E2E2E2E2E2E2E2E2E2E2DCDCDCE2E2E2E2E2E2E2E2E2E2E2E2E2E2E2E2E2E2E2E2E2E2E2E2E2E2E2E2E2E2E2E2E2E2E2E2E2E2E2E2E2E2E2E2E2E2E2E2E2E2E2E2E2E2E2E2E2E2E2E2E2E2E2E2E2E2E2E2E2E2E2E2E2E2E2E2E2E2E2E2E2E2E2E2E2E2E2BEE2
310
E2E2E2E2E2E2E2E2E2E2E2E2E2E2E2E2E2E2E2E2E2E2E2E2E2E2E2E2E2E2E2E2E2E2E2E2E2E2E2E2E2E2E2E2E2E2E2E2E2E2E2E2E2E2E2E2E2E2E2E2E2E2E2E2E2E2E2E2E2E2E2E2E2E2E2E2E2E2E2E2E2E2E2E2E2E2E2E2E2E2E2BEE2E2E2E2E2BEBEBEBEBEBEBEBEBEBEE2E2BEE2E2E2E2E2E2E2E2E2E2E2E2E2E2E2E2E2
310
E2E2E2E2E2E2E2E2E2E2E2E2E2E2E2E2E2E2E2E2E2E2E2E2E2E2E2E2E2E2E2E2E2E2E2E2E22D2DE2E2E2E2E2E2E2E2E2E2E2E2E2E2E2E2E2E2E2E2E2E2E2E2E2E2E2E2E2E2E2E2E2E2E2E2E2E2E2E2E2E2E2E2E2E2E2E2E2E2E2E2E2E2E2E2E2E2E2E2E2E2E2E2E2E2E2E2E2E2E2E2E2E2E2E2E2E2E2E2E2E2E2E2E2E2E2E2
310
BEE2E2E2E2E2E2E2E2E2E2E2E2E2E2E2E2E2E2E2E2E2E2E2E2E2E2E2E2E2E2E2E2E2E2E2E2E2E2E2E2E2E2E2E2E2E2E2E2E2E2E2E2E2E2E2E2E2E2E2E2E2E2E2E2E2E2E2E2E2E2E2E2E2E2E2E2E2E2E2E2E2E2E2E2E2E2E2E2E2E2E2E2BEE2E2E2E2E2BEBEBEBEBEBEBEBEBEBEE2E2BEE2E2E2E2E2E2E2E2E2E2E2E2E2E2E2
310
E2E2E2E2E2E2E2E2E2E2E2E2E2E2E2E2E2E2E2E2E2E2E2E2E2E2E2E2E2E2E2E2E2E2E2E2BEBEBE2D2DE2E2E2E2E2E2E2E2E2E2E2E2E2E2E2E2E2E2E2E2E2E2E2E2E2E2E2E2E2E2E2E2E2E2E2E2E2E2E2E2E2E2E2E2E2E2E2E2E2E2E2E2E2E2E2E2E2E2E2E2E2E2E2E2E2E2E2E2E2E2E2E2E2E2E2E2E2E2E2E2E2E2E2E2E2E2
310
E2E2BEE2E2E2E2E2E2E2E2E2E2E2E2E2E2E2E2E2E2E2E2E2E2E2E2E2E2E2E2E2E2E2E2E2E2E2E2E2E2E2E2E2E2E2E2E2E2E2E2E2E2E2E2E2E2E2E2E2E2E2E2E2E2E2E2E2E2E2E2E2E2E2E2E2E2E2E2E2E2E2E2E2E2E2E2E2E2E2E2E2E2E2E2BEE2E2E2E2E2BEBEBEBEBEBEBEBEBEBEE2E2BEE2E2E2E2E2E2E2E2E2E2E2E2E2
310
E2E2E2E2E2E2E2E2E2E2E2E2E2E2E2E2E2E2E2E2E2E2E2E2E2E2E2E2E2E2E2E2E2E2E2E2E2E2E2E2BE2D2DBEBEBEE2E2E2E2E2E2E2E2E2E2E2E2E2E2E2E2E2E2E2E2E2E2E2E2E2E2E2E2E2E2E2E2E2E2E2E2E2E2E2E2E2E2E2E2E2E2E2E2E2E2E2E2E2E2E2E2E2E2E2E2E2E2E2E2E2E2E2E2E2E2E2E2E2E2E2E2E2E2E2E2E2
310
E2E2E2E2BEE2E2E2E2E2E2E2E2E2E2E2E2E2E2E2E2E2E2E2E2E2E2E2E2E2E2E2E2E2E2E2E2E2E2E2E2E2E2E2E2E2E2E2E2E2E2E2E2E2E2E2E2E2E2E2E2E2E2E2E2E2E2E2E2E2E2E2E2E2E2E2E2E2E2E2E2E2E2E2E2E2E2E2E2E2E2E2E2E2E2E2E2BEE2E2E2E2E2BEBEBEBEBEBEBEBEBEBEE2E2BEE2E2E2E2E2E2E2E2E2E2E2
310
E2E2E2E2E2E2E2E2E2E2E2E2E2E2E2E2E2E2E2E2E2E2E2E2E2E2E2E2E2E2E2E2E2E2E2E2E2E2E2E2BEBEBEE2BEE2E2E2E2E2E2E2E2E2E2E2E2E2E2E2E2E2E2E2E2E2E2E2E2E2E2E2E2E2E2E2E2E2E2E2E2E2E2E2E2E2E2E2E2E2E2E2E2E2E2E2E2E2E2E2E2E2E2E2E2E2E2E2E2E2E2E2E2E2E2E2E2E2E2E2E2E2E2E2E2E2E2
310
E2E2E2E2E2E2BEE2E2E2E2E2E2E2E2E2E2E2E2E2E2E2E2E2E2E2E2E2E2E2E2E2E2E2E2E2E2E2E2E2E2E2E2E2E2E2E2E2E2E2E2E2E2E2E2E2E2E2E2E2E2E2E2E2E2E2E2E2E2E2E2E2E2E2E2E2E2E2E2E2E2E2E2E2E2E2E2E2E2E2E2E2E2E2E2E2E2E2E2BEE2E2E2E2E2BEBEBEBEBEBEBEBEBEBEE2E2BEE2E2E2E2E2E2E2E2E2
310
E2E2E2E2E2E2E2E2E2E2E22D2D2D2DE2E22D2D2D2D2D2DE22D2D2D2D2D2DE2E22D2D2D2D2D2DE22D2D2D2DE2BE2D2DBEE2E2E2E2E2E2E2E2E2E2E2E2E2E2E2E2E2E2E2E2E2E2E2E2E2E2E2E2E2E2E2E2E2E2E2E2E2E2E2E2E2E2E2E2E2E2E2E2E2E2E2E2E2E2E2E2E2E2E2E2E2E2E2E2E2E2E2E2E2E2E2E2E2E2E2E2E2E2E2
310
E2E2E2E2E2E2E2E2BEE2E2E2E2E2E2E2E2E2E2E2E2E2E2E2E2E2E2E2E2E2E2E2E2E2E2E2E2E2E2E2E2E2E2E2E2E2E2E2E2E2E2E2E2E2E2E2E2E2E2E2E2E2E2E2E2E2E2E2E2E2E2E2E2E2E2E2E2E2E2E2E2E2E2E2E2E2E2E2E2E2E2E2E2E2E2E2E2E2E2E2E2BEE2E2E2E2E2BEBEBEBEBEBEBEBEBEBEE2E2BEE2E2E2E2E2E2E2
310
E2E2E2E2E2E2E2E2E2E2E2E2E22DE2E2E2E2E2E2E2E2E2E2E2E2E2E2E2E2E2E2E2E2E2E2E2E2E2E2E2E2E2E22DE2BE2D2DE2BEBEE2E2E2E2E2E2E2E2E2E2E2E2E2E2E2E2E2E2E2E2E2E2E2E2E2E2E2E2E2E2E2E2E2E2E2E2E2E2E2E2E2E2E2E2E2E2E2E2E2E2E2E2E2E2E2E2E2E2E2E2E2E2E2E2E2E2E2E2E2E2E2E2E2E2E2
310
E2E2E2E2E2E2E2E2E2E2BEE2E2E2E2E2E2E2E2E2E2E2E2E2E2E2E2E2E2E2E2E2E2E2E2E2E2E2E2E2E2E2E2E2E2E2E2E2E2E2E2E2E2E2E2E2E2E2E2E2E2E2E2E2E2E2E2E2E2E2E2E2E2E2E2E2E2E2E2E2E2E2E2E2E2E2E2E2E2E2E2E2E2E2E2E2E2E2E2E2E2E2E2BEE2E2E2E2E2BEBEBEBEBEBEBEBEBEBEE2E2BEE2E2E2E2E2
310
E2E2E2E2E2E2E2E2E2E2E2E2E2E2E22DE2E28383838383838383838383838383838383838383838383838383E2E22DE2E22D2DE2E2E2E2E2E2E2E2E2E2E2E2E2E2E2E2E2E2E2E2E2E2E2E2E2E2E2E2E2E2E2E2E2E2E2E2E2E2E2E2E2E2E2E2E2E2E2E2E2E2E2E2E2E2E2E2E2E2E2E2E2E2E2E2E2E2E2E2E2E2E2E2E2E2E2E2
310
E2E2E2E2E2E2E2E2E2E2E2E2BEE2E2E2E2E2E2E2E2E2E2E2E2E2E2E2E2E2E2E2E2E2E2E2E2E2E2E2E2E2E2E2E2E2E2E2E2E2E2E2E2E2E2E2E2E2E2E2E2E2E2E2E2E2E2E2E2E2E2E2E2E2E2E2E2E2E2E2E2E2E2E2E2E2E2E2E2E2E2E2E2E2E2E2E2E2E2E2E2E2E2E2E2BEE2E2E2E2E2BEBEBEBEBEBEBEBEBEBEE2E2BEE2E2E2
310
E2E2E2E2E2E2E2E2E2E2E2E2E2E2E2E2E22DE2838383E2E2E2E2E2E2E2E2E2E2E2E2E2E2E2E2E2E2E2E2E2E2E28383E22DE2E22D2DE2E2E2E2E2E2E2E2E2E2E2E2E2E2E2E2E2E2E2E2E2E2E2E2DCDCDCDCDCDCDCDCE2DCDCDCDCDCDCE2DCDCDCDCDCE2E2E2E2E2E2E2E2E2E2E2E2E2E2E2E2E2E2E2E2E2E2E2E2E2E2E2E2E2
310
E2E2E2E2E2E2E2E2E2E2E2E2E2E2BEE2E2E2E2E2E2E2E2E2E2E2E2E2E2E2E2E2E2E2E2E2E2E2E2E2E2E2E2E2E2E2E2E2E2E2E2E2E2E2E2E2E2E2E2E2E2E2E2E2E2E2E2E2E2E2E2E2E2E2E2E2E2E2E2E2E2E2E2E2E2E2E2E2E2E2E2E2E2E2E2E2E2E2E2E2E2E2E2E2E2E2E2BEE2E2E2E2E2BEBEBEBEBEBEBEBEBEBEE2E2BEE2
310
E2E2E2E2E2E2E2E2E2E2E2E2E2E2E2E2E2E2E2E2E28383E2E2E2E2E2E2E2E2E2E2E2E2E2E2E2E2E2E2E2E2E2E2E2E28383E2E2E2E22D2DE2E2E2E2E2E2E2E2E2E2E2E2E2E2E2E2E2E2E2E2E2E2E2E2DCDCDCDCDCDCDCE2E2DCDCDCDCDCDCDCDCDCDCDCDCE2E2E2E2E2E2E2E2E2E2E2E2E2E2E2E2E2E2E2E2E2E2E2E2E2E2E2
310
E2E2E2E2E2E2E2E2E2E2E2E2E2E2E2E2BEE2E2E2E2E2E2E2E2E2E2E2E2E2E2E2E2E2E2E2E2E2E2E2E2E2E2E2E2E2E2E2E2E2E2E2E2E2E2E2E2E2E2E2E2E2E2E2E2E2E2E2E2E2E2E2E2E2E2E2E2E2E2E2E2E2E2E2E2E2E2E2E2E2E2E2E2E2E2E2E2E2E2E2E2E2E2E2E2E2E2E2E2BEE2E2E2E2E2BEBEBEBEBEBEBEBEBEBEE2E2
310
BEE2E2E2E2E2E2E2E2E2E2E2E2E2E2E2E2E2E2E2E22DE28383E2E2E2E2E2E2E2E2E2E2E2E2E2E2E2E2E2E2E2E2E2E2E2E2E283E22DE2E22D2DE2E2E2E2E2E2E2E2E2E2E2E2E2E2E2E2E2E2E2E2E2E2E2E2DCE2DCDCDCDCDCDCE2DCDCDCDCDCDCDCDCDCDCDCDCE2E2E2E2E2E2E2E2E2E2E2E2E2E2E2E2E2E2E2E2E2E2E2E2E2
310
E2E2E2E2E2E2E2E2E2E2E2E2E2E2E2E2E2E2BEE2E2E2E2E2E2E2E2E2E2E2E2E2E2E2E2E2E2E2E2E2E2E2E2E2E2E2E2E2E2E2E2E2E2E2E2E2E2E2E2E2E2E2E2E2E2E2E2E2E2E2E2E2E2E2E2E2E2E2E2E2E2E2E2E2E2E2E2E2E2E2E2E2E2E2E2E2E2E2E2E2E2E2E2E2E2E2E2E2E2E2E2BEE2E2E2E2E2BEBEBEBEBEBEBEBEBEBE
310
E2E2BEE2E2E2E2E2E2E2E2E2E2E2E2E2E2E2E2E2E2E2E22DE28383E2E2E2E2E2E2E2E2E2E2E2E2E2E2E2E2E2E2E2E2E2E2E2E2E283E22DE2E22D2DE2E2E2E2E2E2E2E2E2E2E2E2E2E2E2E2E2E2E2E2E2E2E2E2E2DCDCDCDCDCDCDCDCDCDCDCDCDCE2DCDCDCDCDCDCDCDCE2DCDCDCDCDCDCDCDCDCDCDCDCDCDCDCDCDCE2E2E2
310
E2E2E2E2E2E2E2E2E2E2E2E2E2E2E2E2E2E2E2E2BEE2E2E2E2E2E2E2E2E2E2E2E2E2E2E2E2E2E2E2E2E2E2E2E2E2E2E2E2E2E2E2E2E2E2E2E2E2E2E2E2E2E2E2E2E2E2E2E2E2E2E2E2E2E2E2E2E2E2E2E2E2E2E2E2E2E2E2E2E2E2E2E2E2E2E2E2E2E2E2E2E2E2E2E2E2E2E2E2E2E2E2E2BEE2E2E2E2E2BEBEBEBEBEBEBEBE
310
BEBEE2E2BEE2E2E2E2E2E2E2E2E2E2E2E2E2E2E2E2E2E2E2E22DE2E28383838383838383838383838383838383838383E2E2E2E2E2E283E22DE2E22D2DE2E2E2E2E2DCDCDCDCDCDCDCDCDCDCDCDCDCDCDCDCDCDCDCE2DCDCDCDCDCDCDCDCDCDCDCDCDCE2DCDCDCDCDCDCDCDCE2DCDCDCDCDCDCDCDCDCDCDCDCDCDCDCDCDCE2
310
E2E2E2E2E2E2E2E2E2E2E2E2E2E2E2E2E2E2E2E2E2E2BEE2E2E2E2E2E2E2E2E2E2E2E2E2E2E2E2E2E2E2E2E2E2E2E2E2E2E2E2E2E2E2E2E2E2E2E2E2E2E2E2E2E2E2E2E2E2E2E2E2E2E2E2E2E2E2E2E2E2E2E2E2E2E2E2E2E2E2E2E2E2E2E2E2E2E2E2E2E2E2E2E2E2E2E2E2E2E2E2E2E2E2E2BEE2E2E2E2E2BEBEBEBEBEBE
310
BEBEBEBEE2E2BEE2E2E2E2E2E2E2E2E2E2E2E2E2E2E2E2E2E2E2E22DE2E2E28383838383838383838383838383838383838383E2E2E2E2E283E22DE2E22D2DE2E2E2DCDCE2E2E2E2E2E2E2E2E2E2E2E2E2E2E2E2E2E2E2DCDCDCE2E2DCE2DCDCE2E2E2E2E2E2DCDCDCDCE2DCDCDCE2E2DCE2DCDCDCDCDCDCDCDCDCDCDCDCDC
310
DCE2E2E2E2E2E2E2E2E2E2E2E2E2E2E2E2E2E2E2E2E2E2E2BEE2E2E2E2E2E2E2E2E2E2E2E2E2E2E2E2E2E2E2E2E2E2E2E2E2E2E2E2E2E2E2E2E2E2E2E2E2E2E2E2E2E2E2E2E2E2E2E2E2E2E2E2E2E2E2E2E2E2E2E2E2E2E2E2E2E2E2E2E2E2E2E2E2E2E2E2E2E2E2E2E2E2E2E2E2E2E2E2E2E2E2E2BEE2E2E2E2E2BEBEBEBE
310
BEBEBEBEBEBEE2E2BEE2E2E2E2E2E2E2E2E2E2E2E2E2E2E2E2E2E2E2E22DE2E2E2E2E2E2E2E2E2E2E2E2E2E2E2E2E2E2E2E2E2E28383E2E2E2E283E22DE2E22D2DE2E2DCE2E2E2E2E2E2E2E2E2E2E2E2E2E2E2E2E2E2E2E2E2E2E2E2E2E2E2E2E2E2E2E2E2E2E2E2E2E2E2E2E2E2E2E2E2E2E2E2E2E2E2E2E2E2E2E2E2E2E2
310
E2E2E2E2E2E2E2E2E2E2E2E2E2E2E2E2E2E2E2E2E2E2E2E2E2E2BEE2E2E2E2E2E2E2E2E2E2E2E2E2E2E2E2E2E2E2E2E2E2E2E2E2E2E2E2E2E2E2E2E2E2E2E2E2E2E2E2E2E2E2E2E2E2E2E2E2E2E2E2E2E2E2E2E2E2E2E2E2E2E2E2E2E2E2E2E2E2E2E2E2E2E2E2E2E2E2E2E2E2E2E2E2E2E2E2E2E2E2E2BEE2E2E2E2E2BEBE
310
BEBEBEBEBEBEBEBEE2E2BEE2E2E2E2E2E2E2E2E2E2E2E2E2E2E2E2E2E2E2E22DE2E2E2E2E2E2E2E2E2E2E2E2E2E2E2E2E2E2E2E2E2E28383E2E2E2E283E22DE2E22D2DDCDCE2E2E2E2E2E2E2E2E2E2E2E2E2E2E2E2E2E2E2E2E2E2E2E2E2E2E2E2E2E2E2E2E2E2E2E2E2E2E2E2E2E2E2E2E2E2E2E2E2E2E2E2E2E2E2E2E2E2
310
E2E2E2E2E2E2E2E2E2E2E2E2E2E2E2E2E2E2E2E2E2E2E2E2E2E2E2E2BEE2E2E2E2E2E2E2E2E2E2E2E2E2E2E2E2E2E2E2E2E2E2E2E2E2E2E2E2E2E2E2E2E2E2E2E2E2E2E2E2E2E2E2E2E2E2E2E2E2E2E2E2E2E2E2E2E2E2E2E2E2E2E2E2E2E2E2E2E2E2E2E2E2E2E2E2E2E2E2E2E2E2E2E2E2E2E2E2E2E2E2E2BEE2E2E2E2E2
310
BEBEBEBEBEBEBEBEBEBEE2E2BEE2E2E2E2E2E2E2E2E2E2E2E2E2E2E2E2E2E2E2E2E2E2E2E2E2E2E2E2E2E2E2E2E2E2E2E2E2E2E2E2E2E2E28383E2E2E2E283E2E2E2E22DDCE2E2E2E2E2E2E2E2E2E2E2E2E2E2E2E2E2E2E2E2E2E2E2E2E2E2E2E2E2E2E2E2E2E2E2E2E2E2E2E2E2E2E2E2E2E2E2E2E2E2E2E2E2E2E2E2E2E2
310
E2E2E2E2E2E2E2E2E2E2E2E2E2E2E2E2E2E2E2E2E2E2E2E2E2E2E2E2E2E2BEE2E2E2E2E2E2E2E2E2E2E2E2E2E2E2E2E2E2E2E2E2E2E2E2E2E2E2E2E2E2E2E2E2E2E2E2E2E2E2E2E2E2E2E2E2E2E2E2E2E2E2E2E2E2E2E2E2E2E2E2E2E2E2E2E2E2E2E2E2E2E2E2E2E2E2E2E2E2E2E2E2E2E2E2E2E2E2E2E2E2E2E2BEE2E2E2
310
E2E2BEBEBEBEBEBEBEBEBEBEE2E2BEE2E2E2E2E2E2E2E2E2E2E2E2E2E2E2E2E2E2E2E2E2E2E2E2E2E2E2E2E2E2E2E2E2E2E2E2E2E2E2E2E2E2838383E2E2E2E283E2E2E2E2DC2DE2E2E2E2E2E2E2E2E2E2E2E2E2E2E2E2E2E2E2E2E2E2E2E2E2E2E2E2E2E2E2E2E2E2E2E2E2E2E2E2E2E2E2E2E2E2E2E2E2E2E2E2E2E2E2E2
310
E2E2E2E2E2E2E2E2E2E2E2E2E2E2E2E2E2E2E2E2E2E2E2E2E2E2E2E2E2E2E2E2BEE2E2E2E2E2E2E2E2E2E2E2E2E2E2E2E2E2E2E2E2E2E2E2E2E2E2E2E2E2E2E2E2E2E2E2E2E2E2E2E2E2E2E2E2E2E2E2E2E2E2E2E2E2E2E2E2E2E2E2E2E2E2E2E2E2E2E2E2E2E2E2E2E2E2E2E2E2E2E2E2E2E2E2E2E2E2E2E2E2E2E2E2BEE2
310
E2E2E2E2BEBEBEBEBEBEBEBEBEBEE2E2BEE2E2E2E2E2E2E2E2E2E2E2E2E2E2E2E22D2D2DE22DE2E2838383838383838383838383838383838383838383E2E2E2E2E283E22DDCDC2D2DE2E2E2E2E2E2E2E2E2E2E2E2E2E2E2E2E2E2E2E2E2E2E2E2E2E2E2E2E2E2E2E2E2E2E2E2E2E2E2E2E2E2E2E2E2E2E2E2E2E2E2E2E2E2
310
E2E2E2E2E2E2E2E2E2E2E2E2E2E2E2E2E2E2E2E2E2E2E2E2E2E2E2E2E2E2E2E2E2E2BEE2E2E2E2E2E2E2E2E2E2E2E2E2E2E2E2E2E2E2E2E2E2E2E2E2E2E2E2E2E2E2E2E2E2E2E2E2E2E2E2E2E2E2E2E2E2E2E2E2E2E2E2E2E2E2E2E2E2E2E2E2E2E2E2E2E2E2E2E2E2E2E2E2E2E2E2E2E2E2E2E2E2E2E2E2E2E2E2E2E2E2E2
310
BEE2E2E2E2E2BEBEBEBEBEBEBEBEBEBEE2E2BEE2E2E2E2E2E2E2E2E2E2E2E2E2E2E22D2DE22D2D2DE28383E2E2E2E2E2E2E2E2E2E2E2E2E2E2E2E2E2E2E2E2E2E2E2E2E283E2DCE2E22D2DDCE2E2E2E2E2E2E2E2E2E2E2E2E2E2E2E2E2E2E2E2E2E2E2E2E2E2E2E2E2E2E2E2E2E2E2E2E2E2E2E2E2E2E2E2E2E2E2E2E2E2E2
310
E2E2E2E2E2E2E2E2E2E2E2E2E2E2E2E2E2E2E2E2E2E2E2E2E2E2E2E2E2E2E2E2E2E2E2E2BEE2E2E2E2E2E2E2E2E2E2E2E2E2E2E2E2E2E2E2E2E2E2E2E2E2E2E2E2E2E2E2E2E2E2E2E2E2E2E2E2E2E2E2E2E2E2E2E2E2E2E2E2E2E2E2E2E2E2E2E2E2E2E2E2E2E2E2E2E2E2E2E2E2E2E2E2E2E2E2E2E2E2E2E2E2E2E2E2E2E2
310
E2E2BEE2E2E2E2E2BEBEBEBEBEBEBEBEBEBEE2E2BEE2E2E2E2E2E2E2E2E2E2E2E2E2E2E22DDCDCE28383838383E2E2E2E2E2E2E2E2E2E2E2E2E2E2E2E2E2E2E2E2E2E2E2E22D83DC2D2D2DDCE2DCE2E2E2E2E2E2E2E2E2E2E2E2E2E2E2E2E2E2E2E2E2E2E2E2E2E2E2E2E2E2E2E2E2E2E2E2E2E2E2E2E2E2E2E2E2E2E2E2E2
310
E2E2E2E2E2E2E2E2E2E2E2E2E2E2E2E2E2E2E2E2E2E2E2E2E2E2E2E2E2E2E2E2E2E2E2E2E2E2BEE2E2E2E2E2E2E2E2E2E2E2E2E2E2E2E2E2E2E2E2E2E2E2E2E2E2E2E2E2E2E2E2E2E2E2E2E2E2E2E2E2E2E2E2E2E2E2E2E2E2E2E2E2E2E2E2E2E2E2E2E2E2E2E2E2E2E2E2E2E2E2E2E2E2E2E2E2E2E2E2E2E2E2E2E2E2E2E2
310
E2E2E2E2BEE2E2E2E2E2BEBEBEBEBEBEBEBEBEBEE2E2BEE2E2E2E2E2E2E2E2E2E2E2E2E2E2E22DDCDCDC8383838383E2E2E2E2E2E2E2E2E2E2E2E2E2E2E2E2E2E2E2E2E2E2E2E22DDCE22DE2DCE2E2DCE2E2E2E2E2E2E2E2E2E2E2E2E2E2E2E2E2E2E2E2E2E2E2E2E2E2E2E2E2E2E2E2E2E2E2E2E2E2E2E2E2E2E2E2E2E2E2
310
E2E2E2E2E2E2E2E2E2E2E2E2E2E2E2E2E2E2E2E2E2E2E2E2E2E2E2E2E2E2E2E2E2E2E2E2E2E2E2E2BEE2E2E2E2E2E2E2E2E2E2E2E2E2E2E2E2E2E2E2E2E2E2E2E2E2E2E2E2E2E2E2E2E2E2E2E2E2E2E2E2E2E2E2E2E2E2E2E2E2E2E2E2E2E2E2E2E2E2E2E2E2E2E2E2E2E2E2E2E2E2E2E2E2E2E2E2E2E2E2E2E2E2E2E2E2E2
310
E2E2E2E2E2E2BEE2E2E2E2E2BEBEBEBEBEBEBEBEBEBEE2E2BEE2E2E2E2E2E2E2E2E2E2E2E2E2E2E22DE2E2E22D2DE28383E2E2E2E2E2E2E2E2E2E2E2E2E2E2E2E2E2E2E2E2E2E2E2E22D832D2D2D2DDCE2DCE2E2E2E2E2E2E2E2E2E2E2E2E2E2E2E2E2E2E2E2E2E2E2E2E2E2E2E2E2E2E2E2E2E2E2E2E2E2E2E2E2E2E2E2E2
310
E2E2E2E2E2E2E2E2E2E2E2E2E2E2E2E2E2E2E2E2E2E2E2E2E2E2E2E2E2E2E2E2E2E2E2E2E2E2E2E2E2E2BEE2E2E2E2E2E2E2E2E2E2E2E2E2E2E2E2E2E2E2E2E2E2E2E2E2E2E2E2E2E2E2E2E2E2E2E2E2E2E2E2E2E2E2E2E2E2E2E2E2E2E2E2E2E2E2E2E2E2E2E2E2E2E2E2E2E2E2E2E2E2E2E2E2E2E2E2E2E2E2E2E2E2E2E2
310
E2E2E2E2E2E2E2E2BEE2E2E2E2E2BEBEBEBEBEBEBEBEBEBEE2E2BEE2E2E2E2E2E2E2E2E2E2E2E2E2E2E2E22D2D2DE22DE2E28383838383838383838383838383838383838383E2E2E2E2E2E283E22DE2E22D2DDCE2E2E2E2E2E2E2E2E2E2E2E2E2E2E2E2E2E2E2E2E2E2E2E2E2E2E2E2E2E2E2E2E2E2E2E2E2E2E2E2E2E2E2
310
E2E2E2E2E2E2E2E2E2E2E2E2E2E2E2E2E2E2E2E2E2E2E2E2E2E2E2E2E2E2E2E2E2E2E2E2E2E2E2E2E2E2E2E2BEE2E2E2E2E2E2E2E2E2E2E2E2E2E2E2E2E2E2E2E2E2E2E2E2E2E2E2E2E2E2E2E2E2E2E2E2E2E2E2E2E2E2E2E2E2E2E2E2E2E2E2E2E2E2E2E2E2E2E2E2E2E2E2E2E2E2E2E2E2E2E2E2E2E2E2E2E2E2E2E2E2E2
310
E2E2E2E2E2E2E2E2E2E2BEE2E2E2E2E2BEBEBEBEBEBEBEBEBEBEE2E2BEE2E2E2E2E2E2E2E2E2E2E2E2E2E2E2E2E2E2E2E2E2E2E2E2E283838383838383838383838383838383838383E2E2E2E2E283E2E2E2E22D2DE2E2E2E2E2E2E2E2E2E2E2E2E2E2E2E2E2E2E2E2E2E2E2E2E2E2E2E2E2E2E2E2E2E2E2E2E2E2E2E2E2E2
310
E2E2E2E2E2E2E2E2E2E2E2E2E2E2E2E2E2E2E2E2E2E2E2E2E2E2E2E2E2E2E2E2E2E2E2E2E2E2E2E2E2E2E2E2E2E2BEE2E2E2E2E2E2E2E2E2E2E2E2E2E2E2E2E2E2E2E2E2E2E2E2E2E2E2E2E2E2E2E2E2E2E2E2E2E2E2E2E2E2E2E2E2E2E2E2E2E2E2E2E2E2E2E2E2E2E2E2E2E2E2E2E2E2E2E2E2E2E2E2E2E2E2E2E2E2E2E2
310
E2E2E2E2E2E2E2E2E2E2E2E2BEE2E2E2E2E2BEBEBEBEBEBEBEBEBEBEE2E2BEE2E2E2E2E2E2E2E2E2E2E2E2E2E2E2E2E2E2E2E22DE2E2E2E2E2E2E2E2E2E2E2E2E2E2E2E2E2E2E2E2E2E28383E2E2E2E283E22DE2E22D2DE2E2E2E2E2E2E2E2E2E2E2E2E2E2E2E2E2E2E2E2E2E2E2E2DCDCDCDCDCE2DCE2DCDCDCE2DCE2DCDC
310
DCDCDCDCDCDCDCE2E2E2E2E2E2E2E2E2E2E2E2E2E2E2E2E2E2E2E2E2E2E2E2E2E2E2E2E2E2E2E2E2E2E2E2E2E2E2E2E2BEE2E2E2E2E2E2E2E2E2E2E2E2E2E2E2E2E2E2E2E2E2E2E2E2E2E2E2E2E2E2E2E2E2E2E2E2E2E2E2E2E2E2E2E2E2E2E2E2E2E2E2E2E2E2E2E2E2E2E2E2E2E2E2E2E2E2E2E2E2E2E2E2E2E2E2E2E2E2
310
E2E2E2E2E2E2E2E2E2E2E2E2E2E2BEE2E2E2E2E2BEBEBEBEBEBEBEBEBEBEE2E2BEE2E2E2E2E2E2E2E2E2E2E2E2E2E2E2E2E2E2E2E22DE2E2E2E2E2E2E2E2E2E2E2E2E2E2E2E2E2E2E2E2E2E28383E2E2E2E283E22DE2E22D2DE2E2E2E2E2E2E2E2E2E2E2E2DCDCDCDCDCDCDCDCDCDCDCDCDCDCDCDCDCDCDCDCDCE2DCE2DCDC
310
DCDCDCDCDCDCDCDCDCE2E2E2E2E2E2E2E2E2E2E2E2E2E2E2E2E2E2E2E2E2E2E2E2E2E2E2E2E2E2E2E2E2E2E2E2E2E2E2E2E2BEE2E2E2E2E2E2E2E2E2E2E2E2E2E2E2E2E2E2E2E2E2E2E2E2E2E2E2E2E2E2E2E2E2E2E2E2E2E2E2E2E2E2E2E2E2E2E2E2E2E2E2E2E2E2E2E2E2E2E2E2E2E2E2E2E2E2E2E2E2E2E2E2E2E2E2E2
310
E2E2E2E2E2E2E2E2E2E2E2E2E2E2E2E2BEE2E2E2E2E2BEBEBEBEBEBEBEBEBEBEE2E2BEE2E2E2E2E2E2E2E2E2E2E2E2E2E2E2E2E2E2E2E22DE2E2E2E2E2E2E2E2E2E2E2E2E2E2E2E2E2E2E2E2E2E28383E2E2E2E283E22DE2E22D2DE2E2E2E2E2E2E2E2E2E2DCDCE2E2E2E2E2E2E2E2E2E2E2E2DCDCDCDCDCDCDCDCDCDCDCE2
310
DCE2DCDCDCE2DCDCDCDCDCE2E2E2E2E2E2E2E2E2E2E2E2E2E2E2E2E2E2E2E2E2E2E2E2E2E2E2E2E2E2E2E2E2E2E2E2E2E2E2E2E2BEE2E2E2E2E2E2E2E2E2E2E2E2E2E2E2E2E2E2E2E2E2E2E2E2E2E2E2E2E2E2E2E2E2E2E2E2E2E2E2E2E2E2E2E2E2E2E2E2E2E2E2E2E2E2E2E2E2E2E2E2E2E2E2E2E2E2E2E2E2E2E2E2E2E2
310
E2E2E2E2E2E2E2E2E2E2E2E2E2E2E2E2E2E2BEE2E2E2E2E2BEBEBEBEBEBEBEBEBEBEE2E2BEE2E2E2E2E2E2E2E2E2E2E2E2E2E2E2E2E2E2E2E22DE2E2E2E283838383838383838383838383838383838383E2E2E2E2E283E22DE2E22D2DE2E2E2E2E2E2E2E2E2DCE2E2E2E2E2E2E2E2E2E2E2E2E2E2E2E2E2E2E2E2E2E2E2E2
310
E2E2E2E2E2E2E2E2E2E2E2E2E2E2E2E2E2E2E2E2E2E2E2E2E2E2E2E2E2E2E2E2E2E2E2E2E2E2E2E2E2E2E2E2E2E2E2E2E2E2E2E2E2E2BEE2E2E2E2E2E2E2E2E2E2E2E2E2E2E2E2E2E2E2E2E2E2E2E2E2E2E2E2E2E2E2E2E2E2E2E2E2E2E2E2E2E2E2E2E2E2E2E2E2E2E2E2E2E2E2E2E2E2E2E2E2E2E2E2E2E2E2E2E2E2E2E2
310
E2E2E2E2E2E2E2E2E2E2E2E2E2E2E2E2E2E2E2E2BEE2E2E2E2E2BEBEBEBEBEBEBEBEBEBEE2E2BEE2E2E2E2E2E2E2E2E2E2E2E2E2E2E2E2E2E2E2E22DE2E28383838383838383838383838383838383838383E2E2E2E2E2E283E22DE2E22D2DE2E2E2E2E2E2E2E2DCE2E2E2E2E2E2E2E2E2E2E2E2E2E2E2E2E2E2E2E2E2E2E2
310
E2E2E2E2E2E2E2E2E2E2E2E2E2E2E2E2E2E2E2E2E2E2E2E2E2E2E2E2E2E2E2E2E2E2E2E2E2E2E2E2E2E2E2E2E2E2E2E2E2E2E2E2E2E2E2E2BEE2E2E2E2E2E2E2E2E2E2E2E2E2E2E2E2E2E2E2E2E2E2E2E2E2E2E2E2E2E2E2E2E2E2E2E2E2E2E2E2E2E2E2E2E2E2E2E2E2E2E2E2E2E2E2E2E2E2E2E2E2E2E2E2E2E2E2E2E2E2
310
E2E2E2E2E2E2E2E2E2E2E2E2E2E2E2E2E2E2E2E2E2E2BEE2E2E2E2E2BEBEBEBEBEBEBEBEBEBEE2E2BEE2E2E2E2E2E2E2E2E2E2E2E2E2E2E2E2E2E2E2E22DE2838383E2E2E2E2E2E2E2E2E2E2E2E2E2E2E2E2E2E2E2E2E2E2E2E283E22DE2E22D2DE2E2E2E2E2E2DCDCE2E2E2E2E2E2E2E2E2E2E2E2E2E2E2E2E2E2E2E2E2E2
310
E2E2E2E2E2E2E2E2E2E2E2E2E2E2E2E2E2E2E2E2E2E2E2E2E2E2E2E2E2E2E2E2E2E2E2E2E2E2E2E2E2E2E2E2E2E2E2E2E2E2E2E2E2E2E2E2E2E2BEE2E2E2E2E2E2E2E2E2E2E2E2E2E2E2E2E2E2E2E2E2E2E2E2E2E2E2E2E2E2E2E2E2E2E2E2E2E2E2E2E2E2E2E2E2E2E2E2E2E2E2E2E2E2E2E2E2E2E2E2E2E2E2E2E2E2E2E2
310
E2E2E2E2E2E2E2E2E2E2E2E2E2E2E2E2E2E2E2E2E2E2E2E2BEE2E2E2E2E2BEBEBEBEBEBEBEBEBEBEE2E2BEE2E2E2E2E2E2E2E2E2E2E2E2E2E2E2E2E2E2E2E2E2E28383E2E2E2E2E2E2E2E2E2E2E2E2E2E2E2E2E2E2E2E2E2E2E2E2E283E2E2E2E22D2DE2E2E2E2E2DCE2E2E2E2E2E2E2E2E2E2E2E2E2E2E2E2E2E2E2E2E2E2
310
E2E2E2E2E2E2E2E2E2E2E2E2E2E2E2E2E2E2E2E2E2E2E2E2E2E2E2E2E2E2E2E2E2E2E2E2E2E2E2E2E2E2E2E2E2E2E2E2E2E2E2E2E2E2E2E2E2E2E2E2BEE2E2E2E2E2E2E2E2E2E2E2E2E2E2E2E2E2E2E2E2E2E2E2E2E2E2E2E2E2E2E2E2E2E2E2E2E2E2E2E2E2E2E2E2E2E2E2E2E2E2E2E2E2E2E2E2E2E2E2E2E2E2E2E2E2E2
310
E2E2E2E2E2E2E2E2E2E2E2E2E2E2E2E2E2E2E2E2E2E2E2E2E2E2BEE2E2E2E2E2BEBEBEBEBEBEBEBEBEBEE2E2BEE2E2E2E2E2E2E2E2E2E2E2E2E2E2E2E2E2E2E2E2E2E28383E2E2E2E2E2E2E2E2E2E2E2E2E2E2E2E2E2E2E2E2E2E2E2E2E283E2E2E2E22D2DE2E2E2E2DCE2E2E2E2E2E2E2E2E2E2E2E2E2E2E2E2E2E2E2E2E2
310
E2E2E2E2E2E2E2E2E2E2E2E2E2E2E2E2E2E2E2E2E2E2E2E2E2E2E2E2E2E2E2E2E2E2E2E2E2E2E2E2E2E2E2E2E2E2E2E2E2E2E2E2E2E2E2E2E2E2E2E2E2E2BEE2E2E2E2E2E2E2E2E2E2E2E2E2E2E2E2E2E2E2E2E2E2E2E2E2E2E2E2E2E2E2E2E2E2E2E2E2E2E2E2E2E2E2E2E2E2E2E2E2E2E2E2E2E2E2E2E2E2E2E2E2E2E2E2
310
E2E2E2E2E2E2E2E2E2E2E2E2E2E2E2E2E2E2E2E2E2E2E2E2E2E2E2E2BEE2E2E2E2E2BEBEBEBEBEBEBEBEBEBEE2E2BEE2E2E2E2E2E2E2E2E2E2E2E2E2E2E2E2E2E2E2E22DE2838383E2E2E2E2E2E2E2E2E2E2E2E2E2E2E2E2E2E2E2E2E2E2E28383E22DE2E22D2DE2DCDCDCE2E2E2E2E2E2E2E2E2E2E2E2E2E2E2E2E2E2E2E2
310
E2E2E2E2E2E2E2E2E2E2E2E2E2E2E2E2E2E2E2E2E2E2E2E2E2E2E2E2E2E2E2E2E2E2E2E2E2E2E2E2E2E2E2E2E2E2E2E2E2E2E2E2E2E2E2E2E2E2E2E2E2E2E2E2BEE2E2E2E2E2E2E2E2E2E2E2E2E2E2E2E2E2E2E2E2E2E2E2E2E2E2E2E2E2E2E2E2E2E2E2E2E2E2E2E2E2E2E2E2E2E2E2E2E2E2E2E2E2E2E2E2E2E2E2E2E2E2
310
E2E2E2E2E2E2E2E2E2E2E2E2E2E2E2E2E2E2E2E2E2E2E2E2E2E2E2E2E2E2BEE2E2E2E2E2BEBEBEBEBEBEBEBEBEBEE2E2BEE2E2E2E2E2E2E2E2E2E2E2E2E2E2E2E2E2E2E2E22DE2E28383838383838383838383838383838383838383838383838383E2E22DE2E22D2DDCDCE2E2E2E2E2E2E2E2E2E2E2E2E2E2E2E2E2E2E2E2
310
E2E2E2E2E2E2E2E2E2E2E2E2E2E2E2E2E2E2E2E2E2E2E2E2E2E2E2E2E2E2E2E2E2E2E2E2E2E2E2E2E2E2E2E2E2E2E2E2E2E2E2E2E2E2E2E2E2E2E2E2E2E2E2E2E2E2BEE2E2E2E2E2E2E2E2E2E2E2E2E2E2E2E2E2E2E2E2E2E2E2E2E2E2E2E2E2E2E2E2E2E2E2E2E2E2E2E2E2E2E2E2E2E2E2E2E2E2E2E2E2E2E2E2E2E2E2E2
310
E2E2E2E2E2E2E2E2E2E2E2E2E2E2E2E2E2E2E2E2E2E2E2E2E2E2E2E2E2E2E2E2BEE2E2E2E2E2BEBEBEBEBEBEBEBEBEBEE2E2BEE2E2E2E2E2E2E2E2E2E2E2E2E2E2E2E2E2E2E2E22DE2E2E2E2E2E2E2E2E2E2E2E2E2E2E2E2E2E2E2E2E2E2E2E2E2E2E2E2E2E22DE2E22DDCDCE2E2E2E2E2E2E2E2E2E2E2E2E2E2E2E2E2E2E2
310
E2E2E2E2E2E2E2E2E2E2E2E2E2E2E2E2E2E2E2E2E2E2E2E2E2E2E2E2E2E2E2E2E2E2E2E2E2E2E2E2E2E2E2E2E2E2E2E2E2E2E2E2E2E2E2E2E2E2E2E2E2E2E2E2E2E2E2E2BEE2E2E2E2E2E2E2E2E2E2E2E2E2E2E2E2E2E2E2E2E2E2E2E2E2E2E2E2E2E2E2E2E2E2E2E2E2E2E2E2E2E2E2E2E2E2E2E2E2E2E2E2E2E2E2E2E2E2
310
E2E2E2E2E2E2E2E2E2E2E2E2E2E2E2E2E2E2E2E2E2E2E2E2E2E2E2E2E2E2E2E2E2E2BEE2E2E2E2E2BEBEBEBEBEBEBEBEBEBEE2E2BEE2E2E2E2E2E2E2E2E2E2E2E2E2E2E2E2E2E2E2E22D2D2D2DE2E22D2D2D2D2D2DE22D2D2D2D2D2DE2E22D2D2D2D2D2DE22D2D2D2DE2E22D2DE2E2E2E2E2E2E2E2E2E2E2E2E2E2E2E2E2E2
310
E2E2E2E2E2E2E2E2E2E2E2E2E2E2E2E2E2E2E2E2E2E2E2E2E2E2E2E2E2E2E2E2E2E2E2E2E2E2E2E2E2E2E2E2E2E2E2E2E2E2E2E2E2E2E2E2E2E2E2E2E2E2E2E2E2E2E2E2E2E2BEE2E2E2E2E2E2E2E2E2E2E2E2E2E2E2E2E2E2E2E2E2E2E2E2E2E2E2E2E2E2E2E2E2E2E2E2E2E2E2E2E2E2E2E2E2E2E2E2E2E2E2E2E2E2E2E2
310
E2E2E2E2E2E2E2E2E2E2E2E2E2E2E2E2E2E2E2E2E2E2E2E2E2E2E2E2E2E2E2E2E2E2E2E2BEE2E2E2E2E2BEBEBEBEBEBEBEBEBEBEE2E2BEE2E2E2E2E2E2E2E2E2E2E2E2E2E2E2E2E2E2E2E2E2E2E2E2E2E2E2E2E2E2E2E2E2E2E2E2E2E2E2E2E2E2E2E2E2E2E2E2E2E2E2E2E2E22D2DE2E2E2E2E2E2E2E2E2E2E2E2E2E2E2E2
310
E2E2E2E2E2E2E2E2E2E2E2E2E2E2E2E2E2E2E2E2E2E2E2E2E2E2E2E2E2E2E2E2E2E2E2E2E2E2E2E2E2E2E2E2E2E2E2E2E2E2E2E2E2E2E2E2E2E2E2E2E2E2E2E2E2E2E2E2E2E2E2E2BEE2E2E2E2E2E2E2E2E2E2E2E2E2E2E2E2E2E2E2E2E2E2E2E2E2E2E2E2E2E2E2E2E2E2E2E2E2E2E2E2E2E2E2E2E2E2E2E2E2E2E2E2E2E2
310
E2E2E2E2E2E2E2E2E2E2E2E2E2E2E2E2E2E2E2E2E2E2E2E2E2E2E2E2E2E2E2E2E2E2E2E2E2E2BEE2E2E2E2E2BEBEBEBEBEBEBEBEBEBEE2E2BEE2E2E2E2E2E2E2E2E2E2E2E2E2E2E2E2E2E2E2E2E2E2E2E2E2E2E2E2E2E2E2E2E2E2E2E2E2E2E2E2E2E2E2E2E2E2E2E2E2E2E2E2E2E22D2DE2E2E2E2E2E2E2E2E2E2E2E2E2E2
310
E2E2E2E2E2E2E2E2E2E2E2E2E2E2E2E2E2E2E2E2E2E2E2E2E2E2E2E2E2E2E2E2E2E2E2E2E2E2E2E2E2E2E2E2E2E2E2E2E2E2E2E2E2E2E2E2E2E2E2E2E2E2E2E2E2E2E2E2E2E2E2E2E2E2BEE2E2E2E2E2E2E2E2E2E2E2E2E2E2E2E2E2E2E2E2E2E2E2E2E2E2E2E2E2E2E2E2E2E2E2E2E2E2E2E2E2E2E2E2E2E2E2E2E2E2E2E2
310
E2E2E2E2E2E2E2E2E2E2E2E2E2E2E2E2E2E2E2E2E2E2E2E2E2E2E2E2E2E2E2E2E2E2E2E2E2E2E2E2BEE2E2E2E2E2BEBEBEBEBEBEBEBEBEBEE2E2BEE2E2E2E2E2E2E2E2E2E2E2E2E2E2E2E2E2E2E2E2E2E2E2E2E2E2E2E2E2E2E2E2E2E2E2E2E2E2E2E2E2E2E2E2E2E2E2E2E2E2E2BEBEBE2D2DE2E2E2E2E2E2E2E2E2E2E2E2
310
E2E2E2E2E2E2E2E2E2E2E2E2E2E2E2E2E2E2E2E2E2E2E2E2E2E2E2E2E2E2E2E2E2E2E2E2E2E2E2E2E2E2E2E2E2E2E2E2E2E2E2E2E2E2E2E2E2E2E2E2E2E2E2E2E2E2E2E2E2E2E2E2E2E2E2E2BEE2E2E2E2E2E2E2E2E2E2E2E2E2E2E2E2E2E2E2E2E2E2E2E2E2E2E2E2E2E2E2E2E2E2E2E2E2E2E2E2E2E2E2E2E2E2E2E2E2E2
310
E2E2E2E2E2E2E2E2E2E2E2E2E2E2E2E2E2E2E2E2E2E2E2E2E2E2E2E2E2E2E2E2E2E2E2E2E2E2E2E2E2E2BEE2E2E2E2E2BEBEBEBEBEBEBEBEBEBEE2E2BEE2E2E2E2E2E2E2E2E2E2E2E2E2E2E2E2E2E2E2E22D2D2D2DE2E22D2D2D2D2D2DE22D2D2D2D2D2DE2E22D2D2D2D2D2DE22D2D2D2DE2BEBE2DBEE2E2E2E2E2E2E2E2E2
310
E2E2E2E2E2E2E2E2E2E2E2E2E2E2E2E2E2E2E2E2E2E2E2E2E2E2E2E2E2E2E2E2E2E2E2E2E2E2E2E2E2E2E2E2E2E2E2E2E2E2E2E2E2E2E2E2E2E2E2E2E2E2E2E2E2E2E2E2E2E2E2E2E2E2E2E2E2E2BEE2E2E2E2E2E2E2E2E2E2E2E2E2E2E2E2E2E2E2E2E2E2E2E2E2E2E2E2E2E2E2E2E2E2E2E2E2E2E2E2E2E2E2E2E2E2E2E2
310
E2E2E2E2E2E2E2E2E2E2E2E2E2E2E2E2E2E2E2E2E2E2E2E2E2E2E2E2E2E2E2E2E2E2E2E2E2E2E2E2E2E2E2E2BEE2E2E2E2E2BEBEBEBEBEBEBEBEBEBEE2E2BEE2E2E2E2E2E2E2E2E2E2E2E2E2E2E2E2E2E2E2E22DE2E2E2E2E2E2E2E2E2E2E2E2E2E2E2E2E2E2E2E2E2E2E2E2E2E2E2E2E2E22DE2BEE2BEE2BEBEE2E2E2E2E2
310
E2E2E2E2E2E2E2E2E2E2E2E2E2E2E2E2E2E2E2E2E2E2E2E2E2E2E2DCDCDCE2E2E2E2E2E2E2E2E2E2E2E2E2E2E2E2E2E2E2E2E2E2E2E2E2E2E2E2E2E2E2E2E2E2E2E2E2E2E2E2E2E2E2E2E2E2E2E2E2E2BEE2E2E2E2E2E2E2E2E2E2E2E2E2E2E2E2E2E2E2E2E2E2E2E2E2E2E2E2E2E2E2E2E2E2E2E2E2E2E2E2E2E2E2E2E2E2
310
E2E2E2E2E2E2E2E2E2E2E2E2E2E2E2E2E2E2E2E2E2E2E2E2E2E2E2E2E2E2E2E2E2E2E2E2E2E2E2E2E2E2E2E2E2E2BEE2E2E2E2E2BEBEBEBEBEBEBEBEBEBEE2E2BEE2E2E2E2E2E2E2E2E2E2E2E2E2E2E2E2E2E2E2E22DE2E28383838383838383838383838383838383838383838383838383E2E22DBEBEBE2DBEE2E2E2E2E2
310
E2E2E2E2E2E2E2E2E2E2E2E2E2E2E2E2E2E2E2E2E2E2E2E2E2E2E2E2E2DCDCDCE2E2E2E2E2E2E2E2E2E2E2E2E2E2E2E2E2E2E2E2E2E2E2E2E2E2E2E2E2E2E2E2E2E2E2E2E2E2E2E2E2E2E2E2E2E2E2E2E2E2BEE2E2E2E2E2E2E2E2E2E2E2E2E2E2E2E2E2E2E2E2E2E2E2E2E2E2E2E2E2E2E2E2E2E2E2E2E2E2E2E2E2E2E2E2
310
E2E2E2E2E2E2E2E2E2E2E2E2E2E2E2E2E2E2E2E2E2E2E2E2E2E2E2E2E2E2E2E2E2E2E2E2E2E2E2E2E2E2E2E2E2E2E2E2BEE2E2E2E2E2BEBEBEBEBEBEBEBEBEBEE2E2BEE2E2E2E2E2E2E2E2E2E2E2E2E2E2E2E2E2E2E2E22DE2E28383E2E2E2E2E2E2E2E2E2E2E2E2E2E2E2E2E2E2E2E2E2E2838383E22DE2BE2D2DE2BEBEE2
310
E2E2E2E2E2E2E2E2E2E2E2E2E2E2E2E2E2E2E2E2E2DCDCDCDCDCDCDCDCDCDCDCDCDCE2DCDCDCDCE2DCDCDCDCDCE2DCDCDCDCDCDCE2E2E2E2E2E2E2E2E2E2E2E2E2E2E2E2E2E2E2E2E2E2E2E2E2E2E2E2E2E2E2E2BEE2E2E2E2E2E2E2E2E2E2E2E2E2E2E2E2E2E2E2E2E2E2E2E2E2E2E2E2E2E2E2E2E2E2E2E2E2E2E2E2E2E2
310
E2E2E2E2E2E2E2E2E2E2E2E2E2E2E2E2E2E2E2E2E2E2E2E2E2E2E2E2E2E2E2E2E2E2E2E2E2E2E2E2E2E2E2E2E2E2E2E2E2E2BEE2E2E2E2E2BEBEBEBEBEBEBEBEBEBEE2E2BEE2E2E2E2E2E2E2E2E2E2E2E2E2E2E2E2E2E2E2E2E2E28383E2E2E2E2E2E2E2E2E2E2E2E2E2E2E2E2E2E2E2E2E2E2E2E28383E2E2E2E22D2DE2E2
310
E2E2E2E2E2DCDCDCDCDCDCDCDCDCDCDCDCDCDCDCDCDCDCDCDCDCDCDCDCDCDCDCDCDCDCDCE2DCDCDCDCE2DCDCDCDCDCDCDCE2DCDCDCDCE2E2E2E2E2E2E2E2E2E2E2E2E2E2E2E2E2E2E2E2E2E2E2E2E2E2E2E2E2E2E2E2BEE2E2E2E2E2E2E2E2E2E2E2E2E2E2E2E2E2E2E2E2E2E2E2E2E2E2E2E2E2E2E2E2E2E2E2E2E2E2E2E2
310
E2E2E2E2E2E2E2E2E2E2E2E2E2E2E2E2E2E2E2E2E2E2E2E2E2E2E2E2E2E2E2E2E2E2E2E2E2E2E2E2E2E2E2E2E2E2E2E2E2E2E2E2BEE2E2E2E2E2BEBEBEBEBEBEBEBEBEBEE2E2BEE2E2E2E2E2E2E2E2E2E2E2E2E2E2E2E2E2E2E2E2E2E28383E2E2E2E2E2E2E2E2E2E2E2E2E2E2E2E2E2E2E2E2E2E2E2E2E283E2E2E2E22D2D
310
E2E2E2E2DCDCDCE2E2E2E2E2E2E2E2E2E2E2E2E2E2E2E2E2E2E2E2E2E2E2E2E2E2E2E2E2E2E2E2E2E2E2E2E2E2E2E2E2E2E2E2E2E2E2E2E2E2E2E2E2E2E2E2E2E2E2E2E2E2E2E2E2E2E2E2E2E2E2E2E2E2E2E2E2E2E2E2E2BEE2E2E2E2E2E2E2E2E2E2E2E2E2E2E2E2E2E2E2E2E2E2E2E2E2E2E2E2E2E2E2E2E2E2E2E2E2E2
310
E2E2E2E2E2E2E2E2E2E2E2E2E2E2E2E2E2E2E2E2E2E2E2E2E2E2E2E2E2E2E2E2E2E2E2E2E2E2E2E2E2E2E2E2E2E2E2E2E2E2E2E2E2E2BEE2E2E2E2E2BEBEBEBEBEBEBEBEBEBEE2E2BEE2E2E2E2E2E2E2E2E2E2E2E2E2E2E2E2E2E2E2E22DE28383E2E2E2E2E2E2E2E2E2E2E2E2E2E2E2E2E2E2E2E2E2E2E2E2E283E22DE2E2
310
2D2DE2DCDCDCE2E2E2E2E2E2E2E2E2E2E2E2E2E2E2E2E2E2E2E2E2E2E2E2E2E2E2E2E2E2E2E2E2E2E2E2E2E2E2E2E2E2E2E2E2E2E2E2E2E2E2E2E2E2E2E2E2E2E2E2E2E2E2E2E2E2E2E2E2E2E2E2E2E2E2E2E2E2E2E2E2E2E2E2BEE2E2E2E2E2E2E2E2E2E2E2E2E2E2E2E2E2E2E2E2E2E2E2E2E2E2E2E2E2E2E2E2E2E2E2E2
310
E2E2E2E2E2E2E2E2E2E2E2E2E2E2E2E2E2E2E2E2E2E2E2E2E2E2E2E2E2E2E2E2E2E2E2E2E2E2E2E2E2E2E2E2E2E2E2E2E2E2E2E2E2E2E2E2BEE2E2E2E2E2BEBEBEBEBEBEBEBEBEBEE2E2BEE2E2E2E2E2E2E2E2E2E2E2E2E2E2E2E2E2E2E2E22DE2E28383838383838383838383838383838383838383E2E2E2E2E2E283E22D
310
E2E2DCDCDCE2E2E2E2E2E2E2E2E2E2E2E2E2E2E2E2E2E2E2E2E2E2E2E2E2E2E2E2E2E2E2E2E2E2E2E2E2E2E2E2E2E2E2E2E2E2E2E2E2E2E2E2E2E2E2E2E2E2E2E2E2E2E2E2E2E2E2E2E2E2E2E2E2E2E2E2E2E2E2E2E2E2E2E2E2E2E2BEE2E2E2E2E2E2E2E2E2E2E2E2E2E2E2E2E2E2E2E2E2E2E2E2E2E2E2E2E2E2E2E2E2E2
310
E2E2E2E2E2E2E2E2E2E2E2E2E2E2E2E2E2E2E2E2E2E2E2E2E2E2E2E2E2E2E2E2E2E2E2E2E2E2E2E2E2E2E2E2E2E2E2E2E2E2E2E2E2E2E2E2E2E2BEE2E2E2E2E2BEBEBEBEBEBEBEBEBEBEE2E2BEE2E2E2E2E2E2E2E2E2E2E2E2E2E2E2E2E2E2E2E22DE2E2E28383838383838383838383838383838383838383E2E2E2E2E283
310
E22DDCDC2D2DE2E2E2E2E2E2E2E2E2E2E2E2E2E2E2E2E2E2E2E2E2E2E2E2E2E2E2E2E2E2E2E2E2E2E2E2E2E2E2E2E2E2E2E2E2E2E2E2E2E2E2E2E2E2E2E2E2E2E2E2E2E2E2E2E2E2E2E2E2E2E2E2E2E2E2E2E2E2E2E2E2E2E2E2E2E2E2E2BEE2E2E2E2E2E2E2E2E2E2E2E2E2E2E2E2E2E2E2E2E2E2E2E2E2E2E2E2E2E2E2E2
310
E2E2E2E2E2E2E2E2E2E2E2E2E2E2E2E2E2E2E2E2E2E2E2E2E2E2E2E2E2E2E2E2E2E2E2E2E2E2E2E2E2E2E2E2E2E2E2E2E2E2E2E2E2E2E2E2E2E2E2E2BEE2E2E2E2E2BEBEBEBEBEBEBEBEBEBEE2E2BEE2E2E2E2E2E2E2E2E2E2E2E2E2E2E2E2E2E2E2E22DE2E2E2E2E2E2E2E2E2E2E2E2E2E2E2E2E2E2E2E2E2E28383E2E2E2
310
E2DCDCDCE2E22D2DE2E2E2E2E2E2E2E2E2E2E2E2E2E2E2E2E2E2E2E2E2E2E2E2E2E2E2E2E2E2E2E2E2E2E2E2E2E2E2E2E2E2E2E2E2E2E2E2E2E2E2E2E2E2E2E2E2E2E2E2E2E2E2E2E2E2E2E2E2E2E2E2E2E2E2E2E2E2E2E2E2E2E2E2E2E2E2E2BEE2E2E2E2E2E2E2E2E2E2E2E2E2E2E2E2E2E2E2E2E2E2E2E2E2E2E2E2E2E2
310
E2E2E2E2E2E2E2E2E2E2E2E2E2E2E2E2E2E2E2E2E2E2E2E2E2E2E2E2E2E2E2E2E2E2E2E2E2E2E2E2E2E2E2E2E2E2E2E2E2E2E2E2E2E2E2E2E2E2E2E2E2E2BEE2E2E2E2E2BEBEBEBEBEBEBEBEBEBEE2E2BEE2E2E2E2E2E2E2E2E2E2E2E2E2E2E2E2E2E2E2E22DE2E2E2E2E2E2E2E2E2E2E2E2E2E2E2E2E2E2E2E2E2E28383E2
310
DCDCDC83E22DE2E22D2DE2E2E2E2E2E2E2E2E2E2E2E2E2E2E2E2E2E2E2E2E2E2E2E2E2E2E2E2E2E2E2E2E2E2E2E2E2E2E2E2E2E2E2E2E2E2E2E2E2E2E2E2E2E2E2E2E2E2E2E2E2E2E2E2E2E2E2E2E2E2E2E2E2E2E2E2E2E2E2E2E2E2E2E2E2E2E2E2BEE2E2E2E2E2E2E2E2E2E2E2E2E2E2E2E2E2E2E2E2E2E2E2E2E2E2E2E2
310
E2E2E2E2E2E2E2E2E2E2E2E2E2E2E2E2E2E2E2E2E2E2E2E2E2E2E2E2E2E2E2E2E2E2E2E2E2E2E2E2E2E2E2E2E2E2E2E2E2E2E2E2E2E2E2E2E2E2E2E2E2E2E2E2BEE2E2E2E2E2BEBEBEBEBEBEBEBEBEBEE2E2BEE2E2E2E2E2E2E2E2E2E2E2E2E2E2E2E2E2E2E2E2E2E2E2E2E2E2E2E2E2E2E2E2E2E2E2E2E2E2E2E2E2E2E2DC
310
DCDCE2E2E283E2E2E2E22D2DE2E2E2E2E2E2E2E2E2E2E2E2E2E2E2E2E2E2E2E2E2E2E2E2E2E2E2E2E2E2E2E2E2E2E2E2E2E2E2E2E2E2E2E2E2E2E2E2E2E2E2E2E2E2E2E2E2E2E2E2E2E2E2E2E2E2E2E2E2E2E2E2E2E2E2E2E2E2E2E2E2E2E2E2E2E2E2E2BEE2E2E2E2E2E2E2E2E2E2E2E2E2E2E2E2E2E2E2E2E2E2E2E2E2E2
310
E2E2E2E2E2E2E2E2E2E2E2E2E2E2E2E2E2E2E2E2E2E2E2E2E2E2E2E2E2E2E2E2E2E2E2E2E2E2E2E2E2E2E2E2E2E2E2E2E2E2E2E2E2E2E2E2E2E2E2E2E2E2E2E2E2E2BEE2E2E2E2E2BEBEBEBEBEBEBEBEBEBEE2E2BEE2E2E2E2E2E2E2E2E2E2E2E2E2E2E2E2E2E2E2E2E2E2E2E2E2E2E2E2E2E2E2E2E2E2E2E2E2E2E2E2E2DC
310
DC8383E2E2E2E283E2E2E2E22D2DE2E2E2E2E22D2D2D2D2D2D2D2D2D2D2D2D2DE2E2E2E2E2E2E2E2E2E2E2E2E2E2E2E2E2E2E2E2E2E2E2E2E2E2E2E2E2E2E2E2E2E2E2E2E2E2E2E2E2E2E2E2E2E2E2E2E2E2E2E2E2E2E2E2E2E2E2E2E2E2E2E2E2E2E2E2E2E2BEE2E2E2E2E2E2E2E2E2E2E2E2E2E2E2E2E2E2E2E2E2E2E2E2
310
E2E2E2E2E2E2E2E2E2E2E2E2E2E2E2E2E2E2E2E2E2E2E2E2E2E2E2E2E2E2E2E2E2E2E2E2E2E2E2E2E2E2E2E2E2E2E2E2E2E2E2E2E2E2E2E2E2E2E2E2E2E2E2E2E2E2E2E2BEE2E2E2E2E2BEBEBEBEBEBEBEBEBEBEE2E2BEE2E2E2E2E2E2E2E2E2E2E2E2E2E2E2E22D2D2DE22DE2E283838383838383838383838383838383DC
310
DC838383E2E2E2E2E283E22DE2E22D2DE2E2E2E2E22D2D2DE2E2E2E2E2E2E2E22D2D2DE2E2E2E2E2E2E2E2E2E2E2E2E2E2E2E2E2E2E2E2E2E2E2E2E2E2E2E2E2E2E2E2E2E2E2E2E2E2E2E2E2E2E2E2E2E2E2E2E2E2E2E2E2E2E2E2E2E2E2E2E2E2E2E2E2E2E2E2E2BEE2E2E2E2E2E2E2E2E2E2E2E2E2E2E2E2E2E2E2E2E2E2
310
E2E2E2E2E2E2E2E2E2E2E2E2E2E2E2E2E2E2E2E2E2E2E2E2E2E2E2E2E2E2E2E2E2E2E2E2E2E2E2E2E2E2E2E2E2E2E2E2E2E2E2E2E2E2E2E2E2E2E2E2E2E2E2E2E2E2E2E2E2E2BEE2E2E2E2E2BEBEBEBEBEBEBEBEBEBEE2E2BEE2E2E2E2E2E2E2E2E2E2E2E2E2E2E22D2DE22D2D2DE2838383E2E2E2E2E2E2E2E2E2E2E2E2E2
310
E2E2E2E2E2E2E2E2E2E2E283E22DE2E22D2DE2E2E2E2E22D2DE2E2E2E2E2E2E2E2E2E22D2DE2E2E2E2E2E2E2E2E2E2E2E2E2E2E2E2E2E2E2E2E2E2E2E2E2E2E2E2E2E2E2E2E2E2E2E2E2E2E2E2E2E2E2E2E2E2E2E2E2E2E2E2E2E2E2E2E2E2E2E2E2E2E2E2E2E2E2E2E2BEE2E2E2E2E2E2E2E2E2E2E2E2E2E2E2E2E2E2E2E2
310
E2E2E2E2E2E2E2E2E2E2E2E2E2E2E2E2E2E2E2E2E2E2E2E2E2E2E2E2E2E2E2E2E2E2E2E2E2E2E2E2E2E2E2E2E2E2E2E2E2E2E2E2E2E2E2E2E2E2E2E2E2E2E2E2E2E2E2E2E2E2E2E2BEE2E2E2E2E2BEBEBEBEBEBEBEBEBEBEE2E2BEE2E2E2E2E2E2E2E2E2E2E2E2E2E2E22DDCDCE28383838383E2E2E2E2E2E2E2E2E2E2E2E2
310
E2E2E2E2E2E2E2E2E2E2E2E2E283E22DE2DC2D2DDCE2E2E2E22D2DE2E2E2E2E2E2E2E2E2E22D2DE2E2E2E2E2E2E2E2E2E2E2E2E2E2E2E2E2E2E2E2E2E2E2E2E2E2E2E2E2E2E2E2E2E2E2E2E2E2E2E2E2E2E2E2E2E2E2E2E2E2E2E2E2E2E2E2E2E2E2E2E2E2E2E2E2E2E2E2E2BEE2E2E2E2E2E2E2E2E2E2E2E2E2E2E2E2E2E2
310
E2E2E2E2E2E2E2E2E2E2E2E2E2E2E2E2E2E2E2E2E2E2E2E2E2E2E2E2E2E2E2E2E2E2E2E2E2E2E2E2E2E2E2E2E2E2E2E2E2E2E2E2E2E2E2E2E2E2E2E2E2E2E2E2E2E2E2E2E2E2E2E2E2E2BEE2E2E2E2E2BEBEBEBEBEBEBEBEBEBEE2E2BEE2E2E2E2E2E2E2E2E2E2E2E2E2E2E22DDCDCDC8383838383E2E2E2E2E2E2E2E2E2E2
310
E2E2E2E2E2E2E2E2E2E2E2E2E2E22D832D2D2D2DE2E22D2D2D2D2D2D2DE2E2E2E2E2E2E2E2E2E22D2DE2E2E2E2E2E2E2E2E2E2E2E2E2E2E2E2E2E2E2E2E2E2E2E2E2E2E2E2E2E2E2E2E2E2E2E2E2E2E2E2E2E2E2E2E2E2E2E2E2E2E2E2E2E2E2E2E2E2E2E2E2E2E2E2E2E2E2E2E2BEE2E2E2E2E2E2E2E2E2E2E2E2E2E2E2E2
310
E2E2E2E2E2E2E2E2E2E2E2E2E2E2E2E2E2E2E2E2E2E2E2E2E2E2E2E2E2E2E2E2E2E2E2E2E2E2E2E2E2E2E2E2E2E2E2E2E2E2E2E2E2E2E2E2E2E2E2E2E2E2E2E2E2E2E2E2E2E2E2E2E2E2E2E2BEE2E2E2E2E2BEBEBEBEBEBEBEBEBEBEE2E2BEE2E2E2E2E2E2E2E2E2E2E2E2E2E2E22DDCDCDC2D2DE28383E2E2E2E2E2E2E2E2
310
E2E2E2E2E2E2E2E2E2E2E2E2E2E2E2E22D832D2D2D2DDCDC2D2D2D2D2D2D2DE2E2E2E2E2E2E2E2E2E22D2DE2E2E2E2E2E2E2E2E2E2E2E2E2E2E2E2E2E2E2E2E2E2E2E2E2E2E2E2E2E2E2E2E2E2E2E2E2E2E2E2E2E2E2E2E2E2E2E2E2E2E2E2E2E2E2E2E2E2E2E2E2E2E2E2E2E2E2E2E2BEE2E2E2E2E2E2E2E2E2E2E2E2E2E2
310
E2E2E2E2E2E2E2E2E2E2E2E2E2E2E2E2E2E2E2E2E2E2E2E2E2E2E2E2E2E2E2E2E2E2E2E2E2E2E2E2E2E2E2E2E2E2E2E2E2E2E2E2E2E2E2E2E2E2E2E2E2E2E2E2E2E2E2E2E2E2E2E2E2E2E2E2E2E2BEE2E2E2E2E2BEBEBEBEBEBEBEBEBEBEE2E2BEE2E2E2E2E2E2E2E2E2E2E2E2E2E2E2E22D2D2DE22DE2E283838383838383
310
83838383838383838383838383E2E2E2E2E2E283E22DE2E2E2E2E2E2E2E2E22D2DE2E2E2E2E2E2E2E2E2E22D2DE2E2E2E2E2E2E2E2E2E2E2E2E2E2E2E2E2E2E2E2E2E2E2E2E2E2E2E2E2E2E2E2E2E2E2E2E2E2E2E2E2E2E2E2E2E2E2E2E2E2E2E2E2E2E2E2E2E2E2E2E2E2E2E2E2E2E2E2E2BEE2E2E2E2E2E2E2E2E2E2E2E2
310
E2E2E2E2E2E2E2E2E2E2E2E2E2E2E2E2E2E2E2E2E2E2E2E2E2E2E2E2E2E2E2E2E2E2E2E2E2E2E2E2E2E2E2E2E2E2E2E2E2E2E2E2E2E2E2E2E2E2E2E2E2E2E2E2E2E2E2E2E2E2E2E2E2E2E2E2E2E2E2E2BEE2E2E2E2E2BEBEBEBEBEBEBEBEBEBEE2E2BEE2E2E2E2E2E2E2E2E2E2E2E2E2E2E2E2E2E2E2E2E2E2E2E2E2838383
310
83838383838383838383838383838383E2E2E2E2E283E2E2E2E2E2E2E2E2E2E2E22D2D2D2D2D2D2D2D2D2D2D2D2DE2E2E2E2E2E2E2E2E2E2E2E2E2E2E2E2E2E2E2E2E2E2E2E2E2E2E2E2E2E2E2E2E2E2E2E2E2E2E2E2E2E2E2E2E2E2E2E2E2E2E2E2E2E2E2E2E2E2E2E2E2E2E2E2E2E2E2E2E2E2BEE2E2E2E2E2E2E2E2E2E2
310
E2E2E2E2E2E2E2E2E2E2E2E2E2E2E2E2E2E2E2E2E2E2E2E2E2E2E2E2E2E2E2E2E2E2E2E2E2E2E2E2E2E2E2E2E2E2E2E2E2E2E2E2E2E2E2E2E2E2E2E2E2E2E2E2E2E2E2E2E2E2E2E2E2E2E2E2E2E2E2E2E2E2BEE2E2E2E2E2BEBEBEBEBEBEBEBEBEBEE2E2BEE2E2E2E2E2E2E2E2E2E2E2E2E2E2E2E2E2E2E2E22DE2E2E2E2E2
310
E2E2E2E2E2E2E2E2E2E2E2E2E2E2E2E2E28383E2E2E2E283E22DE2E2E2E2E2E2E2E2E2E22D2D2D2D2D2D2DDC2D2D2D2DE2E2E2E2E2E2E2E2E2E2E2E2E2E2E2E2E2E2E2E2E2E2E2E2E2E2E2E2E2E2E2E2E2E2E2E2E2E2E2E2E2E2E2E2E2E2E2E2E2E2E2E2E2E2E2E2E2E2E2E2E2E2E2E2E2E2E2E2E2E2BEE2E2E2E2E2E2E2E2
310
E2E2E2E2E2E2E2E2E2E2E2E2E2E2E2E2E2E2E2E2E2E2E2E2E2E2E2E2E2E2E2E2E2E2E2E2E2E2E2E2E2E2E2E2E2E2E2E2E2E2E2E2E2E2E2E2E2E2E2E2E2E2E2E2E2E2E2E2E2E2E2E2E2E2E2E2E2E2E2E2E2E2E2E2BEE2E2E2E2E2BEBEBEBEBEBEBEBEBEBEE2E2BEE2E2E2E2E2E2E2E2E2E2E2E2E2E2E2E2E2E2E2E22DE2E2E2
310
E2E2E2E2E2E2E2E2E2E2E2E2E2E2E2E2E2E2E28383E2E2E2E283E22DE2E2E2E2E2E2E2E2E2E2E2E2E2E2E2E2E2DCE2E2E2E2E2E2E2E2E2E2E2E2E2E2E2E2E2E2E2E2E2E2E2E2E2E2E2E2E2E2E2E2E2E2E2E2E2E2E2E2E2E2E2E2E2E2E2E2E2E2E2E2E2E2E2E2E2E2E2E2E2E2E2E2E2E2E2E2E2E2E2E2E2E2BEE2E2E2E2E2E2
310
E2E2E2E2E2E2E2E2E2E2E2E2E2E2E2E2E2E2E2E2E2E2E2E2E2E2E2E2E2E2E2E2E2E2E2E2E2E2E2E2E2E2E2E2E2E2E2E2E2E2E2E2E2E2E2E2E2E2E2E2E2E2E2E2E2E2E2E2E2E2E2E2E2E2E2E2E2E2E2E2E2E2E2E2E2E2BEE2E2E2E2E2BEBEBEBEBEBEBEBEBEBEE2E2BEE2E2E2E2E2E2E2E2E2E2E2E2E2E2E2E2E2E2E2E22DE2
310
E2E2E2E2E2E2E2E2E2E2E2E2E2E2E2E2E2E2E2E2E28383E2E2E2E283E22DE2E2E2E2E2E2E2E2E2E2E2E2E2E2E2E2E2DCE2E2E2E2E2E2E2E2E2E2E2E2E2E2E2E2E2E2E2E2E2E2E2E2E2E2E2E2E2E2E2E2E2E2E2E2E2E2E2E2E2E2E2E2E2E2E2E2E2E2E2E2E2E2E2E2E2E2E2E2E2E2E2E2E2E2E2E2E2E2E2E2E2E2BEE2E2E2E2
310
E2E2E2E2E2E2E2E2E2E2E2E2E2E2E2E2E2E2E2E2E2E2E2E2E2E2E2E2E2E2E2E2E2E2E2E2E2E2E2E2E2E2E2E2E2E2E2E2E2E2E2E2E2E2E2E2E2E2E2E2E2E2E2E2E2E2E2E2E2E2E2E2E2E2E2E2E2E2E2E2E2E2E2E2E2E2E2E2BEE2E2E2E2E2BEBEBEBEBEBEBEBEBEBEE2E2BEE2E2E2E2E2E2E2E2E2E2E2E2E2E2E2E2E2E2E2E2
310
2DE2E2E2E2E2E2E2E2E2E2E2E2E2E2E2E2E2E2E2E2E28383E2E2E2E2E283E22DE2E2E2E2E2E2E2E2E2E2E2E2E2E2E2E2E2DCE2E2E2E2E2E2E2E2E2E2E2E2E2E2E2E2E2E2E2E2E2E2E2E2E2E2E2E2E2E2E2E2E2E2E2E2E2E2E2E2E2E2E2E2E2E2E2E2E2E2E2E2E2E2E2E2E2E2E2E2E2E2E2E2E2E2E2E2E2E2E2E2E2E2BEE2E2
310
E2E2E2E2E2E2E2E2E2E2E2E2E2E2E2E2E2E2E2E2E2E2E2E2E2E2E2E2E2E2E2E2E2E2E2E2E2E2E2E2E2E2E2E2E2E2E2E2E2E2E2E2E2E2E2E2E2E2E2E2E2E2E2E2E2E2E2E2E2E2E2E2E2E2E2E2E2E2E2E2E2E2E2E2E2E2E2E2E2E2BEE2E2E2E2E2BEBEBEBEBEBEBEBEBEBEE2E2BEE2E2E2E2E2E2E2E2E2E2E2E2E2E2E2E2E2E2
310
E2E22DE2E2838383838383838383838383838383838383838383E2E2E2E2E283E22DE2E2E2E2E2E2E2E2E2E2E2E2E2E2E2E2E2DCE2E2E2E2E2E2E2E2E2E2E2DCDCDCDCDCDCE2DCDCDCDCDCDCE2E2DCE2DCDCDCDCDCDCDCE2DCDCDCDCDCE2E2DCE2DCDCDCE2E2E2E2E2E2E2E2E2E2E2E2E2E2E2E2E2E2E2E2E2E2E2E2E2E2BE
310
E2E2E2E2E2E2E2E2E2E2E2E2E2E2E2E2E2E2E2E2E2E2E2E2E2E2E2E2E2E2E2E2E2E2E2E2E2E2E2E2E2E2E2E2E2E2E2E2E2E2E2E2E2E2E2E2E2E2E2E2E2E2E2E2E2E2E2E2E2E2E2E2E2E2E2E2E2E2E2E2E2E2E2E2E2E2E2E2E2E2E2E2BEE2E2E2E2E2BEBEBEBEBEBEBEBEBEBEE2E2BEE2E2E2E2E2E2E2E2E2E2E2E2E2E2E2E2
310
E2E2E2E22DE2838383E2E2E2E2E2E2E2E2E2E2E2E2E2E2E2E2E2E2E2E2E2E2E2E283E22DE2E2E2E2E2E2E2E2E2E2E2E2E2E2E2E2E2DCE2E2E2E2E2E2E2E2E2E2E2DCDCDCDCDCDCE2DCDCDCDCDCDCDCE2DCDCDCE2DCDCDCDCDCE2DCDCDCDCDCDCE2DCDCDCDCDCDCE2E2E2E2E2E2E2E2E2E2E2E2E2E2E2E2E2E2E2E2E2E2E2E2
310
E2BEE2E2E2E2E2E2E2E2E2E2E2E2E2E2E2E2E2E2E2E2E2E2E2E2E2E2E2E2E2E2E2E2E2E2E2E2E2E2E2E2E2E2E2E2E2E2E2E2E2E2E2E2E2E2E2E2E2E2E2E2E2E2E2E2E2E2E2E2E2E2E2E2E2E2E2E2E2E2E2E2E2E2E2E2E2E2E2E2E2E2E2E2BEE2E2E2E2E2BEBEBEBEBEBEBEBEBEBEE2E2BEE2E2E2E2E2E2E2E2E2E2E2E2E2E2
310
E2E2E2E2E2E2E2E28383E2E2E2E2E2E2E2E2E2E2E2E2E2E2E2E2E2E2E2E2E2E2E2E2E283E2E2E2E2E2E2E2E2E2E2E2E2E2E2E2E2E2E2E2E2DCE2E2E2E2E2E2E2E2E2DCDCDCDCDCDCDCE2DCDCDCDCDCDCDCE2DCDCDCE2DCDCDCDCDCE2E2DCDCDCDCDCE2DCDCDCDCDCDCE2E2E2E2E2E2E2E2E2E2E2E2E2E2E2E2E2E2E2E2E2E2
310
E2E2E2BEE2E2E2E2E2E2E2E2E2E2E2E2E2E2E2E2E2E2E2E2E2E2E2E2E2E2E2E2E2E2E2E2E2E2E2E2E2E2E2E2E2E2E2E2E2E2E2E2E2E2E2E2E2E2E2E2E2E2E2E2E2E2E2E2E2E2E2E2E2E2E2E2E2E2E2E2E2E2E2E2E2E2E2E2E2E2E2E2E2E2E2E2BEE2E2E2E2E2BEBEBEBEBEBEBEBEBEBEE2E2BEE2E2E2E2E2E2E2E2E2E2E2E2
310
E2E2E2E2E2E2E2E2E2E28383E2E2E2E2E2E2E2E2E2E2E2E2E2E2E2E2E2E2E2E2E2E2E2E2E283E2E2E2E2E2E2E2E2E2E2E2E2E2E2E2E2E2E2E2E2DCE2E2E2E2E2E2E2E2E2DCE2DCDCDCDCDCDCDCDCDCE2E2DCDCDCDCDCDCDCE2DCDCDCDCE2E2DCDCDCDCDCDCDCDCE2E2E2E2E2E2E2E2E2E2E2E2E2E2E2E2E2E2E2E2E2E2E2E2
310
E2E2E2E2E2BEE2E2E2E2E2E2E2E2E2E2E2E2E2E2E2E2E2E2E2E2E2E2E2E2E2E2E2E2E2E2E2E2E2E2E2E2E2E2E2E2E2E2E2E2E2E2E2E2E2E2E2E2E2E2E2E2E2E2E2E2E2E2E2E2E2E2E2E2E2E2E2E2E2E2E2E2E2E2E2E2E2E2E2E2E2E2E2E2E2E2E2E2BEE2E2E2E2E2BEBEBEBEBEBEBEBEBEBEE2E2BEE2E2E2E2E2E2E2E2E2E2
310
E2E2E2E2E2E2E2E2E2E22DE2838383E2E2E2E2E2E2E2E2E2E2E2E2E2E2E2E2E2E2E2E2E2E2E28383E22DE2E2E2E2E2E2E2E2E2E2E2E2E2E2E2E2E2E2DCDCDCDCDCDCDCDCDCDCDCDCDCDCDCDCDCDCDCDCDCE2DCDCDCDCDCDCDCDCDCDCDCDCE2E2E2DCDCDCE2DCDCDCE2E2E2E2E2E2E2E2E2E2E2E2E2E2E2E2E2E2E2E2E2E2E2
310
E2E2E2E2E2E2E2BEE2E2E2E2E2E2E2E2E2E2E2E2E2E2E2E2E2E2E2E2E2E2E2E2E2E2E2E2E2E2E2E2E2E2E2E2E2E2E2E2E2E2E2E2E2E2E2E2E2E2E2E2E2E2E2E2E2E2E2E2E2E2E2E2E2E2E2E2E2E2E2E2E2E2E2E2E2E2E2E2E2E2E2E2E2E2E2E2E2E2E2E2BEE2E2E2E2E2BEBEBEBEBEBEBEBEBEBEE2E2BEE2E2E2E2E2E2E2E2
310
E2E2E2E2E2E2E2E2E2E2E2E22DE2E28383838383838383838383838383838383838383838383838383E2E22DE2E2E2E2E2E2E2E2E2E2E2E2E2E2E2E2E2E2E2E2E2E2E2E2E2E2E2E2DCDCDCDCDCDCDCDCDCDCDCE2E2DCDCDCDCDCDCDCDCDCDCDCE2E2DCDCDCDCE2DCDCDCDCE2E2E2E2E2E2E2E2E2E2E2E2E2E2E2E2E2E2E2E2
310
E2E2E2E2E2E2E2E2E2BEE2E2E2E2E2E2E2E2E2E2E2E2E2E2E2E2E2E2E2E2E2E2E2E2E2E2E2E2E2E2E2E2E2E2E2E2E2E2E2E2E2E2E2E2E2E2E2E2E2E2E2E2E2E2E2E2E2E2E2E2E2E2E2E2E2E2E2E2E2E2E2E2E2E2E2E2E2E2E2E2E2E2E2E2E2E2E2E2E2E2E2E2BEE2E2E2E2E2BEBEBEBEBEBEBEBEBEBEE2E2BEE2E2E2E2E2E2
310
E2E2E2E2E2E2E2E2E2E2E2E2E2E22DE2E2E2E2E2E2E2E2E2E2E2E2E2E2E2E2E2E2E2E2E2E2E2E2E2E2E2E2E2E22DE2E2E2E2E2E2E2E2E2E2E2E2E2E2E2E2E2E2E2E2E2E2E2E2E2E2E2E2E2E2E2E2E2E2E2E2E2E2E2E2E2E2E2E2E2E2E2E2E2E2E2E2E2E2E2E2E2E2E2E2E2E2E2E2E2E2E2E2E2E2E2E2E2E2E2E2E2E2E2E2E2
310
E2E2E2E2E2E2E2E2E2E2E2BEE2E2E2E2E2E2E2E2E2E2E2E2E2E2E2E2E2E2E2E2E2E2E2E2E2E2E2E2E2E2E2E2E2E2E2E2E2E2E2E2E2E2E2E2E2E2E2E2E2E2E2E2E2E2E2E2E2E2E2E2E2E2E2E2E2E2E2E2E2E2E2E2E2E2E2E2E2E2E2E2E2E2E2E2E2E2E2E2E2E2E2E2BEE2E2E2E2E2BEBEBEBEBEBEBEBEBEBEE2E2BEE2E2E2E2
310
E2E2E2E2E2E2E2E2E2E2E2E2E2E2E2E22D2D2D2DE2E22D2D2D2D2D2DE22D2D2D2D2D2DE2E22D2D2D2D2D2DE22D2D2D2DE2E2E2E2E2E2E2E2E2E2E2E2E2E2E2E2E2E2E2E2E2E2E2E2E2E2E2E2E2E2E2E2E2E2E2E2E2E2E2E2E2E2E2E2E2E2E2E2E2E2E2E2E2E2E2E2E2E2E2E2E2E2E2E2E2E2E2E2E2E2E2E2E2E2E2E2E2E2E2
310
E2E2E2E2E2E2E2E2E2E2E2E2E2BEE2E2E2E2E2E2E2E2E2E2E2E2E2E2E2E2E2E2E2E2E2E2E2E2E2E2E2E2E2E2E2E2E2E2E2E2E2E2E2E2E2E2E2E2E2E2E2E2E2E2E2E2E2E2E2E2E2E2E2E2E2E2E2E2E2E2E2E2E2E2E2E2E2E2E2E2E2E2E2E2E2E2E2E2E2E2E2E2E2E2E2E2BEE2E2E2E2E2BEBEBEBEBEBEBEBEBEBEE2E2BEE2E2
310
E2E2E2E2E2E2E2E2E2E2E2E2E2E2E2E2E2E2E2E2E2E2E2E2E2E2E2E2E2E2E2E2E2E2E2E2E2E2E2E2E2E2E2E2E2E2E2E2E2E2E2E2E2E2E2E2E2E2E2E2E2E2E2E2E2E2E2E2E2E2E2E2E2E2E2E2E2E2E2E2E2E2E2E2E2E2E2E2E2E2E2E2E2E2E2E2E2E2E2E2E2E2E2E2E2E2E2E2E2E2E2E2E2E2E2E2E2E2E2E2E2E2E2E2E2E2E2
310
E2E2E2E2E2E2E2E2E2E2E2E2E2E2E2BEE2E2E2E2E2E2E2E2E2E2E2E2E2E2E2E2E2E2E2E2E2E2E2E2E2E2E2E2E2E2E2E2E2E2E2E2E2E2E2E2E2E2E2E2E2E2E2E2E2E2E2E2E2E2E2E2E2E2E2E2E2E2E2E2E2E2E2E2E2E2E2E2E2E2E2E2E2E2E2E2E2E2E2E2E2E2E2E2E2E2E2E2BEE2E2E2E2E2BEBEBEBEBEBEBEBEBEBEE2E2BE
310
E2E2E2E2E2E2E2E2E2E2E2E2E2E2E2E2E2E2E2E2E2E2E2E2E2E2E2E2E2E2E2E2E2E2E2E2E2E2E2E2E2E2E2E2E2E2E2E2E2E2E2E2E2E2E2E2E2E2E2E2E2E2E2E2E2E2E2E2E2E2E2E2E2E2E2E2E2E2E2E2E2E2E2E2E2E2E2E2E2E2E2E2E2E2E2E2E2E2E2E2E2E2E2E2E2E2E2E2E2E2E2E2E2E2E2E2E2E2E2E2E2E2E2E2E2E2E2
310
E2E2E2E2E2E2E2E2E2E2E2E2E2E2E2E2E2BEE2E2E2E2E2E2E2E2E2E2E2E2E2E2E2E2E2E2E2E2E2E2E2E2E2E2E2E2E2E2E2E2E2E2E2E2E2E2E2E2E2E2E2E2E2E2E2E2E2E2E2E2E2E2E2E2E2E2E2E2E2E2E2E2E2E2E2E2E2E2E2E2E2E2E2E2E2E2E2E2E2E2E2E2E2E2E2E2E2E2E2E2BEE2E2E2E2E2BEBEBEBEBEBEBEBEBEBEE2
310
E2BEE2E2E2E2E2E2E2E2E2E2E2E2E2E2E2E2E2E2E2E2E2E2E2E2E2E2E2E2E2E2E2E2E2E2E2E2E2E2E2E2E2E2E2E2E2E2E2E2E2E2E2E2E2E2E2E2E2E2E2E2E2E2E2E2E2E2E2E2E2E2E2E2E2E2E2E2E2E2E2E2E2E2E2E2E2E2E2E2E2E2E2E2E2E2E2E2E2E2E2E2E2E2E2E2E2E2E2E2E2E2E2E2E2E2E2E2E2E2E2E2E2E2E2E2E2
310
E2E2E2E2E2E2E2E2E2E2E2E2E2E2E2E2E2E2E2BEE2E2E2E2E2E2E2E2E2E2E2E2E2E2E2E2E2E2E2E2E2E2E2E2E2E2E2E2E2E2E2E2E2E2E2E2E2E2E2E2E2E2E2E2E2E2E2E2E2E2E2E2E2E2E2E2E2E2E2E2E2E2E2E2E2E2E2E2E2E2E2E2E2E2E2E2E2E2E2E2E2E2E2E2E2E2E2E2E2E2E2E2BEE2E2E2E2E2BEBEBEBEE2E2BEBEBE
310
BEE2E2BEE2E2E2E2E2E2E2E2E2E2E2E2E2E2E2E2E2E2E2E2E2E2E2E2E2E2E2E2E2E2E2E2E2E2E2E2E2E2E2E2E2E2E2E2E2E2E2E2E2E2E2E2E2E2E2E2E2E2E2E2E2E2E2E2E2E2E2E2E2E2E2E2E2E2E2E2E2E2E2E2E2E2E2E2E2E2E2E2E2E2E2E2E2E2E2E2E2E2E2E2E2E2E2E2E2E2E2E2E2E2E2E2E2E2E2E2E2E2E2E2E2E2E2
310
E2E2E2E2E2E2E2E2E2E2E2E2E2E2E2E2E2E2E2E2E2BEE2E2E2E2E2E2E2E2E2E2E2E2E2E2E2E2E2E2E2E2E2E2E2E2E2E2E2E2E2E2E2E2E2E2E2E2E2E2E2E2E2E2E2E2E2E2E2E2E2E2E2E2E2E2E2E2E2E2E2E2E2E2E2E2E2E2E2E2E2E2E2E2E2E2E2E2E2E2E2E2E2E2E2E2E2E2E2E2E2E2E2E2BEE2E2E2E2E2BEBEBEBEE2E2BE
310
BEE2E2E2E2BEE2E2E2E2E2E2E2E2E2E2E2E2E2E2E2E2E2E2E2E2E2E2E2E2E2E2E2E2E2E2E2E2E2E2E2E2E2E2E2E2E2E2E2E2E2E2E2E2E2E2E2E2E2E2E2E2E2E2E2E2E2E2E2E2E2E2E2E2E2E2E2E2E2E2E2E2E2E2E2E2E2E2E2E2E2E2E2E2E2E2E2E2E2E2E2E2E2E2E2E2E2E2E2E2E2E2E2E2E2E2E2E2E2E2E2E2E2E2E2E2E2
310
E2E2E2E2E2E2E2E2E2E2E2E2E2E2E2E2E2E2E2E2E2E2E2BEE2E2E2E2E2E2E2E2E2E2E2E2E2E2E2E2E2E2E2E2E2E2E2E2E2E2E2E2E2E2E2E2E2E2E2E2E2E2E2E2E2E2E2E2E2E2E2E2E2E2E2E2E2E2E2E2E2E2E2E2E2E2E2E2E2E2E2E2E2E2E2E2E2E2E2E2E2E2E2E2E2E2E2E2E2E2E2E2E2E2E2E2BEE2E2E2E2E2E2E2BEBEE2
310
E2E2E2E2E2E2E2BEE2E2E2E2E2E2E2E2E2E2E2E2E2E2E2E2E2E2E2E2E2E2E2E2E2E2E2E2E2E2E2E2E2E2E2E2E2E2E2E2E2E2E2E2E2E2E2E2E2E2E2E2E2E2E2E2E2E2E2E2E2E2E2E2E2E2E2E2E2E2E2E2E2E2E2E2E2E2E2E2E2E2E2E2E2E2E2E2E2E2E2E2E2E2E2E2E2E2E2E2E2E2E2E2E2E2E2E2E2E2E2E2E2E2E2E2E2E2E2
310
E2E2E2E2E2E2E2E2E2E2E2E2E2E2E2E2E2E2E2E2E2E2E2E2E2BEE2E2E2E2E2E2E2E2E2E2E2E2E2E2E2E2E2E2E2E2E2E2E2E2E2E2E2E2E2E2E2E2E2E2E2E2E2E2E2E2E2E2E2E2E2E2E2E2E2E2E2E2E2E2E2E2E2E2E2E2E2E2E2E2E2E2E2E2E2E2E2E2E2E2E2E2E2E2E2E2E2E2E2E2E2E2E2E2E2E2E2E2BEE2E2E2E2E2E2E2E2
310
E2E2E2E2E2E2E2E2E2BEE2E2E2E2E2E2E2E2E2E2E2E2E2E2E2E2E2E2E2E2E2E2E2E2E2E2E2E2E2E2E2E2E2E2E2E2E2E2E2E2E2E2E2E2E2E2E2E2E2E2E2E2E2E2E2E2E2E2E2E2E2E2E2E2E2E2E2E2E2E2E2E2E2E2E2E2E2E2E2E2E2E2E2E2E2E2E2E2E2E2E2E2E2E2E2E2E2E2E2E2E2E2E2E2E2E2E2E2E2E2E2E2E2E2E2E2E2
310
E2E2E2E2E2E2E2E2E2E2E2E2E2E2E2E2E2E2E2E2E2E2E2E2E2E2E2BEE2E2E2E2E2E2E2E2E2E2E2E2E2E2E2E2E2E2E2E2E2E2E2E2E2E2E2E2E2E2E2E2E2E2E2E2E2E2E2E2E2E2E2E2E2E2E2E2E2E2E2E2E2E2E2E2E2E2E2E2E2E2E2E2E2E2E2E2E2E2E2E2E2E2E2E2E2E2E2E2E2E2E2E2E2E2E2E2E2E2E2E2BEE2E2E2E2E2E2
310
E2E2E2E2E2E2E2E2E2E2E2BEE2E2E2E2E2E2E2E2E2E2E2E2E2E2E2E2E2E2E2E2E2E2E2E2E2E2E2E2E2E2E2E2E2E2E2E2E2E2E2E2E2E2E2E2E2E2E2E2E2E2E2E2E2E2E2E2E2E2E2E2E2E2E2E2E2E2E2E2E2E2E2E2E2E2E2E2E2E2E2E2E2E2E2E2E2E2E2E2E2E2E2E2E2E2E2E2E2E2E2E2E2E2E2E2E2E2E2E2E2E2E2E2E2E2E2
310
E2E2E2E2E2E2E2E2E2E2E2E2E2E2E2E2E2E2E2E2E2E2E2E2E2E2E2E2E2BEE2E2E2E2E2E2E2E2E2E2E2E2E2E2E2E2E2E2E2E2E2E2E2E2E2E2E2E2E2E2E2E2E2E2E2E2E2E2E2E2E2E2E2E2E2E2E2E2E2E2E2E2E2E2E2E2E2E2E2E2E2E2E2E2E2E2E2E2E2E2E2E2E2E2E2E2E2E2E2E2E2E2E2E2E2E2E2E2E2E2E2E2BEE2E2E2E2
310
E2E2E2E2E2E2E2E2E2E2E2E2E2BEE2E2E2E2E2E2E2E2E2E2E2E2E2E2E2E2E2E2E2E2E2E2E2E2E2E2E2E2E2E2E2E2E2E2E2E2E2E2E2E2E2E2E2E2E2E2E2E2E2E2E2E2E2E2E2E2E2E2E2E2E2E2E2E2E2E2E2E2E2E2E2E2E2E2E2E2E2E2E2E2E2E2E2E2E2E2E2E2E2E2E2E2E2E2E2E2E2E2E2E2E2E2E2E2E2E2E2E2E2E2E2E2E2
310
E2E2E2E2E2E2E2E2E2E2E2E2E2E2E2E2E2E2E2E2E2E2E2E2E2E2E2E2E2E2E2BEE2E2E2E2E2E2E2E2E2E2E2E2E2E2E2E2E2E2E2E2E2E2E2E2E2E2E2E2E2E2E2E2E2E2E2E2E2E2E2E2E2E2E2E2E2E2E2E2E2E2E2E2E2E2E2E2E2E2E2E2E2E2E2E2E2E2E2E2E2E2E2E2E2E2E2E2E2E2E2E2E2E2E2E2E2E2E2E2E2E2E2E2BEBEBE
310
BEBEBEBEBEBEBEBEBEBEBEBEBEBEBEBEBEBEBEBEBEBEBEBEBEBEBEBEBEBEBEBEBEBEBEBEBEBEBEBEBEBEBEBEBEBEBEBEBEBEBEBEBEBEBEBEBEBEBEBEBEBEBEBEBEBEBEBEBEBEBEBEBEBEBEBEBEBEBEBEBEBEBEBEBEBEBEBEBEBEBEBEBEBEBEBEBEBEBEBEBEBEBEBEBEBEBEBEBEBEBEBEBEBEBEBEBEBEBEBEBEBEBEBEBEBEBE
310
BEBEBEBEBEBEBEBEBEBEBEBEBEBEBEBEBEBEBEBEBEBEBEBEBEBEBEBEBEBEBEBEBEBEE2E2E2E2E2E2E2E2E2E2E2E2E2E2E2E2E2E2E2E2E2E2E2E2E2E2E2E2E2E2E2E2E2E2E2E2E2E2E2E2E2E2E2E2E2E2
  0
XRECORD
  5
28CF
102
{ACAD_REACTORS
330
28CE
102
}
330
28CE
100
AcDbXrecord
280
     1
102
MATERIAL
148
0.0
149
0.0
149
0.0
 93
        0
 94
       63
282
     0
 72
     1
 77
     1
171
     1
175
     1
179
     1
273
     0
  0
XRECORD
  5
28CD
102
{ACAD_REACTORS
330
28CC
102
}
330
28CC
100
AcDbXrecord
280
     1
102
MATERIAL
148
0.0
149
0.0
149
0.0
 93
        0
 94
       63
282
     0
 72
     1
 77
     1
171
     1
175
     1
179
     1
273
     0
  0
XRECORD
  5
28D0
102
{ACAD_REACTORS
330
110
102
}
330
110
100
AcDbXrecord
280
     1
102
MATERIAL
148
0.0
149
0.0
149
0.0
 93
        0
 94
       63
282
     0
 72
     1
 77
     1
171
     1
175
     1
179
     1
273
     0
  0
XRECORD
  5
112
102
{ACAD_REACTORS
330
110
102
}
330
110
100
AcDbXrecord
280
     1
270
     1
271
     1
  0
XRECORD
  5
111
102
{ACAD_REACTORS
330
110
102
}
330
110
100
AcDbXrecord
280
     1
270
     1
271
     1
  0
XRECORD
  5
113
102
{ACAD_REACTORS
330
110
102
}
330
110
100
AcDbXrecord
280
     1
270
     1
271
     1
  0
XRECORD
  5
114
102
{ACAD_REACTORS
330
110
102
}
330
110
100
AcDbXrecord
280
     1
270
     1
271
     1
  0
CELLSTYLEMAP
  5
28C9
102
{ACAD_REACTORS
330
2887
102
}
330
2887
100
AcDbCellStyleMap
 90
        3
300
CELLSTYLE
  1
TABLEFORMAT_BEGIN
 90
        5
170
     1
 91
        0
 92
    32768
 62
   257
 93
        1
300
CONTENTFORMAT
  1
CONTENTFORMAT_BEGIN
 90
        0
 91
        0
 92
      512
 93
        0
300

 40
0.0
140
1.0
 94
        5
 62
     0
340
180
144
0.5
309
CONTENTFORMAT_END
171
     0
 94
        6
 95
        1
302
GRIDFORMAT
  1
GRIDFORMAT_BEGIN
 90
        0
 91
        1
 62
     0
 92
       -2
340
0
 93
        1
 40
0.045
309
GRIDFORMAT_END
 95
        2
302
GRIDFORMAT
  1
GRIDFORMAT_BEGIN
 90
        0
 91
        1
 62
     0
 92
       -2
340
0
 93
        1
 40
0.045
309
GRIDFORMAT_END
 95
        4
302
GRIDFORMAT
  1
GRIDFORMAT_BEGIN
 90
        0
 91
        1
 62
     0
 92
       -2
340
0
 93
        1
 40
0.045
309
GRIDFORMAT_END
 95
        8
302
GRIDFORMAT
  1
GRIDFORMAT_BEGIN
 90
        0
 91
        1
 62
     0
 92
       -2
340
0
 93
        1
 40
0.045
309
GRIDFORMAT_END
 95
       16
302
GRIDFORMAT
  1
GRIDFORMAT_BEGIN
 90
        0
 91
        1
 62
     0
 92
       -2
340
0
 93
        1
 40
0.045
309
GRIDFORMAT_END
 95
       32
302
GRIDFORMAT
  1
GRIDFORMAT_BEGIN
 90
        0
 91
        1
 62
     0
 92
       -2
340
0
 93
        1
 40
0.045
309
GRIDFORMAT_END
309
TABLEFORMAT_END
  1
CELLSTYLE_BEGIN
 90
        1
 91
        1
300
_TITLE
309
CELLSTYLE_END
300
CELLSTYLE
  1
TABLEFORMAT_BEGIN
 90
        5
170
     1
 91
        0
 92
        0
 62
   257
 93
        1
300
CONTENTFORMAT
  1
CONTENTFORMAT_BEGIN
 90
        0
 91
        0
 92
      512
 93
        0
300

 40
0.0
140
1.0
 94
        4
 62
     0
340
180
144
0.4
309
CONTENTFORMAT_END
171
     0
 94
        6
 95
        1
302
GRIDFORMAT
  1
GRIDFORMAT_BEGIN
 90
        0
 91
        1
 62
     0
 92
       -2
340
0
 93
        1
 40
0.045
309
GRIDFORMAT_END
 95
        2
302
GRIDFORMAT
  1
GRIDFORMAT_BEGIN
 90
        0
 91
        1
 62
     0
 92
       -2
340
0
 93
        1
 40
0.045
309
GRIDFORMAT_END
 95
        4
302
GRIDFORMAT
  1
GRIDFORMAT_BEGIN
 90
        0
 91
        1
 62
     0
 92
       -2
340
0
 93
        1
 40
0.045
309
GRIDFORMAT_END
 95
        8
302
GRIDFORMAT
  1
GRIDFORMAT_BEGIN
 90
        0
 91
        1
 62
     0
 92
       -2
340
0
 93
        1
 40
0.045
309
GRIDFORMAT_END
 95
       16
302
GRIDFORMAT
  1
GRIDFORMAT_BEGIN
 90
        0
 91
        1
 62
     0
 92
       -2
340
0
 93
        1
 40
0.045
309
GRIDFORMAT_END
 95
       32
302
GRIDFORMAT
  1
GRIDFORMAT_BEGIN
 90
        0
 91
        1
 62
     0
 92
       -2
340
0
 93
        1
 40
0.045
309
GRIDFORMAT_END
309
TABLEFORMAT_END
  1
CELLSTYLE_BEGIN
 90
        2
 91
        1
300
_HEADER
309
CELLSTYLE_END
300
CELLSTYLE
  1
TABLEFORMAT_BEGIN
 90
        5
170
     1
 91
        0
 92
        0
 62
   257
 93
        1
300
CONTENTFORMAT
  1
CONTENTFORMAT_BEGIN
 90
        0
 91
        0
 92
      512
 93
        0
300

 40
0.0
140
1.0
 94
        4
 62
     0
340
180
144
0.4
309
CONTENTFORMAT_END
171
     0
 94
        6
 95
        1
302
GRIDFORMAT
  1
GRIDFORMAT_BEGIN
 90
        0
 91
        1
 62
     0
 92
       -2
340
0
 93
        1
 40
0.045
309
GRIDFORMAT_END
 95
        2
302
GRIDFORMAT
  1
GRIDFORMAT_BEGIN
 90
        0
 91
        1
 62
     0
 92
       -2
340
0
 93
        1
 40
0.045
309
GRIDFORMAT_END
 95
        4
302
GRIDFORMAT
  1
GRIDFORMAT_BEGIN
 90
        0
 91
        1
 62
     0
 92
       -2
340
0
 93
        1
 40
0.045
309
GRIDFORMAT_END
 95
        8
302
GRIDFORMAT
  1
GRIDFORMAT_BEGIN
 90
        0
 91
        1
 62
     0
 92
       -2
340
0
 93
        1
 40
0.045
309
GRIDFORMAT_END
 95
       16
302
GRIDFORMAT
  1
GRIDFORMAT_BEGIN
 90
        0
 91
        1
 62
     0
 92
       -2
340
0
 93
        1
 40
0.045
309
GRIDFORMAT_END
 95
       32
302
GRIDFORMAT
  1
GRIDFORMAT_BEGIN
 90
        0
 91
        1
 62
     0
 92
       -2
340
0
 93
        1
 40
0.045
309
GRIDFORMAT_END
309
TABLEFORMAT_END
  1
CELLSTYLE_BEGIN
 90
        3
 91
        2
300
_DATA
309
CELLSTYLE_END
  0
XRECORD
  5
28F7
102
{ACAD_REACTORS
330
2887
102
}
330
2887
100
AcDbXrecord
280
     1
102
ACAD_ROUNDTRIP_PRE2007_TABLESTYLE
 90
      512
 91
        0
  1

 92
      512
 93
        0
  2

 94
      512
 95
        0
  3

  0
CELLSTYLEMAP
  5
28C8
102
{ACAD_REACTORS
330
104
102
}
330
104
100
AcDbCellStyleMap
 90
        3
300
CELLSTYLE
  1
TABLEFORMAT_BEGIN
 90
        5
170
     1
 91
        0
 92
    32768
 62
   257
 93
        1
300
CONTENTFORMAT
  1
CONTENTFORMAT_BEGIN
 90
        0
 91
        0
 92
      512
 93
        0
300

 40
0.0
140
1.0
 94
        5
 62
     0
340
11
144
0.25
309
CONTENTFORMAT_END
171
     1
301
MARGIN
  1
CELLMARGIN_BEGIN
 40
0.06
 40
0.06
 40
0.06
 40
0.06
 40
0.18
 40
0.18
309
CELLMARGIN_END
 94
        6
 95
        1
302
GRIDFORMAT
  1
GRIDFORMAT_BEGIN
 90
        0
 91
        1
 62
     0
 92
       -2
340
0
 93
        0
 40
0.045
309
GRIDFORMAT_END
 95
        2
302
GRIDFORMAT
  1
GRIDFORMAT_BEGIN
 90
        0
 91
        1
 62
     0
 92
       -2
340
0
 93
        0
 40
0.045
309
GRIDFORMAT_END
 95
        4
302
GRIDFORMAT
  1
GRIDFORMAT_BEGIN
 90
        0
 91
        1
 62
     0
 92
       -2
340
0
 93
        0
 40
0.045
309
GRIDFORMAT_END
 95
        8
302
GRIDFORMAT
  1
GRIDFORMAT_BEGIN
 90
        0
 91
        1
 62
     0
 92
       -2
340
0
 93
        0
 40
0.045
309
GRIDFORMAT_END
 95
       16
302
GRIDFORMAT
  1
GRIDFORMAT_BEGIN
 90
        0
 91
        1
 62
     0
 92
       -2
340
0
 93
        0
 40
0.045
309
GRIDFORMAT_END
 95
       32
302
GRIDFORMAT
  1
GRIDFORMAT_BEGIN
 90
        0
 91
        1
 62
     0
 92
       -2
340
0
 93
        0
 40
0.045
309
GRIDFORMAT_END
309
TABLEFORMAT_END
  1
CELLSTYLE_BEGIN
 90
        1
 91
        1
300
_TITLE
309
CELLSTYLE_END
300
CELLSTYLE
  1
TABLEFORMAT_BEGIN
 90
        5
170
     1
 91
        0
 92
        0
 62
   257
 93
        1
300
CONTENTFORMAT
  1
CONTENTFORMAT_BEGIN
 90
        0
 91
        0
 92
      512
 93
        0
300

 40
0.0
140
1.0
 94
        5
 62
     0
340
11
144
0.18
309
CONTENTFORMAT_END
171
     1
301
MARGIN
  1
CELLMARGIN_BEGIN
 40
0.06
 40
0.06
 40
0.06
 40
0.06
 40
0.18
 40
0.18
309
CELLMARGIN_END
 94
        6
 95
        1
302
GRIDFORMAT
  1
GRIDFORMAT_BEGIN
 90
        0
 91
        1
 62
     0
 92
       -2
340
0
 93
        0
 40
0.045
309
GRIDFORMAT_END
 95
        2
302
GRIDFORMAT
  1
GRIDFORMAT_BEGIN
 90
        0
 91
        1
 62
     0
 92
       -2
340
0
 93
        0
 40
0.045
309
GRIDFORMAT_END
 95
        4
302
GRIDFORMAT
  1
GRIDFORMAT_BEGIN
 90
        0
 91
        1
 62
     0
 92
       -2
340
0
 93
        0
 40
0.045
309
GRIDFORMAT_END
 95
        8
302
GRIDFORMAT
  1
GRIDFORMAT_BEGIN
 90
        0
 91
        1
 62
     0
 92
       -2
340
0
 93
        0
 40
0.045
309
GRIDFORMAT_END
 95
       16
302
GRIDFORMAT
  1
GRIDFORMAT_BEGIN
 90
        0
 91
        1
 62
     0
 92
       -2
340
0
 93
        0
 40
0.045
309
GRIDFORMAT_END
 95
       32
302
GRIDFORMAT
  1
GRIDFORMAT_BEGIN
 90
        0
 91
        1
 62
     0
 92
       -2
340
0
 93
        0
 40
0.045
309
GRIDFORMAT_END
309
TABLEFORMAT_END
  1
CELLSTYLE_BEGIN
 90
        2
 91
        1
300
_HEADER
309
CELLSTYLE_END
300
CELLSTYLE
  1
TABLEFORMAT_BEGIN
 90
        5
170
     1
 91
        0
 92
        0
 62
   257
 93
        1
300
CONTENTFORMAT
  1
CONTENTFORMAT_BEGIN
 90
        0
 91
        0
 92
      512
 93
        0
300

 40
0.0
140
1.0
 94
        2
 62
     0
340
11
144
0.18
309
CONTENTFORMAT_END
171
     1
301
MARGIN
  1
CELLMARGIN_BEGIN
 40
0.06
 40
0.06
 40
0.06
 40
0.06
 40
0.18
 40
0.18
309
CELLMARGIN_END
 94
        6
 95
        1
302
GRIDFORMAT
  1
GRIDFORMAT_BEGIN
 90
        0
 91
        1
 62
     0
 92
       -2
340
0
 93
        0
 40
0.045
309
GRIDFORMAT_END
 95
        2
302
GRIDFORMAT
  1
GRIDFORMAT_BEGIN
 90
        0
 91
        1
 62
     0
 92
       -2
340
0
 93
        0
 40
0.045
309
GRIDFORMAT_END
 95
        4
302
GRIDFORMAT
  1
GRIDFORMAT_BEGIN
 90
        0
 91
        1
 62
     0
 92
       -2
340
0
 93
        0
 40
0.045
309
GRIDFORMAT_END
 95
        8
302
GRIDFORMAT
  1
GRIDFORMAT_BEGIN
 90
        0
 91
        1
 62
     0
 92
       -2
340
0
 93
        0
 40
0.045
309
GRIDFORMAT_END
 95
       16
302
GRIDFORMAT
  1
GRIDFORMAT_BEGIN
 90
        0
 91
        1
 62
     0
 92
       -2
340
0
 93
        0
 40
0.045
309
GRIDFORMAT_END
 95
       32
302
GRIDFORMAT
  1
GRIDFORMAT_BEGIN
 90
        0
 91
        1
 62
     0
 92
       -2
340
0
 93
        0
 40
0.045
309
GRIDFORMAT_END
309
TABLEFORMAT_END
  1
CELLSTYLE_BEGIN
 90
        3
 91
        2
300
_DATA
309
CELLSTYLE_END
  0
XRECORD
  5
28CB
102
{ACAD_REACTORS
330
104
102
}
330
104
100
AcDbXrecord
280
     1
102
ACAD_ROUNDTRIP_PRE2007_TABLESTYLE
 90
      512
 91
        0
  1

 92
      512
 93
        0
  2

 94
      512
 95
        0
  3

  0
XRECORD
  5
28DC
102
{ACAD_REACTORS
330
28DB
102
}
330
28DB
100
AcDbXrecord
280
     1
102
RTVSPropertyOp0
 70
     1
102
RTVSPropertyOp1
 70
     1
102
RTVSPropertyOp2
 70
     1
102
RTVSPropertyOp3
 70
     1
102
RTVSPropertyOp4
 70
     1
102
RTVSPropertyOp5
 70
     1
102
RTVSPropertyOp6
 70
     1
102
RTVSPropertyOp7
 70
     1
102
RTVSPropertyOp8
 70
     1
102
RTVSPropertyOp9
 70
     1
102
RTVSPropertyOp10
 70
     1
102
RTVSPropertyOp11
 70
     1
102
RTVSPropertyOp12
 70
     1
102
RTVSPropertyOp13
 70
     1
102
RTVSPropertyOp14
 70
     1
102
RTVSPropertyOp15
 70
     1
102
RTVSPropertyOp16
 70
     1
102
RTVSPropertyOp17
 70
     1
102
RTVSPropertyOp18
 70
     1
102
RTVSPropertyOp19
 70
     1
102
RTVSPropertyOp20
 70
     1
102
RTVSPropertyOp21
 70
     1
102
RTVSPropertyOp22
 70
     1
102
RTVSPropertyOp23
 70
     1
102
RTVSPropertyOp24
 70
     1
102
RTVSPropertyOp25
 70
     1
102
RTVSPropertyOp26
 70
     1
102
RTVSPropertyOp27
 70
     1
  0
XRECORD
  5
28E0
102
{ACAD_REACTORS
330
28DF
102
}
330
28DF
100
AcDbXrecord
280
     1
102
RTVSPropertyOp0
 70
     1
102
RTVSPropertyOp1
 70
     1
102
RTVSPropertyOp2
 70
     1
102
RTVSPropertyOp3
 70
     1
102
RTVSPropertyOp4
 70
     1
102
RTVSPropertyOp5
 70
     1
102
RTVSPropertyOp6
 70
     1
102
RTVSPropertyOp7
 70
     1
102
RTVSPropertyOp8
 70
     1
102
RTVSPropertyOp9
 70
     1
102
RTVSPropertyOp10
 70
     1
102
RTVSPropertyOp11
 70
     1
102
RTVSPropertyOp12
 70
     1
102
RTVSPropertyOp13
 70
     1
102
RTVSPropertyOp14
 70
     1
102
RTVSPropertyOp15
 70
     1
102
RTVSPropertyOp16
 70
     1
102
RTVSPropertyOp17
 70
     1
102
RTVSPropertyOp18
 70
     1
102
RTVSPropertyOp19
 70
     1
102
RTVSPropertyOp20
 70
     1
102
RTVSPropertyOp21
 70
     1
102
RTVSPropertyOp22
 70
     1
102
RTVSPropertyOp23
 70
     1
102
RTVSPropertyOp24
 70
     1
102
RTVSPropertyOp25
 70
     1
102
RTVSPropertyOp26
 70
     1
102
RTVSPropertyOp27
 70
     1
  0
XRECORD
  5
28DE
102
{ACAD_REACTORS
330
28DD
102
}
330
28DD
100
AcDbXrecord
280
     1
102
RTVSPropertyOp0
 70
     1
102
RTVSPropertyOp1
 70
     1
102
RTVSPropertyOp2
 70
     1
102
RTVSPropertyOp3
 70
     1
102
RTVSPropertyOp4
 70
     1
102
RTVSPropertyOp5
 70
     1
102
RTVSPropertyOp6
 70
     1
102
RTVSPropertyOp7
 70
     1
102
RTVSPropertyOp8
 70
     1
102
RTVSPropertyOp9
 70
     1
102
RTVSPropertyOp10
 70
     1
102
RTVSPropertyOp11
 70
     1
102
RTVSPropertyOp12
 70
     1
102
RTVSPropertyOp13
 70
     1
102
RTVSPropertyOp14
 70
     1
102
RTVSPropertyOp15
 70
     1
102
RTVSPropertyOp16
 70
     1
102
RTVSPropertyOp17
 70
     1
102
RTVSPropertyOp18
 70
     1
102
RTVSPropertyOp19
 70
     1
102
RTVSPropertyOp20
 70
     1
102
RTVSPropertyOp21
 70
     1
102
RTVSPropertyOp22
 70
     1
102
RTVSPropertyOp23
 70
     1
102
RTVSPropertyOp24
 70
     1
102
RTVSPropertyOp25
 70
     1
102
RTVSPropertyOp26
 70
     1
102
RTVSPropertyOp27
 70
     1
  0
XRECORD
  5
28DA
102
{ACAD_REACTORS
330
28D9
102
}
330
28D9
100
AcDbXrecord
280
     1
102
RTVSPropertyOp0
 70
     1
102
RTVSPropertyOp1
 70
     1
102
RTVSPropertyOp2
 70
     1
102
RTVSPropertyOp3
 70
     1
102
RTVSPropertyOp4
 70
     1
102
RTVSPropertyOp5
 70
     1
102
RTVSPropertyOp6
 70
     1
102
RTVSPropertyOp7
 70
     1
102
RTVSPropertyOp8
 70
     1
102
RTVSPropertyOp9
 70
     1
102
RTVSPropertyOp10
 70
     1
102
RTVSPropertyOp11
 70
     1
102
RTVSPropertyOp12
 70
     1
102
RTVSPropertyOp13
 70
     1
102
RTVSPropertyOp14
 70
     1
102
RTVSPropertyOp15
 70
     1
102
RTVSPropertyOp16
 70
     1
102
RTVSPropertyOp17
 70
     1
102
RTVSPropertyOp18
 70
     1
102
RTVSPropertyOp19
 70
     1
102
RTVSPropertyOp20
 70
     1
102
RTVSPropertyOp21
 70
     1
102
RTVSPropertyOp22
 70
     1
102
RTVSPropertyOp23
 70
     1
102
RTVSPropertyOp24
 70
     1
102
RTVSPropertyOp25
 70
     1
102
RTVSPropertyOp26
 70
     1
102
RTVSPropertyOp27
 70
     1
  0
XRECORD
  5
28E8
102
{ACAD_REACTORS
330
28E7
102
}
330
28E7
100
AcDbXrecord
280
     1
102
RTVSPropertyOp0
 70
     1
102
RTVSPropertyOp1
 70
     1
102
RTVSPropertyOp2
 70
     1
102
RTVSPropertyOp3
 70
     1
102
RTVSPropertyOp4
 70
     1
102
RTVSPropertyOp5
 70
     1
102
RTVSPropertyOp6
 70
     1
102
RTVSPropertyOp7
 70
     1
102
RTVSPropertyOp8
 70
     1
102
RTVSPropertyOp9
 70
     1
102
RTVSPropertyOp10
 70
     1
102
RTVSPropertyOp11
 70
     1
102
RTVSPropertyOp12
 70
     1
102
RTVSPropertyOp13
 70
     1
102
RTVSPropertyOp14
 70
     1
102
RTVSPropertyOp15
 70
     1
102
RTVSPropertyOp16
 70
     1
102
RTVSPropertyOp17
 70
     1
102
RTVSPropertyOp18
 70
     1
102
RTVSPropertyOp19
 70
     1
102
RTVSPropertyOp20
 70
     1
102
RTVSPropertyOp21
 70
     1
102
RTVSPropertyOp22
 70
     1
102
RTVSPropertyOp23
 70
     1
102
RTVSPropertyOp24
 70
     1
102
RTVSPropertyOp25
 70
     1
102
RTVSPropertyOp26
 70
     1
102
RTVSPropertyOp27
 70
     1
  0
XRECORD
  5
28F0
102
{ACAD_REACTORS
330
28EF
102
}
330
28EF
100
AcDbXrecord
280
     1
102
RTVSPropertyOp0
 70
     1
102
RTVSPropertyOp1
 70
     1
102
RTVSPropertyOp2
 70
     1
102
RTVSPropertyOp3
 70
     1
102
RTVSPropertyOp4
 70
     1
102
RTVSPropertyOp5
 70
     1
102
RTVSPropertyOp6
 70
     1
102
RTVSPropertyOp7
 70
     1
102
RTVSPropertyOp8
 70
     1
102
RTVSPropertyOp9
 70
     1
102
RTVSPropertyOp10
 70
     1
102
RTVSPropertyOp11
 70
     1
102
RTVSPropertyOp12
 70
     1
102
RTVSPropertyOp13
 70
     1
102
RTVSPropertyOp14
 70
     1
102
RTVSPropertyOp15
 70
     1
102
RTVSPropertyOp16
 70
     1
102
RTVSPropertyOp17
 70
     1
102
RTVSPropertyOp18
 70
     1
102
RTVSPropertyOp19
 70
     1
102
RTVSPropertyOp20
 70
     1
102
RTVSPropertyOp21
 70
     1
102
RTVSPropertyOp22
 70
     1
102
RTVSPropertyOp23
 70
     1
102
RTVSPropertyOp24
 70
     1
102
RTVSPropertyOp25
 70
     1
102
RTVSPropertyOp26
 70
     1
102
RTVSPropertyOp27
 70
     1
  0
XRECORD
  5
28E2
102
{ACAD_REACTORS
330
28E1
102
}
330
28E1
100
AcDbXrecord
280
     1
102
RTVSPropertyOp0
 70
     1
102
RTVSPropertyOp1
 70
     1
102
RTVSPropertyOp2
 70
     1
102
RTVSPropertyOp3
 70
     1
102
RTVSPropertyOp4
 70
     1
102
RTVSPropertyOp5
 70
     1
102
RTVSPropertyOp6
 70
     1
102
RTVSPropertyOp7
 70
     1
102
RTVSPropertyOp8
 70
     1
102
RTVSPropertyOp9
 70
     1
102
RTVSPropertyOp10
 70
     1
102
RTVSPropertyOp11
 70
     1
102
RTVSPropertyOp12
 70
     1
102
RTVSPropertyOp13
 70
     1
102
RTVSPropertyOp14
 70
     1
102
RTVSPropertyOp15
 70
     1
102
RTVSPropertyOp16
 70
     1
102
RTVSPropertyOp17
 70
     1
102
RTVSPropertyOp18
 70
     1
102
RTVSPropertyOp19
 70
     1
102
RTVSPropertyOp20
 70
     1
102
RTVSPropertyOp21
 70
     1
102
RTVSPropertyOp22
 70
     1
102
RTVSPropertyOp23
 70
     1
102
RTVSPropertyOp24
 70
     1
102
RTVSPropertyOp25
 70
     1
102
RTVSPropertyOp26
 70
     1
102
RTVSPropertyOp27
 70
     1
  0
XRECORD
  5
28E6
102
{ACAD_REACTORS
330
28E5
102
}
330
28E5
100
AcDbXrecord
280
     1
102
RTVSPropertyOp0
 70
     1
102
RTVSPropertyOp1
 70
     1
102
RTVSPropertyOp2
 70
     1
102
RTVSPropertyOp3
 70
     1
102
RTVSPropertyOp4
 70
     1
102
RTVSPropertyOp5
 70
     1
102
RTVSPropertyOp6
 70
     1
102
RTVSPropertyOp7
 70
     1
102
RTVSPropertyOp8
 70
     1
102
RTVSPropertyOp9
 70
     1
102
RTVSPropertyOp10
 70
     1
102
RTVSPropertyOp11
 70
     1
102
RTVSPropertyOp12
 70
     1
102
RTVSPropertyOp13
 70
     1
102
RTVSPropertyOp14
 70
     1
102
RTVSPropertyOp15
 70
     1
102
RTVSPropertyOp16
 70
     1
102
RTVSPropertyOp17
 70
     1
102
RTVSPropertyOp18
 70
     1
102
RTVSPropertyOp19
 70
     1
102
RTVSPropertyOp20
 70
     1
102
RTVSPropertyOp21
 70
     1
102
RTVSPropertyOp22
 70
     1
102
RTVSPropertyOp23
 70
     1
102
RTVSPropertyOp24
 70
     1
102
RTVSPropertyOp25
 70
     1
102
RTVSPropertyOp26
 70
     1
102
RTVSPropertyOp27
 70
     1
  0
XRECORD
  5
28F6
102
{ACAD_REACTORS
330
28F5
102
}
330
28F5
100
AcDbXrecord
280
     1
102
RTVSPropertyOp0
 70
     0
102
RTVSPropertyOp1
 70
     0
102
RTVSPropertyOp2
 70
     0
102
RTVSPropertyOp3
 70
     0
102
RTVSPropertyOp4
 70
     0
102
RTVSPropertyOp5
 70
     0
102
RTVSPropertyOp6
 70
     0
102
RTVSPropertyOp7
 70
     0
102
RTVSPropertyOp8
 70
     0
102
RTVSPropertyOp9
 70
     0
102
RTVSPropertyOp10
 70
     0
102
RTVSPropertyOp11
 70
     0
102
RTVSPropertyOp12
 70
     0
102
RTVSPropertyOp13
 70
     0
102
RTVSPropertyOp14
 70
     2
102
RTVSPropertyOp15
 70
     0
102
RTVSPropertyOp16
 70
     0
102
RTVSPropertyOp17
 70
     0
102
RTVSPropertyOp18
 70
     0
102
RTVSPropertyOp19
 70
     0
102
RTVSPropertyOp20
 70
     0
102
RTVSPropertyOp21
 70
     0
102
RTVSPropertyOp22
 70
     0
102
RTVSPropertyOp23
 70
     0
102
RTVSPropertyOp24
 70
     0
102
RTVSPropertyOp25
 70
     0
102
RTVSPropertyOp26
 70
     0
102
RTVSPropertyOp27
 70
     0
  0
XRECORD
  5
28EE
102
{ACAD_REACTORS
330
28ED
102
}
330
28ED
100
AcDbXrecord
280
     1
102
RTVSPropertyOp0
 70
     1
102
RTVSPropertyOp1
 70
     1
102
RTVSPropertyOp2
 70
     1
102
RTVSPropertyOp3
 70
     1
102
RTVSPropertyOp4
 70
     1
102
RTVSPropertyOp5
 70
     1
102
RTVSPropertyOp6
 70
     1
102
RTVSPropertyOp7
 70
     1
102
RTVSPropertyOp8
 70
     1
102
RTVSPropertyOp9
 70
     1
102
RTVSPropertyOp10
 70
     1
102
RTVSPropertyOp11
 70
     1
102
RTVSPropertyOp12
 70
     1
102
RTVSPropertyOp13
 70
     1
102
RTVSPropertyOp14
 70
     1
102
RTVSPropertyOp15
 70
     1
102
RTVSPropertyOp16
 70
     1
102
RTVSPropertyOp17
 70
     1
102
RTVSPropertyOp18
 70
     1
102
RTVSPropertyOp19
 70
     1
102
RTVSPropertyOp20
 70
     1
102
RTVSPropertyOp21
 70
     1
102
RTVSPropertyOp22
 70
     1
102
RTVSPropertyOp23
 70
     1
102
RTVSPropertyOp24
 70
     1
102
RTVSPropertyOp25
 70
     1
102
RTVSPropertyOp26
 70
     1
102
RTVSPropertyOp27
 70
     1
  0
XRECORD
  5
28D2
102
{ACAD_REACTORS
330
28D1
102
}
330
28D1
100
AcDbXrecord
280
     1
102
RTVSPropertyOp0
 70
     1
102
RTVSPropertyOp1
 70
     1
102
RTVSPropertyOp2
 70
     1
102
RTVSPropertyOp3
 70
     1
102
RTVSPropertyOp4
 70
     1
102
RTVSPropertyOp5
 70
     1
102
RTVSPropertyOp6
 70
     1
102
RTVSPropertyOp7
 70
     1
102
RTVSPropertyOp8
 70
     1
102
RTVSPropertyOp9
 70
     1
102
RTVSPropertyOp10
 70
     1
102
RTVSPropertyOp11
 70
     1
102
RTVSPropertyOp12
 70
     1
102
RTVSPropertyOp13
 70
     1
102
RTVSPropertyOp14
 70
     1
102
RTVSPropertyOp15
 70
     1
102
RTVSPropertyOp16
 70
     1
102
RTVSPropertyOp17
 70
     1
102
RTVSPropertyOp18
 70
     1
102
RTVSPropertyOp19
 70
     1
102
RTVSPropertyOp20
 70
     1
102
RTVSPropertyOp21
 70
     1
102
RTVSPropertyOp22
 70
     1
102
RTVSPropertyOp23
 70
     1
102
RTVSPropertyOp24
 70
     1
102
RTVSPropertyOp25
 70
     1
102
RTVSPropertyOp26
 70
     1
102
RTVSPropertyOp27
 70
     1
  0
XRECORD
  5
28D4
102
{ACAD_REACTORS
330
28D3
102
}
330
28D3
100
AcDbXrecord
280
     1
102
RTVSPropertyOp0
 70
     1
102
RTVSPropertyOp1
 70
     1
102
RTVSPropertyOp2
 70
     1
102
RTVSPropertyOp3
 70
     1
102
RTVSPropertyOp4
 70
     1
102
RTVSPropertyOp5
 70
     1
102
RTVSPropertyOp6
 70
     1
102
RTVSPropertyOp7
 70
     1
102
RTVSPropertyOp8
 70
     1
102
RTVSPropertyOp9
 70
     1
102
RTVSPropertyOp10
 70
     1
102
RTVSPropertyOp11
 70
     1
102
RTVSPropertyOp12
 70
     1
102
RTVSPropertyOp13
 70
     1
102
RTVSPropertyOp14
 70
     1
102
RTVSPropertyOp15
 70
     1
102
RTVSPropertyOp16
 70
     1
102
RTVSPropertyOp17
 70
     1
102
RTVSPropertyOp18
 70
     1
102
RTVSPropertyOp19
 70
     1
102
RTVSPropertyOp20
 70
     1
102
RTVSPropertyOp21
 70
     1
102
RTVSPropertyOp22
 70
     1
102
RTVSPropertyOp23
 70
     1
102
RTVSPropertyOp24
 70
     1
102
RTVSPropertyOp25
 70
     1
102
RTVSPropertyOp26
 70
     1
102
RTVSPropertyOp27
 70
     1
  0
XRECORD
  5
28D6
102
{ACAD_REACTORS
330
28D5
102
}
330
28D5
100
AcDbXrecord
280
     1
102
RTVSPropertyOp0
 70
     1
102
RTVSPropertyOp1
 70
     1
102
RTVSPropertyOp2
 70
     1
102
RTVSPropertyOp3
 70
     1
102
RTVSPropertyOp4
 70
     1
102
RTVSPropertyOp5
 70
     1
102
RTVSPropertyOp6
 70
     1
102
RTVSPropertyOp7
 70
     1
102
RTVSPropertyOp8
 70
     1
102
RTVSPropertyOp9
 70
     1
102
RTVSPropertyOp10
 70
     1
102
RTVSPropertyOp11
 70
     1
102
RTVSPropertyOp12
 70
     1
102
RTVSPropertyOp13
 70
     1
102
RTVSPropertyOp14
 70
     1
102
RTVSPropertyOp15
 70
     1
102
RTVSPropertyOp16
 70
     1
102
RTVSPropertyOp17
 70
     1
102
RTVSPropertyOp18
 70
     1
102
RTVSPropertyOp19
 70
     1
102
RTVSPropertyOp20
 70
     1
102
RTVSPropertyOp21
 70
     1
102
RTVSPropertyOp22
 70
     1
102
RTVSPropertyOp23
 70
     1
102
RTVSPropertyOp24
 70
     1
102
RTVSPropertyOp25
 70
     1
102
RTVSPropertyOp26
 70
     1
102
RTVSPropertyOp27
 70
     1
  0
XRECORD
  5
28D8
102
{ACAD_REACTORS
330
28D7
102
}
330
28D7
100
AcDbXrecord
280
     1
102
RTVSPropertyOp0
 70
     1
102
RTVSPropertyOp1
 70
     1
102
RTVSPropertyOp2
 70
     1
102
RTVSPropertyOp3
 70
     1
102
RTVSPropertyOp4
 70
     1
102
RTVSPropertyOp5
 70
     1
102
RTVSPropertyOp6
 70
     1
102
RTVSPropertyOp7
 70
     1
102
RTVSPropertyOp8
 70
     1
102
RTVSPropertyOp9
 70
     1
102
RTVSPropertyOp10
 70
     1
102
RTVSPropertyOp11
 70
     1
102
RTVSPropertyOp12
 70
     1
102
RTVSPropertyOp13
 70
     1
102
RTVSPropertyOp14
 70
     1
102
RTVSPropertyOp15
 70
     1
102
RTVSPropertyOp16
 70
     1
102
RTVSPropertyOp17
 70
     1
102
RTVSPropertyOp18
 70
     1
102
RTVSPropertyOp19
 70
     1
102
RTVSPropertyOp20
 70
     1
102
RTVSPropertyOp21
 70
     1
102
RTVSPropertyOp22
 70
     1
102
RTVSPropertyOp23
 70
     1
102
RTVSPropertyOp24
 70
     1
102
RTVSPropertyOp25
 70
     1
102
RTVSPropertyOp26
 70
     1
102
RTVSPropertyOp27
 70
     1
  0
XRECORD
  5
1B0
102
{ACAD_REACTORS
330
1AF
102
}
330
1AF
100
AcDbXrecord
280
     1
102
RTVSPropertyOp28
 70
     1
102
RTVSPropertyOp29
 70
     1
102
RTVSPropertyOp30
 70
     1
102
RTVSPropertyOp31
 70
     1
102
RTVSPropertyOp32
 70
     1
102
RTVSPropertyOp0
 70
     1
102
RTVSPropertyOp1
 70
     1
102
RTVSPropertyOp2
 70
     1
102
RTVSPropertyOp3
 70
     1
102
RTVSPropertyOp4
 70
     1
102
RTVSPropertyOp5
 70
     1
102
RTVSPropertyOp6
 70
     1
102
RTVSPropertyOp7
 70
     1
102
RTVSPropertyOp8
 70
     1
102
RTVSPropertyOp9
 70
     1
102
RTVSPropertyOp10
 70
     1
102
RTVSPropertyOp11
 70
     1
102
RTVSPropertyOp12
 70
     1
102
RTVSPropertyOp13
 70
     1
102
RTVSPropertyOp14
 70
     1
102
RTVSPropertyOp15
 70
     1
102
RTVSPropertyOp16
 70
     1
102
RTVSPropertyOp17
 70
     1
102
RTVSPropertyOp18
 70
     1
102
RTVSPropertyOp19
 70
     1
102
RTVSPropertyOp20
 70
     1
102
RTVSPropertyOp21
 70
     1
102
RTVSPropertyOp22
 70
     1
102
RTVSPropertyOp23
 70
     1
102
RTVSPropertyOp24
 70
     1
102
RTVSPropertyOp25
 70
     1
102
RTVSPropertyOp26
 70
     1
102
RTVSPropertyOp27
 70
     1
  0
XRECORD
  5
28F2
102
{ACAD_REACTORS
330
28F1
102
}
330
28F1
100
AcDbXrecord
280
     1
102
RTVSPropertyOp0
 70
     0
102
RTVSPropertyOp1
 70
     0
102
RTVSPropertyOp2
 70
     0
102
RTVSPropertyOp3
 70
     0
102
RTVSPropertyOp4
 70
     0
102
RTVSPropertyOp5
 70
     0
102
RTVSPropertyOp6
 70
     0
102
RTVSPropertyOp7
 70
     0
102
RTVSPropertyOp8
 70
     0
102
RTVSPropertyOp9
 70
     0
102
RTVSPropertyOp10
 70
     0
102
RTVSPropertyOp11
 70
     0
102
RTVSPropertyOp12
 70
     0
102
RTVSPropertyOp13
 70
     0
102
RTVSPropertyOp14
 70
     2
102
RTVSPropertyOp15
 70
     0
102
RTVSPropertyOp16
 70
     0
102
RTVSPropertyOp17
 70
     0
102
RTVSPropertyOp18
 70
     0
102
RTVSPropertyOp19
 70
     0
102
RTVSPropertyOp20
 70
     0
102
RTVSPropertyOp21
 70
     0
102
RTVSPropertyOp22
 70
     0
102
RTVSPropertyOp23
 70
     0
102
RTVSPropertyOp24
 70
     0
102
RTVSPropertyOp25
 70
     0
102
RTVSPropertyOp26
 70
     0
102
RTVSPropertyOp27
 70
     0
  0
XRECORD
  5
28EC
102
{ACAD_REACTORS
330
28EB
102
}
330
28EB
100
AcDbXrecord
280
     1
102
RTVSPropertyOp0
 70
     1
102
RTVSPropertyOp1
 70
     1
102
RTVSPropertyOp2
 70
     1
102
RTVSPropertyOp3
 70
     1
102
RTVSPropertyOp4
 70
     1
102
RTVSPropertyOp5
 70
     1
102
RTVSPropertyOp6
 70
     1
102
RTVSPropertyOp7
 70
     1
102
RTVSPropertyOp8
 70
     1
102
RTVSPropertyOp9
 70
     1
102
RTVSPropertyOp10
 70
     1
102
RTVSPropertyOp11
 70
     1
102
RTVSPropertyOp12
 70
     1
102
RTVSPropertyOp13
 70
     1
102
RTVSPropertyOp14
 70
     1
102
RTVSPropertyOp15
 70
     1
102
RTVSPropertyOp16
 70
     1
102
RTVSPropertyOp17
 70
     1
102
RTVSPropertyOp18
 70
     1
102
RTVSPropertyOp19
 70
     1
102
RTVSPropertyOp20
 70
     1
102
RTVSPropertyOp21
 70
     1
102
RTVSPropertyOp22
 70
     1
102
RTVSPropertyOp23
 70
     1
102
RTVSPropertyOp24
 70
     1
102
RTVSPropertyOp25
 70
     1
102
RTVSPropertyOp26
 70
     1
102
RTVSPropertyOp27
 70
     1
  0
XRECORD
  5
28F4
102
{ACAD_REACTORS
330
28F3
102
}
330
28F3
100
AcDbXrecord
280
     1
102
RTVSPropertyOp0
 70
     0
102
RTVSPropertyOp1
 70
     0
102
RTVSPropertyOp2
 70
     0
102
RTVSPropertyOp3
 70
     0
102
RTVSPropertyOp4
 70
     0
102
RTVSPropertyOp5
 70
     0
102
RTVSPropertyOp6
 70
     0
102
RTVSPropertyOp7
 70
     0
102
RTVSPropertyOp8
 70
     0
102
RTVSPropertyOp9
 70
     0
102
RTVSPropertyOp10
 70
     0
102
RTVSPropertyOp11
 70
     0
102
RTVSPropertyOp12
 70
     0
102
RTVSPropertyOp13
 70
     0
102
RTVSPropertyOp14
 70
     2
102
RTVSPropertyOp15
 70
     0
102
RTVSPropertyOp16
 70
     0
102
RTVSPropertyOp17
 70
     0
102
RTVSPropertyOp18
 70
     0
102
RTVSPropertyOp19
 70
     0
102
RTVSPropertyOp20
 70
     0
102
RTVSPropertyOp21
 70
     0
102
RTVSPropertyOp22
 70
     0
102
RTVSPropertyOp23
 70
     0
102
RTVSPropertyOp24
 70
     0
102
RTVSPropertyOp25
 70
     0
102
RTVSPropertyOp26
 70
     0
102
RTVSPropertyOp27
 70
     0
  0
XRECORD
  5
28E4
102
{ACAD_REACTORS
330
28E3
102
}
330
28E3
100
AcDbXrecord
280
     1
102
RTVSPropertyOp0
 70
     1
102
RTVSPropertyOp1
 70
     1
102
RTVSPropertyOp2
 70
     1
102
RTVSPropertyOp3
 70
     1
102
RTVSPropertyOp4
 70
     1
102
RTVSPropertyOp5
 70
     1
102
RTVSPropertyOp6
 70
     1
102
RTVSPropertyOp7
 70
     1
102
RTVSPropertyOp8
 70
     1
102
RTVSPropertyOp9
 70
     1
102
RTVSPropertyOp10
 70
     1
102
RTVSPropertyOp11
 70
     1
102
RTVSPropertyOp12
 70
     1
102
RTVSPropertyOp13
 70
     1
102
RTVSPropertyOp14
 70
     1
102
RTVSPropertyOp15
 70
     1
102
RTVSPropertyOp16
 70
     1
102
RTVSPropertyOp17
 70
     1
102
RTVSPropertyOp18
 70
     1
102
RTVSPropertyOp19
 70
     1
102
RTVSPropertyOp20
 70
     1
102
RTVSPropertyOp21
 70
     1
102
RTVSPropertyOp22
 70
     1
102
RTVSPropertyOp23
 70
     1
102
RTVSPropertyOp24
 70
     1
102
RTVSPropertyOp25
 70
     1
102
RTVSPropertyOp26
 70
     1
102
RTVSPropertyOp27
 70
     1
  0
XRECORD
  5
1B3
102
{ACAD_REACTORS
330
1B2
102
}
330
1B2
100
AcDbXrecord
280
     1
102
RTVSPropertyOp28
 70
     1
102
RTVSPropertyOp29
 70
     1
102
RTVSPropertyOp30
 70
     1
102
RTVSPropertyOp31
 70
     1
102
RTVSPropertyOp32
 70
     1
102
RTVSPropertyOp0
 70
     1
102
RTVSPropertyOp1
 70
     1
102
RTVSPropertyOp2
 70
     1
102
RTVSPropertyOp3
 70
     1
102
RTVSPropertyOp4
 70
     1
102
RTVSPropertyOp5
 70
     1
102
RTVSPropertyOp6
 70
     1
102
RTVSPropertyOp7
 70
     1
102
RTVSPropertyOp8
 70
     1
102
RTVSPropertyOp9
 70
     1
102
RTVSPropertyOp10
 70
     1
102
RTVSPropertyOp11
 70
     1
102
RTVSPropertyOp12
 70
     1
102
RTVSPropertyOp13
 70
     1
102
RTVSPropertyOp14
 70
     1
102
RTVSPropertyOp15
 70
     1
102
RTVSPropertyOp16
 70
     1
102
RTVSPropertyOp17
 70
     1
102
RTVSPropertyOp18
 70
     1
102
RTVSPropertyOp19
 70
     1
102
RTVSPropertyOp20
 70
     1
102
RTVSPropertyOp21
 70
     1
102
RTVSPropertyOp22
 70
     1
102
RTVSPropertyOp23
 70
     1
102
RTVSPropertyOp24
 70
     1
102
RTVSPropertyOp25
 70
     1
102
RTVSPropertyOp26
 70
     1
102
RTVSPropertyOp27
 70
     1
  0
XRECORD
  5
1B6
102
{ACAD_REACTORS
330
1B5
102
}
330
1B5
100
AcDbXrecord
280
     1
102
RTVSPropertyOp28
 70
     1
102
RTVSPropertyOp29
 70
     1
102
RTVSPropertyOp30
 70
     1
102
RTVSPropertyOp31
 70
     1
102
RTVSPropertyOp32
 70
     1
102
RTVSPropertyOp0
 70
     1
102
RTVSPropertyOp1
 70
     1
102
RTVSPropertyOp2
 70
     1
102
RTVSPropertyOp3
 70
     1
102
RTVSPropertyOp4
 70
     1
102
RTVSPropertyOp5
 70
     1
102
RTVSPropertyOp6
 70
     1
102
RTVSPropertyOp7
 70
     1
102
RTVSPropertyOp8
 70
     1
102
RTVSPropertyOp9
 70
     1
102
RTVSPropertyOp10
 70
     1
102
RTVSPropertyOp11
 70
     1
102
RTVSPropertyOp12
 70
     1
102
RTVSPropertyOp13
 70
     1
102
RTVSPropertyOp14
 70
     1
102
RTVSPropertyOp15
 70
     1
102
RTVSPropertyOp16
 70
     1
102
RTVSPropertyOp17
 70
     1
102
RTVSPropertyOp18
 70
     1
102
RTVSPropertyOp19
 70
     1
102
RTVSPropertyOp20
 70
     1
102
RTVSPropertyOp21
 70
     1
102
RTVSPropertyOp22
 70
     1
102
RTVSPropertyOp23
 70
     1
102
RTVSPropertyOp24
 70
     1
102
RTVSPropertyOp25
 70
     1
102
RTVSPropertyOp26
 70
     1
102
RTVSPropertyOp27
 70
     1
  0
XRECORD
  5
1B9
102
{ACAD_REACTORS
330
1B8
102
}
330
1B8
100
AcDbXrecord
280
     1
102
RTVSPropertyOp28
 70
     1
102
RTVSPropertyOp29
 70
     1
102
RTVSPropertyOp30
 70
     1
102
RTVSPropertyOp31
 70
     1
102
RTVSPropertyOp32
 70
     1
102
RTVSPropertyOp0
 70
     1
102
RTVSPropertyOp1
 70
     1
102
RTVSPropertyOp2
 70
     1
102
RTVSPropertyOp3
 70
     1
102
RTVSPropertyOp4
 70
     1
102
RTVSPropertyOp5
 70
     1
102
RTVSPropertyOp6
 70
     1
102
RTVSPropertyOp7
 70
     1
102
RTVSPropertyOp8
 70
     1
102
RTVSPropertyOp9
 70
     1
102
RTVSPropertyOp10
 70
     1
102
RTVSPropertyOp11
 70
     1
102
RTVSPropertyOp12
 70
     1
102
RTVSPropertyOp13
 70
     1
102
RTVSPropertyOp14
 70
     1
102
RTVSPropertyOp15
 70
     1
102
RTVSPropertyOp16
 70
     1
102
RTVSPropertyOp17
 70
     1
102
RTVSPropertyOp18
 70
     1
102
RTVSPropertyOp19
 70
     1
102
RTVSPropertyOp20
 70
     1
102
RTVSPropertyOp21
 70
     1
102
RTVSPropertyOp22
 70
     1
102
RTVSPropertyOp23
 70
     1
102
RTVSPropertyOp24
 70
     1
102
RTVSPropertyOp25
 70
     1
102
RTVSPropertyOp26
 70
     1
102
RTVSPropertyOp27
 70
     1
  0
XRECORD
  5
1BC
102
{ACAD_REACTORS
330
1BB
102
}
330
1BB
100
AcDbXrecord
280
     1
102
RTVSPropertyOp28
 70
     1
102
RTVSPropertyOp29
 70
     1
102
RTVSPropertyOp30
 70
     1
102
RTVSPropertyOp31
 70
     1
102
RTVSPropertyOp32
 70
     1
102
RTVSPropertyOp0
 70
     1
102
RTVSPropertyOp1
 70
     1
102
RTVSPropertyOp2
 70
     1
102
RTVSPropertyOp3
 70
     1
102
RTVSPropertyOp4
 70
     1
102
RTVSPropertyOp5
 70
     1
102
RTVSPropertyOp6
 70
     1
102
RTVSPropertyOp7
 70
     1
102
RTVSPropertyOp8
 70
     1
102
RTVSPropertyOp9
 70
     1
102
RTVSPropertyOp10
 70
     1
102
RTVSPropertyOp11
 70
     1
102
RTVSPropertyOp12
 70
     1
102
RTVSPropertyOp13
 70
     1
102
RTVSPropertyOp14
 70
     1
102
RTVSPropertyOp15
 70
     1
102
RTVSPropertyOp16
 70
     1
102
RTVSPropertyOp17
 70
     1
102
RTVSPropertyOp18
 70
     1
102
RTVSPropertyOp19
 70
     1
102
RTVSPropertyOp20
 70
     1
102
RTVSPropertyOp21
 70
     1
102
RTVSPropertyOp22
 70
     1
102
RTVSPropertyOp23
 70
     1
102
RTVSPropertyOp24
 70
     1
102
RTVSPropertyOp25
 70
     1
102
RTVSPropertyOp26
 70
     1
102
RTVSPropertyOp27
 70
     1
  0
XRECORD
  5
28EA
102
{ACAD_REACTORS
330
28E9
102
}
330
28E9
100
AcDbXrecord
280
     1
102
RTVSPropertyOp0
 70
     1
102
RTVSPropertyOp1
 70
     1
102
RTVSPropertyOp2
 70
     1
102
RTVSPropertyOp3
 70
     1
102
RTVSPropertyOp4
 70
     1
102
RTVSPropertyOp5
 70
     1
102
RTVSPropertyOp6
 70
     1
102
RTVSPropertyOp7
 70
     1
102
RTVSPropertyOp8
 70
     1
102
RTVSPropertyOp9
 70
     1
102
RTVSPropertyOp10
 70
     1
102
RTVSPropertyOp11
 70
     1
102
RTVSPropertyOp12
 70
     1
102
RTVSPropertyOp13
 70
     1
102
RTVSPropertyOp14
 70
     1
102
RTVSPropertyOp15
 70
     1
102
RTVSPropertyOp16
 70
     1
102
RTVSPropertyOp17
 70
     1
102
RTVSPropertyOp18
 70
     1
102
RTVSPropertyOp19
 70
     1
102
RTVSPropertyOp20
 70
     1
102
RTVSPropertyOp21
 70
     1
102
RTVSPropertyOp22
 70
     1
102
RTVSPropertyOp23
 70
     1
102
RTVSPropertyOp24
 70
     1
102
RTVSPropertyOp25
 70
     1
102
RTVSPropertyOp26
 70
     1
102
RTVSPropertyOp27
 70
     1
  0
XRECORD
  5
1BF
102
{ACAD_REACTORS
330
1BE
102
}
330
1BE
100
AcDbXrecord
280
     1
102
RTVSPropertyOp28
 70
     1
102
RTVSPropertyOp29
 70
     1
102
RTVSPropertyOp30
 70
     1
102
RTVSPropertyOp31
 70
     1
102
RTVSPropertyOp32
 70
     1
102
RTVSPropertyOp0
 70
     1
102
RTVSPropertyOp1
 70
     1
102
RTVSPropertyOp2
 70
     1
102
RTVSPropertyOp3
 70
     1
102
RTVSPropertyOp4
 70
     1
102
RTVSPropertyOp5
 70
     1
102
RTVSPropertyOp6
 70
     1
102
RTVSPropertyOp7
 70
     1
102
RTVSPropertyOp8
 70
     1
102
RTVSPropertyOp9
 70
     1
102
RTVSPropertyOp10
 70
     1
102
RTVSPropertyOp11
 70
     1
102
RTVSPropertyOp12
 70
     1
102
RTVSPropertyOp13
 70
     1
102
RTVSPropertyOp14
 70
     1
102
RTVSPropertyOp15
 70
     1
102
RTVSPropertyOp16
 70
     1
102
RTVSPropertyOp17
 70
     1
102
RTVSPropertyOp18
 70
     1
102
RTVSPropertyOp19
 70
     1
102
RTVSPropertyOp20
 70
     1
102
RTVSPropertyOp21
 70
     1
102
RTVSPropertyOp22
 70
     1
102
RTVSPropertyOp23
 70
     1
102
RTVSPropertyOp24
 70
     1
102
RTVSPropertyOp25
 70
     1
102
RTVSPropertyOp26
 70
     1
102
RTVSPropertyOp27
 70
     1
  0
XRECORD
  5
1C2
102
{ACAD_REACTORS
330
1C1
102
}
330
1C1
100
AcDbXrecord
280
     1
102
RTVSPropertyOp28
 70
     1
102
RTVSPropertyOp29
 70
     1
102
RTVSPropertyOp30
 70
     1
102
RTVSPropertyOp31
 70
     1
102
RTVSPropertyOp32
 70
     1
102
RTVSPropertyOp0
 70
     1
102
RTVSPropertyOp1
 70
     1
102
RTVSPropertyOp2
 70
     1
102
RTVSPropertyOp3
 70
     1
102
RTVSPropertyOp4
 70
     1
102
RTVSPropertyOp5
 70
     1
102
RTVSPropertyOp6
 70
     1
102
RTVSPropertyOp7
 70
     1
102
RTVSPropertyOp8
 70
     1
102
RTVSPropertyOp9
 70
     1
102
RTVSPropertyOp10
 70
     1
102
RTVSPropertyOp11
 70
     1
102
RTVSPropertyOp12
 70
     1
102
RTVSPropertyOp13
 70
     1
102
RTVSPropertyOp14
 70
     1
102
RTVSPropertyOp15
 70
     1
102
RTVSPropertyOp16
 70
     1
102
RTVSPropertyOp17
 70
     1
102
RTVSPropertyOp18
 70
     1
102
RTVSPropertyOp19
 70
     1
102
RTVSPropertyOp20
 70
     1
102
RTVSPropertyOp21
 70
     1
102
RTVSPropertyOp22
 70
     1
102
RTVSPropertyOp23
 70
     1
102
RTVSPropertyOp24
 70
     1
102
RTVSPropertyOp25
 70
     1
102
RTVSPropertyOp26
 70
     1
102
RTVSPropertyOp27
 70
     1
  0
DMBASEELEMENT
  5
182
102
{ACAD_XDICTIONARY
360
186
102
}
102
{ACAD_REACTORS
330
17F
102
}
330
17F
100
AcMapDMBaseElement
 70
     1
  1
Map Base
 70
     1
330
17F
100
AcMapDMBaseElement
 70
     1
  1

 70
     2
  1

 70
     1
 40
1.797693134862314E+99
 70
     1
 70
     1
 70
     1
 70
     1
360
185
100
AcMapDMBaseElement
 70
     1
  0
DMDEFAULTSTYLE
  5
183
102
{ACAD_REACTORS
330
17F
102
}
330
17F
100
AcMapDMDefaultStyle
 70
     1
 90
        1
  1
Default
100
AcMapDMDefaultStyle
 70
     1
280
   100
 90
     0
1001
AcMapDMDisplayStyleRegapp
1070
     2
1071
        1
1000
Default
1000

  0
DICTIONARY
  5
186
330
182
100
AcDbDictionary
280
     1
281
     1
  3
AcMapDMSurrogateStyleSets
360
187
  0
DMSTYLEREFERENCE
  5
185
330
182
100
AcMapDMStyleReference
 70
     1
 70
     0
340
183
330
17F
  0
DMSURROGATESTYLESETS
  5
187
102
{ACAD_REACTORS
330
186
102
}
330
186
100
AcMapDMSurrogateStyleSets
 70
     1
  1
Map Base
 70
     1
 40
1.797693134862314E+99
 70
     1
 70
     1
 70
     1
 70
     1
330
185
 70
     0
  0
ENDSEC
  0
EOF
