  0
SECTION
  2
HEADER
  9
$ACADVER
  1
AC1018
  9
$ACADMAINTVER
 70
   104
  9
$DWGCODEPAGE
  3
ANSI_1252
  9
$LASTSAVEDBY
  1
Joseph H Fortier
  9
$INSBASE
 10
0.0
 20
0.0
 30
0.0
  9
$EXTMIN
 10
-0.8951802699596704
 20
0.0000000071579578
 30
0.0
  9
$EXTMAX
 10
9.642499988266642
 20
7.125000007157956
 30
0.0
  9
$LIMMIN
 10
0.0
 20
0.0
  9
$LIMMAX
 10
12.0
 20
9.0
  9
$ORTHOMODE
 70
     1
  9
$REGENMODE
 70
     1
  9
$FILLMODE
 70
     1
  9
$QTEXTMODE
 70
     0
  9
$MIRRTEXT
 70
     0
  9
$LTSCALE
 40
1.0
  9
$ATTMODE
 70
     1
  9
$TEXTSIZE
 40
0.09
  9
$TRACEWID
 40
0.05
  9
$TEXTSTYLE
  7
DETAIL TEXT
  9
$CLAYER
  8
0
  9
$CELTYPE
  6
ByLayer
  9
$CECOLOR
 62
   256
  9
$CELTSCALE
 40
1.0
  9
$DISPSILH
 70
     0
  9
$DIMSCALE
 40
1.0
  9
$DIMASZ
 40
0.18
  9
$DIMEXO
 40
0.0625
  9
$DIMDLI
 40
0.38
  9
$DIMRND
 40
0.0
  9
$DIMDLE
 40
0.0
  9
$DIMEXE
 40
0.18
  9
$DIMTP
 40
0.0
  9
$DIMTM
 40
0.0
  9
$DIMTXT
 40
0.18
  9
$DIMCEN
 40
0.09
  9
$DIMTSZ
 40
0.0
  9
$DIMTOL
 70
     0
  9
$DIMLIM
 70
     0
  9
$DIMTIH
 70
     1
  9
$DIMTOH
 70
     1
  9
$DIMSE1
 70
     0
  9
$DIMSE2
 70
     0
  9
$DIMTAD
 70
     0
  9
$DIMZIN
 70
     0
  9
$DIMBLK
  1

  9
$DIMASO
 70
     1
  9
$DIMSHO
 70
     1
  9
$DIMPOST
  1

  9
$DIMAPOST
  1

  9
$DIMALT
 70
     0
  9
$DIMALTD
 70
     2
  9
$DIMALTF
 40
25.4
  9
$DIMLFAC
 40
1.0
  9
$DIMTOFL
 70
     0
  9
$DIMTVP
 40
0.0
  9
$DIMTIX
 70
     0
  9
$DIMSOXD
 70
     0
  9
$DIMSAH
 70
     0
  9
$DIMBLK1
  1

  9
$DIMBLK2
  1

  9
$DIMSTYLE
  2
Standard
  9
$DIMCLRD
 70
     0
  9
$DIMCLRE
 70
     0
  9
$DIMCLRT
 70
     0
  9
$DIMTFAC
 40
1.0
  9
$DIMGAP
 40
0.09
  9
$DIMJUST
 70
     0
  9
$DIMSD1
 70
     0
  9
$DIMSD2
 70
     0
  9
$DIMTOLJ
 70
     1
  9
$DIMTZIN
 70
     0
  9
$DIMALTZ
 70
     0
  9
$DIMALTTZ
 70
     0
  9
$DIMUPT
 70
     0
  9
$DIMDEC
 70
     4
  9
$DIMTDEC
 70
     4
  9
$DIMALTU
 70
     2
  9
$DIMALTTD
 70
     2
  9
$DIMTXSTY
  7
Standard
  9
$DIMAUNIT
 70
     0
  9
$DIMADEC
 70
     0
  9
$DIMALTRND
 40
0.0
  9
$DIMAZIN
 70
     0
  9
$DIMDSEP
 70
    46
  9
$DIMATFIT
 70
     3
  9
$DIMFRAC
 70
     0
  9
$DIMLDRBLK
  1

  9
$DIMLUNIT
 70
     2
  9
$DIMLWD
 70
    -2
  9
$DIMLWE
 70
    -2
  9
$DIMTMOVE
 70
     0
  9
$LUNITS
 70
     2
  9
$LUPREC
 70
     4
  9
$SKETCHINC
 40
0.1
  9
$FILLETRAD
 40
0.0
  9
$AUNITS
 70
     0
  9
$AUPREC
 70
     0
  9
$MENU
  1
.
  9
$ELEVATION
 40
0.0
  9
$PELEVATION
 40
0.0
  9
$THICKNESS
 40
0.0
  9
$LIMCHECK
 70
     0
  9
$CHAMFERA
 40
0.0
  9
$CHAMFERB
 40
0.0
  9
$CHAMFERC
 40
0.0
  9
$CHAMFERD
 40
0.0
  9
$SKPOLY
 70
     0
  9
$TDCREATE
 40
2456012.517465637
  9
$TDUCREATE
 40
2456012.809132303
  9
$TDUPDATE
 40
2456153.588529236
  9
$TDUUPDATE
 40
2456153.880195903
  9
$TDINDWG
 40
0.2445081019
  9
$TDUSRTIMER
 40
0.2445081019
  9
$USRTIMER
 70
     1
  9
$ANGBASE
 50
0.0
  9
$ANGDIR
 70
     0
  9
$PDMODE
 70
     0
  9
$PDSIZE
 40
0.0
  9
$PLINEWID
 40
0.0
  9
$SPLFRAME
 70
     0
  9
$SPLINETYPE
 70
     6
  9
$SPLINESEGS
 70
     8
  9
$HANDSEED
  5
2D29
  9
$SURFTAB1
 70
     6
  9
$SURFTAB2
 70
     6
  9
$SURFTYPE
 70
     6
  9
$SURFU
 70
     6
  9
$SURFV
 70
     6
  9
$UCSBASE
  2

  9
$UCSNAME
  2

  9
$UCSORG
 10
0.0
 20
0.0
 30
0.0
  9
$UCSXDIR
 10
1.0
 20
0.0
 30
0.0
  9
$UCSYDIR
 10
0.0
 20
1.0
 30
0.0
  9
$UCSORTHOREF
  2

  9
$UCSORTHOVIEW
 70
     0
  9
$UCSORGTOP
 10
0.0
 20
0.0
 30
0.0
  9
$UCSORGBOTTOM
 10
0.0
 20
0.0
 30
0.0
  9
$UCSORGLEFT
 10
0.0
 20
0.0
 30
0.0
  9
$UCSORGRIGHT
 10
0.0
 20
0.0
 30
0.0
  9
$UCSORGFRONT
 10
0.0
 20
0.0
 30
0.0
  9
$UCSORGBACK
 10
0.0
 20
0.0
 30
0.0
  9
$PUCSBASE
  2

  9
$PUCSNAME
  2

  9
$PUCSORG
 10
0.0
 20
0.0
 30
0.0
  9
$PUCSXDIR
 10
1.0
 20
0.0
 30
0.0
  9
$PUCSYDIR
 10
0.0
 20
1.0
 30
0.0
  9
$PUCSORTHOREF
  2

  9
$PUCSORTHOVIEW
 70
     0
  9
$PUCSORGTOP
 10
0.0
 20
0.0
 30
0.0
  9
$PUCSORGBOTTOM
 10
0.0
 20
0.0
 30
0.0
  9
$PUCSORGLEFT
 10
0.0
 20
0.0
 30
0.0
  9
$PUCSORGRIGHT
 10
0.0
 20
0.0
 30
0.0
  9
$PUCSORGFRONT
 10
0.0
 20
0.0
 30
0.0
  9
$PUCSORGBACK
 10
0.0
 20
0.0
 30
0.0
  9
$USERI1
 70
     0
  9
$USERI2
 70
     0
  9
$USERI3
 70
     0
  9
$USERI4
 70
     0
  9
$USERI5
 70
     0
  9
$USERR1
 40
0.0
  9
$USERR2
 40
0.0
  9
$USERR3
 40
0.0
  9
$USERR4
 40
0.0
  9
$USERR5
 40
1.0
  9
$WORLDVIEW
 70
     1
  9
$SHADEDGE
 70
     3
  9
$SHADEDIF
 70
    70
  9
$TILEMODE
 70
     1
  9
$MAXACTVP
 70
    64
  9
$PINSBASE
 10
0.0
 20
0.0
 30
0.0
  9
$PLIMCHECK
 70
     0
  9
$PEXTMIN
 10
0.0
 20
0.0
 30
0.0
  9
$PEXTMAX
 10
0.0
 20
0.0
 30
0.0
  9
$PLIMMIN
 10
0.0
 20
0.0
  9
$PLIMMAX
 10
12.0
 20
9.0
  9
$UNITMODE
 70
     0
  9
$VISRETAIN
 70
     1
  9
$PLINEGEN
 70
     0
  9
$PSLTSCALE
 70
     1
  9
$TREEDEPTH
 70
  3020
  9
$CMLSTYLE
  2
Standard
  9
$CMLJUST
 70
     0
  9
$CMLSCALE
 40
1.0
  9
$PROXYGRAPHICS
 70
     1
  9
$MEASUREMENT
 70
     0
  9
$CELWEIGHT
370
    -1
  9
$ENDCAPS
280
     0
  9
$JOINSTYLE
280
     0
  9
$LWDISPLAY
290
     0
  9
$INSUNITS
 70
     1
  9
$HYPERLINKBASE
  1

  9
$STYLESHEET
  1

  9
$XEDIT
290
     1
  9
$CEPSNTYPE
380
     0
  9
$PSTYLEMODE
290
     1
  9
$FINGERPRINTGUID
  2
{54E25747-DECD-4F46-8E40-CC13C71438EE}
  9
$VERSIONGUID
  2
{DBBFA187-81DB-4F77-A7E1-10A8FC420134}
  9
$EXTNAMES
290
     1
  9
$PSVPSCALE
 40
0.0
  9
$OLESTARTUP
290
     0
  9
$SORTENTS
280
   127
  9
$INDEXCTL
280
     0
  9
$HIDETEXT
280
     1
  9
$XCLIPFRAME
290
     0
  9
$HALOGAP
280
     0
  9
$OBSCOLOR
 70
   257
  9
$OBSLTYPE
280
     0
  9
$INTERSECTIONDISPLAY
280
     0
  9
$INTERSECTIONCOLOR
 70
   257
  9
$DIMASSOC
280
     2
  9
$PROJECTNAME
  1

  0
ENDSEC
  0
SECTION
  2
CLASSES
  0
CLASS
  1
ACDBDICTIONARYWDFLT
  2
AcDbDictionaryWithDefault
  3
ObjectDBX Classes
 90
        0
 91
        1
280
     0
281
     0
  0
CLASS
  1
DICTIONARYVAR
  2
AcDbDictionaryVar
  3
ObjectDBX Classes
 90
        0
 91
       13
280
     0
281
     0
  0
CLASS
  1
TABLESTYLE
  2
AcDbTableStyle
  3
ObjectDBX Classes
 90
     4095
 91
        2
280
     0
281
     0
  0
CLASS
  1
MATERIAL
  2
AcDbMaterial
  3
ObjectDBX Classes
 90
     1153
 91
        3
280
     0
281
     0
  0
CLASS
  1
VISUALSTYLE
  2
AcDbVisualStyle
  3
ObjectDBX Classes
 90
     4095
 91
       26
280
     0
281
     0
  0
CLASS
  1
SCALE
  2
AcDbScale
  3
ObjectDBX Classes
 90
     1153
 91
       33
280
     0
281
     0
  0
CLASS
  1
MLEADERSTYLE
  2
AcDbMLeaderStyle
  3
ACDB_MLEADERSTYLE_CLASS
 90
     4095
 91
        2
280
     0
281
     0
  0
CLASS
  1
CELLSTYLEMAP
  2
AcDbCellStyleMap
  3
ObjectDBX Classes
 90
     1152
 91
        4
280
     0
281
     0
  0
CLASS
  1
EXACXREFPANELOBJECT
  2
ExAcXREFPanelObject
  3
EXAC_ESW
 90
     1025
 91
        0
280
     0
281
     0
  0
CLASS
  1
NPOCOLLECTION
  2
AcDbImpNonPersistentObjectsCollection
  3
ObjectDBX Classes
 90
     1153
 91
        0
280
     0
281
     0
  0
CLASS
  1
LAYER_INDEX
  2
AcDbLayerIndex
  3
ObjectDBX Classes
 90
        0
 91
        0
280
     0
281
     0
  0
CLASS
  1
SPATIAL_INDEX
  2
AcDbSpatialIndex
  3
ObjectDBX Classes
 90
        0
 91
        0
280
     0
281
     0
  0
CLASS
  1
IDBUFFER
  2
AcDbIdBuffer
  3
ObjectDBX Classes
 90
        0
 91
        0
280
     0
281
     0
  0
CLASS
  1
DMMAPMANAGER
  2
AcMapDMMapManager
  3
AcMapDisplayManagement
 90
     1024
 91
        1
280
     0
281
     0
  0
CLASS
  1
DMSTYLELIBRARY
  2
AcMapDMStyleLibrary
  3
AcMapDisplayManagement
 90
     1024
 91
        1
280
     0
281
     0
  0
CLASS
  1
DMSTYLECATEGORY
  2
AcMapDMStyleCategory
  3
AcMapDisplayManagement
 90
     1024
 91
        1
280
     0
281
     0
  0
CLASS
  1
DATATABLE
  2
AcDbDataTable
  3
ObjectDBX Classes
 90
        0
 91
        1
280
     0
281
     0
  0
CLASS
  1
DMMAP
  2
AcMapDMMap
  3
AcMapDisplayManagement
 90
     1024
 91
        1
280
     0
281
     0
  0
CLASS
  1
DMBASEELEMENT
  2
AcMapDMBaseElement
  3
AcMapDisplayManagement
 90
     1024
 91
        1
280
     0
281
     0
  0
CLASS
  1
DMDEFAULTSTYLE
  2
AcMapDMDefaultStyle
  3
AcMapDisplayManagement
 90
     1024
 91
        1
280
     0
281
     0
  0
CLASS
  1
DMSTYLEREFERENCE
  2
AcMapDMStyleReference
  3
AcMapDisplayManagement
 90
     1024
 91
        1
280
     0
281
     0
  0
CLASS
  1
DMSURROGATESTYLESETS
  2
AcMapDMSurrogateStyleSets
  3
AcMapDisplayManagement
 90
     1153
 91
        1
280
     0
281
     0
  0
CLASS
  1
SORTENTSTABLE
  2
AcDbSortentsTable
  3
ObjectDBX Classes
 90
        0
 91
        2
280
     0
281
     0
  0
CLASS
  1
DMSTYLIZEDENTITIESTABLE
  2
AcMapDMStylizedEntitiesTable
  3
AcMapDisplayManagement
 90
     1024
 91
        1
280
     0
281
     0
  0
CLASS
  1
MAPGWSUNDOOBJECT
  2
AcMapGWSUndoRecorder
  3
AcMapFeatureSourceManager
 90
     1025
 91
        1
280
     0
281
     0
  0
CLASS
  1
SUN
  2
AcDbSun
  3
SCENEOE
 90
     1153
 91
        1
280
     0
281
     0
  0
CLASS
  1
GEODATA
  2
AcDbGeoData
  3
ObjectDBX Classes
 90
     4095
 91
        1
280
     0
281
     0
  0
CLASS
  1
MAPRESOURCEMANAGEROBJECT
  2
AcMapResourceManager
  3
AcMapSharedComponents
 90
     1024
 91
        0
280
     0
281
     0
  0
CLASS
  1
MULTILEADER
  2
AcDbMLeader
  3
ACDB_MLEADER_CLASS
 90
     1025
 91
       11
280
     0
281
     1
  0
CLASS
  1
AEC_REFEDIT_STATUS_TRACKER
  2
AecDbRefEditStatusTracker
  3
AecArchBase60|Product Desc: Autodesk Architectural Desktop 2007 |Company: Autodesk,Inc. |WEB Address: www.autodesk.com
 90
      129
 91
        0
280
     0
281
     0
  0
CLASS
  1
PLOTSETTINGS
  2
AcDbPlotSettings
  3
ObjectDBX Classes
 90
        0
 91
        1
280
     0
281
     0
  0
ENDSEC
  0
SECTION
  2
TABLES
  0
TABLE
  2
VPORT
  5
8
102
{ACAD_XDICTIONARY
360
2CBB
102
}
330
0
100
AcDbSymbolTable
 70
     1
  0
VPORT
  5
94
330
8
100
AcDbSymbolTableRecord
100
AcDbViewportTableRecord
  2
*Active
 70
     0
 10
0.0
 20
0.0
 11
1.0
 21
1.0
 12
4.373785680075331
 22
4.192915037448231
 13
0.0
 23
0.0
 14
0.5
 24
0.5
 15
0.5
 25
0.5
 16
0.0
 26
0.0
 36
1.0
 17
0.0
 27
0.0
 37
0.0
 40
7.175971470407961
 41
1.784580498866213
 42
50.0
 43
0.0
 44
0.0
 50
0.0
 51
0.0
 71
     0
 72
  1000
 73
     1
 74
     3
 75
     0
 76
     0
 77
     0
 78
     0
281
     0
 65
     1
110
0.0
120
0.0
130
0.0
111
1.0
121
0.0
131
0.0
112
0.0
122
1.0
132
0.0
 79
     0
146
0.0
1001
ACAD_NAV_VCDISPLAY
1070
     3
  0
ENDTAB
  0
TABLE
  2
LTYPE
  5
5
330
0
100
AcDbSymbolTable
 70
     2
  0
LTYPE
  5
14
330
5
100
AcDbSymbolTableRecord
100
AcDbLinetypeTableRecord
  2
ByBlock
 70
     0
  3

 72
    65
 73
     0
 40
0.0
  0
LTYPE
  5
15
330
5
100
AcDbSymbolTableRecord
100
AcDbLinetypeTableRecord
  2
ByLayer
 70
     0
  3

 72
    65
 73
     0
 40
0.0
  0
LTYPE
  5
16
330
5
100
AcDbSymbolTableRecord
100
AcDbLinetypeTableRecord
  2
Continuous
 70
     0
  3
Solid line
 72
    65
 73
     0
 40
0.0
  0
LTYPE
  5
1F2
330
5
100
AcDbSymbolTableRecord
100
AcDbLinetypeTableRecord
  2
HIDDEN
 70
     0
  3
Hidden __ __ __ __ __ __ __ __ __ __ __ __ __ _
 72
    65
 73
     2
 40
0.375
 49
0.25
 74
     0
 49
-0.125
 74
     0
  0
ENDTAB
  0
TABLE
  2
LAYER
  5
2
102
{ACAD_XDICTIONARY
360
20C
102
}
330
0
100
AcDbSymbolTable
 70
    14
  0
LAYER
  5
10
102
{ACAD_XDICTIONARY
360
E6
102
}
330
2
100
AcDbSymbolTableRecord
100
AcDbLayerTableRecord
  2
0
 70
     0
 62
     7
  6
Continuous
370
    -3
390
F
  0
LAYER
  5
27B7
330
2
100
AcDbSymbolTableRecord
100
AcDbLayerTableRecord
  2
NETAFIM-L-DETL-025M
 70
     0
 62
     2
  6
Continuous
370
    -3
390
F
  0
LAYER
  5
27B8
330
2
100
AcDbSymbolTableRecord
100
AcDbLayerTableRecord
  2
NETAFIM-LG-DETL-ANNO
 70
     0
 62
     1
  6
Continuous
370
    -3
390
F
  0
LAYER
  5
27B9
102
{ACAD_XDICTIONARY
360
27BA
102
}
330
2
100
AcDbSymbolTableRecord
100
AcDbLayerTableRecord
  2
NETAFIM-D-TEXT-025M
 70
     0
 62
     2
  6
Continuous
370
    -3
390
F
  0
LAYER
  5
27BB
102
{ACAD_XDICTIONARY
360
27BC
102
}
330
2
100
AcDbSymbolTableRecord
100
AcDbLayerTableRecord
  2
NETAFIM-D-070M
 70
     0
 62
     6
  6
Continuous
370
    -3
390
F
  0
LAYER
  5
27BD
102
{ACAD_XDICTIONARY
360
27BE
102
}
330
2
100
AcDbSymbolTableRecord
100
AcDbLayerTableRecord
  2
NETAFIM-D-NPLT
 70
     0
 62
     1
  6
Continuous
370
    -3
390
F
  0
LAYER
  5
27BF
330
2
100
AcDbSymbolTableRecord
100
AcDbLayerTableRecord
  2
NETAFIM-L-DETL-013M
 70
     0
 62
     1
  6
Continuous
370
    -3
390
F
  0
LAYER
  5
27C0
102
{ACAD_XDICTIONARY
360
27C1
102
}
330
2
100
AcDbSymbolTableRecord
100
AcDbLayerTableRecord
  2
NETAFIM-L-DETL-TEXT-025M
 70
     0
 62
     2
  6
Continuous
370
    -3
390
F
  0
LAYER
  5
27C2
102
{ACAD_XDICTIONARY
360
27C3
102
}
330
2
100
AcDbSymbolTableRecord
100
AcDbLayerTableRecord
  2
NETAFIM-L-DETL-TEXT-LEADER-025M
 70
     0
 62
     2
  6
Continuous
370
    -3
390
F
1001
AcAecLayerStandard
1000

1000

  0
LAYER
  5
27C4
330
2
100
AcDbSymbolTableRecord
100
AcDbLayerTableRecord
  2
NETAFIM-L-DETL-050M
 70
     0
 62
     5
  6
Continuous
370
    -3
390
F
  0
LAYER
  5
27C5
330
2
100
AcDbSymbolTableRecord
100
AcDbLayerTableRecord
  2
NETAFIM-L-DETL-035M
 70
     0
 62
     4
  6
Continuous
370
    -3
390
F
  0
LAYER
  5
27C6
330
2
100
AcDbSymbolTableRecord
100
AcDbLayerTableRecord
  2
NETAFIM-L-DETL-HIDD-035M
 70
     0
 62
     4
  6
HIDDEN
370
    -3
390
F
  0
LAYER
  5
27C7
330
2
100
AcDbSymbolTableRecord
100
AcDbLayerTableRecord
  2
NETAFIM-L-DETL-025M-TUBING
 70
     0
 62
    25
  6
Continuous
370
    -3
390
F
1001
AcAecLayerStandard
1000

1000

  0
LAYER
  5
2BD0
330
2
100
AcDbSymbolTableRecord
100
AcDbLayerTableRecord
  2
NETAFIN-L-DETL-TEXT
 70
     0
 62
     1
  6
Continuous
370
    -3
390
F
1001
AcAecLayerStandard
1000

1000

1001
AcCmTransparency
1071
        0
  0
ENDTAB
  0
TABLE
  2
STYLE
  5
3
330
0
100
AcDbSymbolTable
 70
     6
  0
STYLE
  5
11
330
3
100
AcDbSymbolTableRecord
100
AcDbTextStyleTableRecord
  2
Standard
 70
     0
 40
0.0
 41
1.0
 50
0.0
 71
     0
 42
0.2
  3
arial.ttf
  4

1001
ACAD
1000
Arial
1071
       34
  0
STYLE
  5
180
330
3
100
AcDbSymbolTableRecord
100
AcDbTextStyleTableRecord
  2
Legend
 70
     0
 40
0.0
 41
1.0
 50
0.0
 71
     0
 42
0.2
  3
CALIBRI.TTF
  4

1001
ACAD
1000
Calibri
1071
      256
  0
STYLE
  5
1A9
330
3
100
AcDbSymbolTableRecord
100
AcDbTextStyleTableRecord
  2
DETAIL NUMBER
 70
     0
 40
0.0
 41
1.0
 50
0.0
 71
     0
 42
0.24
  3
swiss.ttf
  4

1001
ACAD
1000
Swis721 BT
1071
       34
  0
STYLE
  5
1AA
330
3
100
AcDbSymbolTableRecord
100
AcDbTextStyleTableRecord
  2
DETAIL TITLE
 70
     0
 40
0.0
 41
1.0
 50
0.0
 71
     0
 42
0.18
  3
swiss.ttf
  4

1001
ACAD
1000
Swis721 BT
1071
       34
  0
STYLE
  5
1AB
330
3
100
AcDbSymbolTableRecord
100
AcDbTextStyleTableRecord
  2
DETAIL TEXT
 70
     0
 40
0.0
 41
1.0
 50
0.0
 71
     0
 42
0.09
  3
ROMANS.SHX
  4

  0
STYLE
  5
27C8
330
3
100
AcDbSymbolTableRecord
100
AcDbTextStyleTableRecord
  2
Netafim Detail
 70
     0
 40
0.09
 41
1.0
 50
0.0
 71
     0
 42
0.2
  3
arial.ttf
  4

1001
ACAD
1000
Arial
1071
       34
  0
ENDTAB
  0
TABLE
  2
VIEW
  5
6
330
0
100
AcDbSymbolTable
 70
     0
  0
ENDTAB
  0
TABLE
  2
UCS
  5
7
330
0
100
AcDbSymbolTable
 70
     0
  0
ENDTAB
  0
TABLE
  2
APPID
  5
9
330
0
100
AcDbSymbolTable
 70
    18
  0
APPID
  5
12
330
9
100
AcDbSymbolTableRecord
100
AcDbRegAppTableRecord
  2
ACAD
 70
     0
  0
APPID
  5
DD
330
9
100
AcDbSymbolTableRecord
100
AcDbRegAppTableRecord
  2
AcadAnnoPO
 70
     0
  0
APPID
  5
DE
330
9
100
AcDbSymbolTableRecord
100
AcDbRegAppTableRecord
  2
AcadAnnotative
 70
     0
  0
APPID
  5
DF
330
9
100
AcDbSymbolTableRecord
100
AcDbRegAppTableRecord
  2
ACAD_DSTYLE_DIMJAG
 70
     0
  0
APPID
  5
E0
330
9
100
AcDbSymbolTableRecord
100
AcDbRegAppTableRecord
  2
ACAD_DSTYLE_DIMTALN
 70
     0
  0
APPID
  5
107
330
9
100
AcDbSymbolTableRecord
100
AcDbRegAppTableRecord
  2
ACAD_MLEADERVER
 70
     0
  0
APPID
  5
184
330
9
100
AcDbSymbolTableRecord
100
AcDbRegAppTableRecord
  2
AcMapDMDisplayStyleRegapp
 70
     0
  0
APPID
  5
18E
330
9
100
AcDbSymbolTableRecord
100
AcDbRegAppTableRecord
  2
ADE
 70
     0
  0
APPID
  5
191
330
9
100
AcDbSymbolTableRecord
100
AcDbRegAppTableRecord
  2
MapGWS
 70
     0
  0
APPID
  5
194
330
9
100
AcDbSymbolTableRecord
100
AcDbRegAppTableRecord
  2
DCO15
 70
     0
  0
APPID
  5
19E
330
9
100
AcDbSymbolTableRecord
100
AcDbRegAppTableRecord
  2
LandFX
 70
     0
  0
APPID
  5
1AC
330
9
100
AcDbSymbolTableRecord
100
AcDbRegAppTableRecord
  2
RAK
 70
     0
  0
APPID
  5
1AD
330
9
100
AcDbSymbolTableRecord
100
AcDbRegAppTableRecord
  2
ACAD_EXEMPT_FROM_CAD_STANDARDS
 70
     0
  0
APPID
  5
209
330
9
100
AcDbSymbolTableRecord
100
AcDbRegAppTableRecord
  2
ACAD_PSEXT
 70
     0
  0
APPID
  5
20A
330
9
100
AcDbSymbolTableRecord
100
AcDbRegAppTableRecord
  2
AcAecLayerStandard
 70
     0
  0
APPID
  5
20B
330
9
100
AcDbSymbolTableRecord
100
AcDbRegAppTableRecord
  2
ACAD_NAV_VCDISPLAY
 70
     0
  0
APPID
  5
27CA
330
9
100
AcDbSymbolTableRecord
100
AcDbRegAppTableRecord
  2
ACAD_DSTYLE_DIMBREAK
 70
     0
  0
APPID
  5
2BD1
330
9
100
AcDbSymbolTableRecord
100
AcDbRegAppTableRecord
  2
AcCmTransparency
 70
     0
  0
ENDTAB
  0
TABLE
  2
DIMSTYLE
  5
A
330
0
100
AcDbSymbolTable
 70
     2
100
AcDbDimStyleTable
 71
     1
340
27
  0
DIMSTYLE
105
27
330
A
100
AcDbSymbolTableRecord
100
AcDbDimStyleTableRecord
  2
Standard
 70
     0
340
11
  0
DIMSTYLE
105
27C9
330
A
100
AcDbSymbolTableRecord
100
AcDbDimStyleTableRecord
  2
Netafim Detail
 70
     0
 41
0.12
140
0.09
271
     2
272
     2
340
27C8
1001
ACAD_DSTYLE_DIMBREAK
1070
   391
1040
0.125
1001
ACAD_DSTYLE_DIMJAG
1070
   388
1040
1.5
1001
ACAD_DSTYLE_DIMTALN
1070
   392
1070
     0
  0
ENDTAB
  0
TABLE
  2
BLOCK_RECORD
  5
1
330
0
100
AcDbSymbolTable
 70
     2
  0
BLOCK_RECORD
  5
1F
102
{ACAD_XDICTIONARY
360
15D
102
}
330
1
100
AcDbSymbolTableRecord
100
AcDbBlockTableRecord
  2
*Model_Space
340
22
  0
BLOCK_RECORD
  5
58
330
1
100
AcDbSymbolTableRecord
100
AcDbBlockTableRecord
  2
*Paper_Space
340
59
  0
BLOCK_RECORD
  5
5D
330
1
100
AcDbSymbolTableRecord
100
AcDbBlockTableRecord
  2
*Paper_Space0
340
5E
  0
BLOCK_RECORD
  5
2C83
102
{ACAD_XDICTIONARY
360
2C84
102
}
330
1
100
AcDbSymbolTableRecord
100
AcDbBlockTableRecord
  2
LIMITATIONS
340
0
102
{BLKREFS
331
2C94
102
}
1001
ACAD
1000
DesignCenter Data
1002
{
1070
     1
1070
     1
1002
}
  0
ENDTAB
  0
ENDSEC
  0
SECTION
  2
BLOCKS
  0
BLOCK
  5
20
330
1F
100
AcDbEntity
  8
0
100
AcDbBlockBegin
  2
*Model_Space
 70
     0
 10
0.0
 20
0.0
 30
0.0
  3
*Model_Space
  1

  0
ENDBLK
  5
21
330
1F
100
AcDbEntity
  8
0
100
AcDbBlockEnd
  0
BLOCK
  5
5A
330
58
100
AcDbEntity
 67
     1
  8
0
100
AcDbBlockBegin
  2
*Paper_Space
 70
     0
 10
0.0
 20
0.0
 30
0.0
  3
*Paper_Space
  1

  0
ENDBLK
  5
5B
330
58
100
AcDbEntity
 67
     1
  8
0
100
AcDbBlockEnd
  0
BLOCK
  5
5F
330
5D
100
AcDbEntity
 67
     1
  8
0
100
AcDbBlockBegin
  2
*Paper_Space0
 70
     0
 10
0.0
 20
0.0
 30
0.0
  3
*Paper_Space0
  1

  0
ENDBLK
  5
60
330
5D
100
AcDbEntity
 67
     1
  8
0
100
AcDbBlockEnd
  0
BLOCK
  5
2C86
330
2C83
100
AcDbEntity
  8
0
100
AcDbBlockBegin
  2
LIMITATIONS
 70
     0
 10
0.0
 20
0.0
 30
0.0
  3
LIMITATIONS
  1

  0
MTEXT
  5
2C87
330
2C83
100
AcDbEntity
  8
NETAFIM-D-NPLT
100
AcDbMText
 10
-0.7827171174748458
 20
0.2352495300830739
 30
0.0
 40
0.06
 41
6.843161446901433
 71
     1
 72
     5
  3
{\fArial|b0|i0|c0|p34;LIMITATIONS:\P\PALLOWING FOR A WIDE VARIETY OF APPLICATIONS AND CONDITIONS, NETAFIM IRRIGATION INC. IS NOT RESPONSIBLE FOR CORRECTNESS OR APPLICABILITY TO PURPOSE OR COMPATIBILITY TO ANY SITE OR JOB CONDITION. WARRANTY FOR SUITA
  3
BILITY IS NOT GIVEN OR IMPLIED. MODIFICATIONS FOR SPECIFIC PURPOSES MAY BE NECESSARY AND ARE THE SPECIFIERS' RESPONSIBILITY. THE USE OF THESE DETAILS SHALL NOT BE RESTRICTED AND PUBLICATION THEREOF IS NOT LIMITED TO ANY PURPOSE.  REPRODUCTION, PUBLIC
  1
ATION AND REUSE BY ANY METHOD IN WHOLE OR PART IS FULLY AUTHORIZED. OWNERSHIP IS RETAINED BY NETAFIM IRRIGATION INC.  VISUAL CONTACT WITH THESE DETAILS SHALL CONSTITUTE PRIMA FACIA EVIDENCE OF THE ACCEPTANCE OF THESE RESTRICTIONS.}
  7
DETAIL TEXT
 11
0.0000000000000001
 21
1.0
 31
0.0
 73
     1
 44
1.0
1001
ACAD
1000
ACAD_MTEXT_COLUMN_INFO_BEGIN
1070
    75
1070
     2
1070
    79
1070
     0
1070
    76
1070
     1
1070
    78
1070
     0
1070
    48
1040
6.843161446901433
1070
    49
1040
0.45
1070
    50
1070
     1
1040
0.0
1000
ACAD_MTEXT_COLUMN_INFO_END
  0
LWPOLYLINE
  5
2C88
330
2C83
100
AcDbEntity
  8
NETAFIM-D-NPLT
100
AcDbPolyline
 90
        4
 70
     1
 43
0.0
 10
0.0
 20
7.124999999999998
 10
-0.8951802582263113
 20
7.124999999999998
 10
-0.8951802582263113
 20
0.0
 10
0.0
 20
0.0
  0
ENDBLK
  5
2C89
330
2C83
100
AcDbEntity
  8
0
100
AcDbBlockEnd
  0
ENDSEC
  0
SECTION
  2
ENTITIES
  0
LWPOLYLINE
  5
29C2
330
1F
100
AcDbEntity
  8
NETAFIM-L-DETL-025M
100
AcDbPolyline
 90
        4
 70
     1
 43
0.0
 10
4.291669022291799
 20
4.964824804481464
 10
4.415437022291797
 20
4.964824804481464
 10
4.415437022291797
 20
4.761064804481463
 10
4.291669022291799
 20
4.761064804481463
  0
POLYLINE
  5
29C3
330
1F
100
AcDbEntity
  8
NETAFIM-L-DETL-035M
100
AcDb2dPolyline
 66
     1
 10
0.0
 20
0.0
 30
0.0
 70
     4
  0
VERTEX
  5
29C4
330
29C3
100
AcDbEntity
  8
NETAFIM-L-DETL-035M
100
AcDbVertex
100
AcDb2dVertex
 10
4.356325022291798
 20
6.644296804481465
 30
0.0
 70
    16
  0
VERTEX
  5
29C5
330
29C3
100
AcDbEntity
  8
NETAFIM-L-DETL-035M
100
AcDbVertex
100
AcDb2dVertex
 10
4.356325022291798
 20
6.644296804481465
 30
0.0
 70
     8
  0
VERTEX
  5
29C6
330
29C3
100
AcDbEntity
  8
NETAFIM-L-DETL-035M
100
AcDbVertex
100
AcDb2dVertex
 10
4.360213022291798
 20
6.644296804481465
 30
0.0
 70
     8
  0
VERTEX
  5
29C7
330
29C3
100
AcDbEntity
  8
NETAFIM-L-DETL-035M
100
AcDbVertex
100
AcDb2dVertex
 10
4.370437022291799
 20
6.644296804481465
 30
0.0
 70
     8
  0
VERTEX
  5
29C8
330
29C3
100
AcDbEntity
  8
NETAFIM-L-DETL-035M
100
AcDbVertex
100
AcDb2dVertex
 10
4.384837022291797
 20
6.644296804481465
 30
0.0
 70
     8
  0
VERTEX
  5
29C9
330
29C3
100
AcDbEntity
  8
NETAFIM-L-DETL-035M
100
AcDbVertex
100
AcDb2dVertex
 10
4.4013250222918
 20
6.644296804481465
 30
0.0
 70
     8
  0
VERTEX
  5
29CA
330
29C3
100
AcDbEntity
  8
NETAFIM-L-DETL-035M
100
AcDbVertex
100
AcDb2dVertex
 10
4.417885022291798
 20
6.644296804481465
 30
0.0
 70
     8
  0
VERTEX
  5
29CB
330
29C3
100
AcDbEntity
  8
NETAFIM-L-DETL-035M
100
AcDbVertex
100
AcDb2dVertex
 10
4.4322850222918
 20
6.644296804481465
 30
0.0
 70
     8
  0
VERTEX
  5
29CC
330
29C3
100
AcDbEntity
  8
NETAFIM-L-DETL-035M
100
AcDbVertex
100
AcDb2dVertex
 10
4.442509022291798
 20
6.644296804481465
 30
0.0
 70
     8
  0
VERTEX
  5
29CD
330
29C3
100
AcDbEntity
  8
NETAFIM-L-DETL-035M
100
AcDbVertex
100
AcDb2dVertex
 10
4.446325022291798
 20
6.644296804481465
 30
0.0
 70
     8
  0
VERTEX
  5
29CE
330
29C3
100
AcDbEntity
  8
NETAFIM-L-DETL-035M
100
AcDbVertex
100
AcDb2dVertex
 10
4.356325022291798
 20
6.644296804481465
 30
0.0
 70
    16
  0
VERTEX
  5
29CF
330
29C3
100
AcDbEntity
  8
NETAFIM-L-DETL-035M
100
AcDbVertex
100
AcDb2dVertex
 10
4.446325022291798
 20
6.644296804481465
 30
0.0
 70
    16
  0
VERTEX
  5
29D0
330
29C3
100
AcDbEntity
  8
NETAFIM-L-DETL-035M
100
AcDbVertex
100
AcDb2dVertex
 10
4.446325022291798
 20
6.644296804481465
 30
0.0
 70
    16
  0
SEQEND
  5
29D1
330
29C3
100
AcDbEntity
  8
NETAFIM-L-DETL-035M
  0
POLYLINE
  5
29D2
330
1F
100
AcDbEntity
  8
NETAFIM-L-DETL-035M
100
AcDb2dPolyline
 66
     1
 10
0.0
 20
0.0
 30
0.0
 70
     4
  0
VERTEX
  5
29D3
330
29D2
100
AcDbEntity
  8
NETAFIM-L-DETL-035M
100
AcDbVertex
100
AcDb2dVertex
 10
4.446325022291798
 20
6.644296804481465
 30
0.0
 70
    16
  0
VERTEX
  5
29D4
330
29D2
100
AcDbEntity
  8
NETAFIM-L-DETL-035M
100
AcDbVertex
100
AcDb2dVertex
 10
4.446325022291798
 20
6.644296804481465
 30
0.0
 70
     8
  0
VERTEX
  5
29D5
330
29D2
100
AcDbEntity
  8
NETAFIM-L-DETL-035M
100
AcDbVertex
100
AcDb2dVertex
 10
4.465189022291795
 20
6.642352804481463
 30
0.0
 70
     8
  0
VERTEX
  5
29D6
330
29D2
100
AcDbEntity
  8
NETAFIM-L-DETL-035M
100
AcDbVertex
100
AcDb2dVertex
 10
4.482685022291796
 20
6.636880804481464
 30
0.0
 70
     8
  0
VERTEX
  5
29D7
330
29D2
100
AcDbEntity
  8
NETAFIM-L-DETL-035M
100
AcDbVertex
100
AcDb2dVertex
 10
4.498597022291797
 20
6.628168804481463
 30
0.0
 70
     8
  0
VERTEX
  5
29D8
330
29D2
100
AcDbEntity
  8
NETAFIM-L-DETL-035M
100
AcDbVertex
100
AcDb2dVertex
 10
4.512493022291799
 20
6.616720804481463
 30
0.0
 70
     8
  0
VERTEX
  5
29D9
330
29D2
100
AcDbEntity
  8
NETAFIM-L-DETL-035M
100
AcDbVertex
100
AcDb2dVertex
 10
4.524013022291796
 20
6.602824804481462
 30
0.0
 70
     8
  0
VERTEX
  5
29DA
330
29D2
100
AcDbEntity
  8
NETAFIM-L-DETL-035M
100
AcDbVertex
100
AcDb2dVertex
 10
4.532725022291799
 20
6.586912804481462
 30
0.0
 70
     8
  0
VERTEX
  5
29DB
330
29D2
100
AcDbEntity
  8
NETAFIM-L-DETL-035M
100
AcDbVertex
100
AcDb2dVertex
 10
4.538197022291797
 20
6.569344804481463
 30
0.0
 70
     8
  0
VERTEX
  5
29DC
330
29D2
100
AcDbEntity
  8
NETAFIM-L-DETL-035M
100
AcDbVertex
100
AcDb2dVertex
 10
4.540141022291798
 20
6.550552804481464
 30
0.0
 70
     8
  0
VERTEX
  5
29DD
330
29D2
100
AcDbEntity
  8
NETAFIM-L-DETL-035M
100
AcDbVertex
100
AcDb2dVertex
 10
4.4978050222918
 20
6.644296804481465
 30
0.0
 70
    16
  0
VERTEX
  5
29DE
330
29D2
100
AcDbEntity
  8
NETAFIM-L-DETL-035M
100
AcDbVertex
100
AcDb2dVertex
 10
4.540141022291798
 20
6.601960804481464
 30
0.0
 70
    16
  0
VERTEX
  5
29DF
330
29D2
100
AcDbEntity
  8
NETAFIM-L-DETL-035M
100
AcDbVertex
100
AcDb2dVertex
 10
4.540141022291798
 20
6.550552804481464
 30
0.0
 70
    16
  0
SEQEND
  5
29E0
330
29D2
100
AcDbEntity
  8
NETAFIM-L-DETL-035M
  0
POLYLINE
  5
29E1
330
1F
100
AcDbEntity
  8
NETAFIM-L-DETL-035M
100
AcDb2dPolyline
 66
     1
 10
0.0
 20
0.0
 30
0.0
 70
     4
  0
VERTEX
  5
29E2
330
29E1
100
AcDbEntity
  8
NETAFIM-L-DETL-035M
100
AcDbVertex
100
AcDb2dVertex
 10
4.540141022291798
 20
6.550552804481464
 30
0.0
 70
    16
  0
VERTEX
  5
29E3
330
29E1
100
AcDbEntity
  8
NETAFIM-L-DETL-035M
100
AcDbVertex
100
AcDb2dVertex
 10
4.540141022291798
 20
6.550552804481464
 30
0.0
 70
     8
  0
VERTEX
  5
29E4
330
29E1
100
AcDbEntity
  8
NETAFIM-L-DETL-035M
100
AcDbVertex
100
AcDb2dVertex
 10
4.540141022291798
 20
6.533128804481464
 30
0.0
 70
     8
  0
VERTEX
  5
29E5
330
29E1
100
AcDbEntity
  8
NETAFIM-L-DETL-035M
100
AcDbVertex
100
AcDb2dVertex
 10
4.540141022291798
 20
6.487264804481464
 30
0.0
 70
     8
  0
VERTEX
  5
29E6
330
29E1
100
AcDbEntity
  8
NETAFIM-L-DETL-035M
100
AcDbVertex
100
AcDb2dVertex
 10
4.540141022291798
 20
6.422392804481463
 30
0.0
 70
     8
  0
VERTEX
  5
29E7
330
29E1
100
AcDbEntity
  8
NETAFIM-L-DETL-035M
100
AcDbVertex
100
AcDb2dVertex
 10
4.540141022291798
 20
6.348016804481463
 30
0.0
 70
     8
  0
VERTEX
  5
29E8
330
29E1
100
AcDbEntity
  8
NETAFIM-L-DETL-035M
100
AcDbVertex
100
AcDb2dVertex
 10
4.540141022291798
 20
6.273712804481464
 30
0.0
 70
     8
  0
VERTEX
  5
29E9
330
29E1
100
AcDbEntity
  8
NETAFIM-L-DETL-035M
100
AcDbVertex
100
AcDb2dVertex
 10
4.540141022291798
 20
6.208840804481463
 30
0.0
 70
     8
  0
VERTEX
  5
29EA
330
29E1
100
AcDbEntity
  8
NETAFIM-L-DETL-035M
100
AcDbVertex
100
AcDb2dVertex
 10
4.540141022291798
 20
6.162904804481465
 30
0.0
 70
     8
  0
VERTEX
  5
29EB
330
29E1
100
AcDbEntity
  8
NETAFIM-L-DETL-035M
100
AcDbVertex
100
AcDb2dVertex
 10
4.540141022291798
 20
6.145552804481463
 30
0.0
 70
     8
  0
VERTEX
  5
29EC
330
29E1
100
AcDbEntity
  8
NETAFIM-L-DETL-035M
100
AcDbVertex
100
AcDb2dVertex
 10
4.540141022291798
 20
6.550552804481464
 30
0.0
 70
    16
  0
VERTEX
  5
29ED
330
29E1
100
AcDbEntity
  8
NETAFIM-L-DETL-035M
100
AcDbVertex
100
AcDb2dVertex
 10
4.540141022291798
 20
6.145552804481463
 30
0.0
 70
    16
  0
VERTEX
  5
29EE
330
29E1
100
AcDbEntity
  8
NETAFIM-L-DETL-035M
100
AcDbVertex
100
AcDb2dVertex
 10
4.540141022291798
 20
6.145552804481463
 30
0.0
 70
    16
  0
SEQEND
  5
29EF
330
29E1
100
AcDbEntity
  8
NETAFIM-L-DETL-035M
  0
POLYLINE
  5
29F0
330
1F
100
AcDbEntity
  8
NETAFIM-L-DETL-035M
100
AcDb2dPolyline
 66
     1
 10
0.0
 20
0.0
 30
0.0
 70
     4
  0
VERTEX
  5
29F1
330
29F0
100
AcDbEntity
  8
NETAFIM-L-DETL-035M
100
AcDbVertex
100
AcDb2dVertex
 10
4.540141022291798
 20
6.145552804481463
 30
0.0
 70
    16
  0
VERTEX
  5
29F2
330
29F0
100
AcDbEntity
  8
NETAFIM-L-DETL-035M
100
AcDbVertex
100
AcDb2dVertex
 10
4.540141022291798
 20
6.145552804481463
 30
0.0
 70
     8
  0
VERTEX
  5
29F3
330
29F0
100
AcDbEntity
  8
NETAFIM-L-DETL-035M
100
AcDbVertex
100
AcDb2dVertex
 10
4.538197022291797
 20
6.126760804481465
 30
0.0
 70
     8
  0
VERTEX
  5
29F4
330
29F0
100
AcDbEntity
  8
NETAFIM-L-DETL-035M
100
AcDbVertex
100
AcDb2dVertex
 10
4.532725022291799
 20
6.109192804481464
 30
0.0
 70
     8
  0
VERTEX
  5
29F5
330
29F0
100
AcDbEntity
  8
NETAFIM-L-DETL-035M
100
AcDbVertex
100
AcDb2dVertex
 10
4.524013022291796
 20
6.093280804481464
 30
0.0
 70
     8
  0
VERTEX
  5
29F6
330
29F0
100
AcDbEntity
  8
NETAFIM-L-DETL-035M
100
AcDbVertex
100
AcDb2dVertex
 10
4.512493022291799
 20
6.079384804481463
 30
0.0
 70
     8
  0
VERTEX
  5
29F7
330
29F0
100
AcDbEntity
  8
NETAFIM-L-DETL-035M
100
AcDbVertex
100
AcDb2dVertex
 10
4.498597022291797
 20
6.067864804481464
 30
0.0
 70
     8
  0
VERTEX
  5
29F8
330
29F0
100
AcDbEntity
  8
NETAFIM-L-DETL-035M
100
AcDbVertex
100
AcDb2dVertex
 10
4.482685022291796
 20
6.059224804481464
 30
0.0
 70
     8
  0
VERTEX
  5
29F9
330
29F0
100
AcDbEntity
  8
NETAFIM-L-DETL-035M
100
AcDbVertex
100
AcDb2dVertex
 10
4.465189022291795
 20
6.053680804481464
 30
0.0
 70
     8
  0
VERTEX
  5
29FA
330
29F0
100
AcDbEntity
  8
NETAFIM-L-DETL-035M
100
AcDbVertex
100
AcDb2dVertex
 10
4.446325022291798
 20
6.051808804481463
 30
0.0
 70
     8
  0
VERTEX
  5
29FB
330
29F0
100
AcDbEntity
  8
NETAFIM-L-DETL-035M
100
AcDbVertex
100
AcDb2dVertex
 10
4.540141022291798
 20
6.094072804481465
 30
0.0
 70
    16
  0
VERTEX
  5
29FC
330
29F0
100
AcDbEntity
  8
NETAFIM-L-DETL-035M
100
AcDbVertex
100
AcDb2dVertex
 10
4.4978050222918
 20
6.051808804481463
 30
0.0
 70
    16
  0
VERTEX
  5
29FD
330
29F0
100
AcDbEntity
  8
NETAFIM-L-DETL-035M
100
AcDbVertex
100
AcDb2dVertex
 10
4.446325022291798
 20
6.051808804481463
 30
0.0
 70
    16
  0
SEQEND
  5
29FE
330
29F0
100
AcDbEntity
  8
NETAFIM-L-DETL-035M
  0
POLYLINE
  5
29FF
330
1F
100
AcDbEntity
  8
NETAFIM-L-DETL-035M
100
AcDb2dPolyline
 66
     1
 10
0.0
 20
0.0
 30
0.0
 70
     4
  0
VERTEX
  5
2A00
330
29FF
100
AcDbEntity
  8
NETAFIM-L-DETL-035M
100
AcDbVertex
100
AcDb2dVertex
 10
4.446325022291798
 20
6.051808804481463
 30
0.0
 70
    16
  0
VERTEX
  5
2A01
330
29FF
100
AcDbEntity
  8
NETAFIM-L-DETL-035M
100
AcDbVertex
100
AcDb2dVertex
 10
4.446325022291798
 20
6.051808804481463
 30
0.0
 70
     8
  0
VERTEX
  5
2A02
330
29FF
100
AcDbEntity
  8
NETAFIM-L-DETL-035M
100
AcDbVertex
100
AcDb2dVertex
 10
4.438621022291798
 20
6.051808804481463
 30
0.0
 70
     8
  0
VERTEX
  5
2A03
330
29FF
100
AcDbEntity
  8
NETAFIM-L-DETL-035M
100
AcDbVertex
100
AcDb2dVertex
 10
4.418245022291799
 20
6.051808804481463
 30
0.0
 70
     8
  0
VERTEX
  5
2A04
330
29FF
100
AcDbEntity
  8
NETAFIM-L-DETL-035M
100
AcDbVertex
100
AcDb2dVertex
 10
4.389373022291799
 20
6.051808804481463
 30
0.0
 70
     8
  0
VERTEX
  5
2A05
330
29FF
100
AcDbEntity
  8
NETAFIM-L-DETL-035M
100
AcDbVertex
100
AcDb2dVertex
 10
4.356325022291798
 20
6.051808804481463
 30
0.0
 70
     8
  0
VERTEX
  5
2A06
330
29FF
100
AcDbEntity
  8
NETAFIM-L-DETL-035M
100
AcDbVertex
100
AcDb2dVertex
 10
4.3233490222918
 20
6.051808804481463
 30
0.0
 70
     8
  0
VERTEX
  5
2A07
330
29FF
100
AcDbEntity
  8
NETAFIM-L-DETL-035M
100
AcDbVertex
100
AcDb2dVertex
 10
4.2944770222918
 20
6.051808804481463
 30
0.0
 70
     8
  0
VERTEX
  5
2A08
330
29FF
100
AcDbEntity
  8
NETAFIM-L-DETL-035M
100
AcDbVertex
100
AcDb2dVertex
 10
4.274101022291798
 20
6.051808804481463
 30
0.0
 70
     8
  0
VERTEX
  5
2A09
330
29FF
100
AcDbEntity
  8
NETAFIM-L-DETL-035M
100
AcDbVertex
100
AcDb2dVertex
 10
4.266325022291798
 20
6.051808804481463
 30
0.0
 70
     8
  0
VERTEX
  5
2A0A
330
29FF
100
AcDbEntity
  8
NETAFIM-L-DETL-035M
100
AcDbVertex
100
AcDb2dVertex
 10
4.446325022291798
 20
6.051808804481463
 30
0.0
 70
    16
  0
VERTEX
  5
2A0B
330
29FF
100
AcDbEntity
  8
NETAFIM-L-DETL-035M
100
AcDbVertex
100
AcDb2dVertex
 10
4.266325022291798
 20
6.051808804481463
 30
0.0
 70
    16
  0
VERTEX
  5
2A0C
330
29FF
100
AcDbEntity
  8
NETAFIM-L-DETL-035M
100
AcDbVertex
100
AcDb2dVertex
 10
4.266325022291798
 20
6.051808804481463
 30
0.0
 70
    16
  0
SEQEND
  5
2A0D
330
29FF
100
AcDbEntity
  8
NETAFIM-L-DETL-035M
  0
POLYLINE
  5
2A0E
330
1F
100
AcDbEntity
  8
NETAFIM-L-DETL-035M
100
AcDb2dPolyline
 66
     1
 10
0.0
 20
0.0
 30
0.0
 70
     4
  0
VERTEX
  5
2A0F
330
2A0E
100
AcDbEntity
  8
NETAFIM-L-DETL-035M
100
AcDbVertex
100
AcDb2dVertex
 10
4.266325022291798
 20
6.051808804481463
 30
0.0
 70
    16
  0
VERTEX
  5
2A10
330
2A0E
100
AcDbEntity
  8
NETAFIM-L-DETL-035M
100
AcDbVertex
100
AcDb2dVertex
 10
4.266325022291798
 20
6.051808804481463
 30
0.0
 70
     8
  0
VERTEX
  5
2A11
330
2A0E
100
AcDbEntity
  8
NETAFIM-L-DETL-035M
100
AcDbVertex
100
AcDb2dVertex
 10
4.247533022291797
 20
6.053680804481464
 30
0.0
 70
     8
  0
VERTEX
  5
2A12
330
2A0E
100
AcDbEntity
  8
NETAFIM-L-DETL-035M
100
AcDbVertex
100
AcDb2dVertex
 10
4.230037022291796
 20
6.059224804481464
 30
0.0
 70
     8
  0
VERTEX
  5
2A13
330
2A0E
100
AcDbEntity
  8
NETAFIM-L-DETL-035M
100
AcDbVertex
100
AcDb2dVertex
 10
4.214125022291796
 20
6.067864804481464
 30
0.0
 70
     8
  0
VERTEX
  5
2A14
330
2A0E
100
AcDbEntity
  8
NETAFIM-L-DETL-035M
100
AcDbVertex
100
AcDb2dVertex
 10
4.2002290222918
 20
6.079384804481463
 30
0.0
 70
     8
  0
VERTEX
  5
2A15
330
2A0E
100
AcDbEntity
  8
NETAFIM-L-DETL-035M
100
AcDbVertex
100
AcDb2dVertex
 10
4.188709022291796
 20
6.093280804481464
 30
0.0
 70
     8
  0
VERTEX
  5
2A16
330
2A0E
100
AcDbEntity
  8
NETAFIM-L-DETL-035M
100
AcDbVertex
100
AcDb2dVertex
 10
4.179997022291797
 20
6.109192804481464
 30
0.0
 70
     8
  0
VERTEX
  5
2A17
330
2A0E
100
AcDbEntity
  8
NETAFIM-L-DETL-035M
100
AcDbVertex
100
AcDb2dVertex
 10
4.174525022291796
 20
6.126760804481465
 30
0.0
 70
     8
  0
VERTEX
  5
2A18
330
2A0E
100
AcDbEntity
  8
NETAFIM-L-DETL-035M
100
AcDbVertex
100
AcDb2dVertex
 10
4.172581022291797
 20
6.145552804481463
 30
0.0
 70
     8
  0
VERTEX
  5
2A19
330
2A0E
100
AcDbEntity
  8
NETAFIM-L-DETL-035M
100
AcDbVertex
100
AcDb2dVertex
 10
4.2149170222918
 20
6.051808804481463
 30
0.0
 70
    16
  0
VERTEX
  5
2A1A
330
2A0E
100
AcDbEntity
  8
NETAFIM-L-DETL-035M
100
AcDbVertex
100
AcDb2dVertex
 10
4.172581022291797
 20
6.094072804481465
 30
0.0
 70
    16
  0
VERTEX
  5
2A1B
330
2A0E
100
AcDbEntity
  8
NETAFIM-L-DETL-035M
100
AcDbVertex
100
AcDb2dVertex
 10
4.172581022291797
 20
6.145552804481463
 30
0.0
 70
    16
  0
SEQEND
  5
2A1C
330
2A0E
100
AcDbEntity
  8
NETAFIM-L-DETL-035M
  0
POLYLINE
  5
2A1D
330
1F
100
AcDbEntity
  8
NETAFIM-L-DETL-035M
100
AcDb2dPolyline
 66
     1
 10
0.0
 20
0.0
 30
0.0
 70
     4
  0
VERTEX
  5
2A1E
330
2A1D
100
AcDbEntity
  8
NETAFIM-L-DETL-035M
100
AcDbVertex
100
AcDb2dVertex
 10
4.172581022291797
 20
6.145552804481463
 30
0.0
 70
    16
  0
VERTEX
  5
2A1F
330
2A1D
100
AcDbEntity
  8
NETAFIM-L-DETL-035M
100
AcDbVertex
100
AcDb2dVertex
 10
4.172581022291797
 20
6.145552804481463
 30
0.0
 70
     8
  0
VERTEX
  5
2A20
330
2A1D
100
AcDbEntity
  8
NETAFIM-L-DETL-035M
100
AcDbVertex
100
AcDb2dVertex
 10
4.172581022291797
 20
6.162904804481465
 30
0.0
 70
     8
  0
VERTEX
  5
2A21
330
2A1D
100
AcDbEntity
  8
NETAFIM-L-DETL-035M
100
AcDbVertex
100
AcDb2dVertex
 10
4.172581022291797
 20
6.208840804481463
 30
0.0
 70
     8
  0
VERTEX
  5
2A22
330
2A1D
100
AcDbEntity
  8
NETAFIM-L-DETL-035M
100
AcDbVertex
100
AcDb2dVertex
 10
4.172581022291797
 20
6.273712804481464
 30
0.0
 70
     8
  0
VERTEX
  5
2A23
330
2A1D
100
AcDbEntity
  8
NETAFIM-L-DETL-035M
100
AcDbVertex
100
AcDb2dVertex
 10
4.172581022291797
 20
6.348016804481463
 30
0.0
 70
     8
  0
VERTEX
  5
2A24
330
2A1D
100
AcDbEntity
  8
NETAFIM-L-DETL-035M
100
AcDbVertex
100
AcDb2dVertex
 10
4.172581022291797
 20
6.422392804481463
 30
0.0
 70
     8
  0
VERTEX
  5
2A25
330
2A1D
100
AcDbEntity
  8
NETAFIM-L-DETL-035M
100
AcDbVertex
100
AcDb2dVertex
 10
4.172581022291797
 20
6.487264804481464
 30
0.0
 70
     8
  0
VERTEX
  5
2A26
330
2A1D
100
AcDbEntity
  8
NETAFIM-L-DETL-035M
100
AcDbVertex
100
AcDb2dVertex
 10
4.172581022291797
 20
6.533128804481464
 30
0.0
 70
     8
  0
VERTEX
  5
2A27
330
2A1D
100
AcDbEntity
  8
NETAFIM-L-DETL-035M
100
AcDbVertex
100
AcDb2dVertex
 10
4.172581022291797
 20
6.550552804481464
 30
0.0
 70
     8
  0
VERTEX
  5
2A28
330
2A1D
100
AcDbEntity
  8
NETAFIM-L-DETL-035M
100
AcDbVertex
100
AcDb2dVertex
 10
4.172581022291797
 20
6.145552804481463
 30
0.0
 70
    16
  0
VERTEX
  5
2A29
330
2A1D
100
AcDbEntity
  8
NETAFIM-L-DETL-035M
100
AcDbVertex
100
AcDb2dVertex
 10
4.172581022291797
 20
6.550552804481464
 30
0.0
 70
    16
  0
VERTEX
  5
2A2A
330
2A1D
100
AcDbEntity
  8
NETAFIM-L-DETL-035M
100
AcDbVertex
100
AcDb2dVertex
 10
4.172581022291797
 20
6.550552804481464
 30
0.0
 70
    16
  0
SEQEND
  5
2A2B
330
2A1D
100
AcDbEntity
  8
NETAFIM-L-DETL-035M
  0
POLYLINE
  5
2A2C
330
1F
100
AcDbEntity
  8
NETAFIM-L-DETL-035M
100
AcDb2dPolyline
 66
     1
 10
0.0
 20
0.0
 30
0.0
 70
     4
  0
VERTEX
  5
2A2D
330
2A2C
100
AcDbEntity
  8
NETAFIM-L-DETL-035M
100
AcDbVertex
100
AcDb2dVertex
 10
4.172581022291797
 20
6.550552804481464
 30
0.0
 70
    16
  0
VERTEX
  5
2A2E
330
2A2C
100
AcDbEntity
  8
NETAFIM-L-DETL-035M
100
AcDbVertex
100
AcDb2dVertex
 10
4.172581022291797
 20
6.550552804481464
 30
0.0
 70
     8
  0
VERTEX
  5
2A2F
330
2A2C
100
AcDbEntity
  8
NETAFIM-L-DETL-035M
100
AcDbVertex
100
AcDb2dVertex
 10
4.174525022291796
 20
6.569344804481463
 30
0.0
 70
     8
  0
VERTEX
  5
2A30
330
2A2C
100
AcDbEntity
  8
NETAFIM-L-DETL-035M
100
AcDbVertex
100
AcDb2dVertex
 10
4.179997022291797
 20
6.586912804481462
 30
0.0
 70
     8
  0
VERTEX
  5
2A31
330
2A2C
100
AcDbEntity
  8
NETAFIM-L-DETL-035M
100
AcDbVertex
100
AcDb2dVertex
 10
4.188709022291796
 20
6.602824804481462
 30
0.0
 70
     8
  0
VERTEX
  5
2A32
330
2A2C
100
AcDbEntity
  8
NETAFIM-L-DETL-035M
100
AcDbVertex
100
AcDb2dVertex
 10
4.2002290222918
 20
6.616720804481463
 30
0.0
 70
     8
  0
VERTEX
  5
2A33
330
2A2C
100
AcDbEntity
  8
NETAFIM-L-DETL-035M
100
AcDbVertex
100
AcDb2dVertex
 10
4.214125022291796
 20
6.628168804481463
 30
0.0
 70
     8
  0
VERTEX
  5
2A34
330
2A2C
100
AcDbEntity
  8
NETAFIM-L-DETL-035M
100
AcDbVertex
100
AcDb2dVertex
 10
4.230037022291796
 20
6.636880804481464
 30
0.0
 70
     8
  0
VERTEX
  5
2A35
330
2A2C
100
AcDbEntity
  8
NETAFIM-L-DETL-035M
100
AcDbVertex
100
AcDb2dVertex
 10
4.247533022291797
 20
6.642352804481463
 30
0.0
 70
     8
  0
VERTEX
  5
2A36
330
2A2C
100
AcDbEntity
  8
NETAFIM-L-DETL-035M
100
AcDbVertex
100
AcDb2dVertex
 10
4.266325022291798
 20
6.644296804481465
 30
0.0
 70
     8
  0
VERTEX
  5
2A37
330
2A2C
100
AcDbEntity
  8
NETAFIM-L-DETL-035M
100
AcDbVertex
100
AcDb2dVertex
 10
4.172581022291797
 20
6.601960804481464
 30
0.0
 70
    16
  0
VERTEX
  5
2A38
330
2A2C
100
AcDbEntity
  8
NETAFIM-L-DETL-035M
100
AcDbVertex
100
AcDb2dVertex
 10
4.2149170222918
 20
6.644296804481465
 30
0.0
 70
    16
  0
VERTEX
  5
2A39
330
2A2C
100
AcDbEntity
  8
NETAFIM-L-DETL-035M
100
AcDbVertex
100
AcDb2dVertex
 10
4.266325022291798
 20
6.644296804481465
 30
0.0
 70
    16
  0
SEQEND
  5
2A3A
330
2A2C
100
AcDbEntity
  8
NETAFIM-L-DETL-035M
  0
POLYLINE
  5
2A3B
330
1F
100
AcDbEntity
  8
NETAFIM-L-DETL-035M
100
AcDb2dPolyline
 66
     1
 10
0.0
 20
0.0
 30
0.0
 70
     4
  0
VERTEX
  5
2A3C
330
2A3B
100
AcDbEntity
  8
NETAFIM-L-DETL-035M
100
AcDbVertex
100
AcDb2dVertex
 10
4.266325022291798
 20
6.644296804481465
 30
0.0
 70
    16
  0
VERTEX
  5
2A3D
330
2A3B
100
AcDbEntity
  8
NETAFIM-L-DETL-035M
100
AcDbVertex
100
AcDb2dVertex
 10
4.266325022291798
 20
6.644296804481465
 30
0.0
 70
     8
  0
VERTEX
  5
2A3E
330
2A3B
100
AcDbEntity
  8
NETAFIM-L-DETL-035M
100
AcDbVertex
100
AcDb2dVertex
 10
4.270213022291798
 20
6.644296804481465
 30
0.0
 70
     8
  0
VERTEX
  5
2A3F
330
2A3B
100
AcDbEntity
  8
NETAFIM-L-DETL-035M
100
AcDbVertex
100
AcDb2dVertex
 10
4.280437022291799
 20
6.644296804481465
 30
0.0
 70
     8
  0
VERTEX
  5
2A40
330
2A3B
100
AcDbEntity
  8
NETAFIM-L-DETL-035M
100
AcDbVertex
100
AcDb2dVertex
 10
4.294837022291797
 20
6.644296804481465
 30
0.0
 70
     8
  0
VERTEX
  5
2A41
330
2A3B
100
AcDbEntity
  8
NETAFIM-L-DETL-035M
100
AcDbVertex
100
AcDb2dVertex
 10
4.311325022291796
 20
6.644296804481465
 30
0.0
 70
     8
  0
VERTEX
  5
2A42
330
2A3B
100
AcDbEntity
  8
NETAFIM-L-DETL-035M
100
AcDbVertex
100
AcDb2dVertex
 10
4.327885022291798
 20
6.644296804481465
 30
0.0
 70
     8
  0
VERTEX
  5
2A43
330
2A3B
100
AcDbEntity
  8
NETAFIM-L-DETL-035M
100
AcDbVertex
100
AcDb2dVertex
 10
4.342285022291797
 20
6.644296804481465
 30
0.0
 70
     8
  0
VERTEX
  5
2A44
330
2A3B
100
AcDbEntity
  8
NETAFIM-L-DETL-035M
100
AcDbVertex
100
AcDb2dVertex
 10
4.352509022291798
 20
6.644296804481465
 30
0.0
 70
     8
  0
VERTEX
  5
2A45
330
2A3B
100
AcDbEntity
  8
NETAFIM-L-DETL-035M
100
AcDbVertex
100
AcDb2dVertex
 10
4.356325022291798
 20
6.644296804481465
 30
0.0
 70
     8
  0
VERTEX
  5
2A46
330
2A3B
100
AcDbEntity
  8
NETAFIM-L-DETL-035M
100
AcDbVertex
100
AcDb2dVertex
 10
4.266325022291798
 20
6.644296804481465
 30
0.0
 70
    16
  0
VERTEX
  5
2A47
330
2A3B
100
AcDbEntity
  8
NETAFIM-L-DETL-035M
100
AcDbVertex
100
AcDb2dVertex
 10
4.356325022291798
 20
6.644296804481465
 30
0.0
 70
    16
  0
VERTEX
  5
2A48
330
2A3B
100
AcDbEntity
  8
NETAFIM-L-DETL-035M
100
AcDbVertex
100
AcDb2dVertex
 10
4.356325022291798
 20
6.644296804481465
 30
0.0
 70
    16
  0
SEQEND
  5
2A49
330
2A3B
100
AcDbEntity
  8
NETAFIM-L-DETL-035M
  0
POLYLINE
  5
2A4A
330
1F
100
AcDbEntity
  8
NETAFIM-L-DETL-035M
100
AcDb2dPolyline
 66
     1
 10
0.0
 20
0.0
 30
0.0
 70
     4
  0
VERTEX
  5
2A4B
330
2A4A
100
AcDbEntity
  8
NETAFIM-L-DETL-035M
100
AcDbVertex
100
AcDb2dVertex
 10
4.356325022291798
 20
6.681808804481464
 30
0.0
 70
    16
  0
VERTEX
  5
2A4C
330
2A4A
100
AcDbEntity
  8
NETAFIM-L-DETL-035M
100
AcDbVertex
100
AcDb2dVertex
 10
4.356325022291798
 20
6.681808804481464
 30
0.0
 70
     8
  0
VERTEX
  5
2A4D
330
2A4A
100
AcDbEntity
  8
NETAFIM-L-DETL-035M
100
AcDbVertex
100
AcDb2dVertex
 10
4.362013022291797
 20
6.681808804481464
 30
0.0
 70
     8
  0
VERTEX
  5
2A4E
330
2A4A
100
AcDbEntity
  8
NETAFIM-L-DETL-035M
100
AcDbVertex
100
AcDb2dVertex
 10
4.376845022291796
 20
6.681808804481464
 30
0.0
 70
     8
  0
VERTEX
  5
2A4F
330
2A4A
100
AcDbEntity
  8
NETAFIM-L-DETL-035M
100
AcDbVertex
100
AcDb2dVertex
 10
4.3978690222918
 20
6.681808804481464
 30
0.0
 70
     8
  0
VERTEX
  5
2A50
330
2A4A
100
AcDbEntity
  8
NETAFIM-L-DETL-035M
100
AcDbVertex
100
AcDb2dVertex
 10
4.421989022291796
 20
6.681808804481464
 30
0.0
 70
     8
  0
VERTEX
  5
2A51
330
2A4A
100
AcDbEntity
  8
NETAFIM-L-DETL-035M
100
AcDbVertex
100
AcDb2dVertex
 10
4.4461090222918
 20
6.681808804481464
 30
0.0
 70
     8
  0
VERTEX
  5
2A52
330
2A4A
100
AcDbEntity
  8
NETAFIM-L-DETL-035M
100
AcDbVertex
100
AcDb2dVertex
 10
4.467133022291797
 20
6.681808804481464
 30
0.0
 70
     8
  0
VERTEX
  5
2A53
330
2A4A
100
AcDbEntity
  8
NETAFIM-L-DETL-035M
100
AcDbVertex
100
AcDb2dVertex
 10
4.481965022291795
 20
6.681808804481464
 30
0.0
 70
     8
  0
VERTEX
  5
2A54
330
2A4A
100
AcDbEntity
  8
NETAFIM-L-DETL-035M
100
AcDbVertex
100
AcDb2dVertex
 10
4.487581022291799
 20
6.681808804481464
 30
0.0
 70
     8
  0
VERTEX
  5
2A55
330
2A4A
100
AcDbEntity
  8
NETAFIM-L-DETL-035M
100
AcDbVertex
100
AcDb2dVertex
 10
4.356325022291798
 20
6.681808804481464
 30
0.0
 70
    16
  0
VERTEX
  5
2A56
330
2A4A
100
AcDbEntity
  8
NETAFIM-L-DETL-035M
100
AcDbVertex
100
AcDb2dVertex
 10
4.487581022291799
 20
6.681808804481464
 30
0.0
 70
    16
  0
VERTEX
  5
2A57
330
2A4A
100
AcDbEntity
  8
NETAFIM-L-DETL-035M
100
AcDbVertex
100
AcDb2dVertex
 10
4.487581022291799
 20
6.681808804481464
 30
0.0
 70
    16
  0
SEQEND
  5
2A58
330
2A4A
100
AcDbEntity
  8
NETAFIM-L-DETL-035M
  0
POLYLINE
  5
2A59
330
1F
100
AcDbEntity
  8
NETAFIM-L-DETL-035M
100
AcDb2dPolyline
 66
     1
 10
0.0
 20
0.0
 30
0.0
 70
     4
  0
VERTEX
  5
2A5A
330
2A59
100
AcDbEntity
  8
NETAFIM-L-DETL-035M
100
AcDbVertex
100
AcDb2dVertex
 10
4.487581022291799
 20
6.681808804481464
 30
0.0
 70
    16
  0
VERTEX
  5
2A5B
330
2A59
100
AcDbEntity
  8
NETAFIM-L-DETL-035M
100
AcDbVertex
100
AcDb2dVertex
 10
4.487581022291799
 20
6.681808804481464
 30
0.0
 70
     8
  0
VERTEX
  5
2A5C
330
2A59
100
AcDbEntity
  8
NETAFIM-L-DETL-035M
100
AcDbVertex
100
AcDb2dVertex
 10
4.506373022291796
 20
6.679864804481464
 30
0.0
 70
     8
  0
VERTEX
  5
2A5D
330
2A59
100
AcDbEntity
  8
NETAFIM-L-DETL-035M
100
AcDbVertex
100
AcDb2dVertex
 10
4.523941022291797
 20
6.674392804481465
 30
0.0
 70
     8
  0
VERTEX
  5
2A5E
330
2A59
100
AcDbEntity
  8
NETAFIM-L-DETL-035M
100
AcDbVertex
100
AcDb2dVertex
 10
4.539853022291797
 20
6.665680804481464
 30
0.0
 70
     8
  0
VERTEX
  5
2A5F
330
2A59
100
AcDbEntity
  8
NETAFIM-L-DETL-035M
100
AcDbVertex
100
AcDb2dVertex
 10
4.553749022291796
 20
6.654160804481465
 30
0.0
 70
     8
  0
VERTEX
  5
2A60
330
2A59
100
AcDbEntity
  8
NETAFIM-L-DETL-035M
100
AcDbVertex
100
AcDb2dVertex
 10
4.565269022291797
 20
6.640264804481462
 30
0.0
 70
     8
  0
VERTEX
  5
2A61
330
2A59
100
AcDbEntity
  8
NETAFIM-L-DETL-035M
100
AcDbVertex
100
AcDb2dVertex
 10
4.573909022291797
 20
6.624352804481462
 30
0.0
 70
     8
  0
VERTEX
  5
2A62
330
2A59
100
AcDbEntity
  8
NETAFIM-L-DETL-035M
100
AcDbVertex
100
AcDb2dVertex
 10
4.579453022291797
 20
6.606856804481463
 30
0.0
 70
     8
  0
VERTEX
  5
2A63
330
2A59
100
AcDbEntity
  8
NETAFIM-L-DETL-035M
100
AcDbVertex
100
AcDb2dVertex
 10
4.5813250222918
 20
6.588064804481463
 30
0.0
 70
     8
  0
VERTEX
  5
2A64
330
2A59
100
AcDbEntity
  8
NETAFIM-L-DETL-035M
100
AcDbVertex
100
AcDb2dVertex
 10
4.539061022291797
 20
6.681808804481464
 30
0.0
 70
    16
  0
VERTEX
  5
2A65
330
2A59
100
AcDbEntity
  8
NETAFIM-L-DETL-035M
100
AcDbVertex
100
AcDb2dVertex
 10
4.5813250222918
 20
6.639472804481464
 30
0.0
 70
    16
  0
VERTEX
  5
2A66
330
2A59
100
AcDbEntity
  8
NETAFIM-L-DETL-035M
100
AcDbVertex
100
AcDb2dVertex
 10
4.5813250222918
 20
6.588064804481463
 30
0.0
 70
    16
  0
SEQEND
  5
2A67
330
2A59
100
AcDbEntity
  8
NETAFIM-L-DETL-035M
  0
POLYLINE
  5
2A68
330
1F
100
AcDbEntity
  8
NETAFIM-L-DETL-035M
100
AcDb2dPolyline
 66
     1
 10
0.0
 20
0.0
 30
0.0
 70
     4
  0
VERTEX
  5
2A69
330
2A68
100
AcDbEntity
  8
NETAFIM-L-DETL-035M
100
AcDbVertex
100
AcDb2dVertex
 10
4.5813250222918
 20
6.588064804481463
 30
0.0
 70
    16
  0
VERTEX
  5
2A6A
330
2A68
100
AcDbEntity
  8
NETAFIM-L-DETL-035M
100
AcDbVertex
100
AcDb2dVertex
 10
4.5813250222918
 20
6.588064804481463
 30
0.0
 70
     8
  0
VERTEX
  5
2A6B
330
2A68
100
AcDbEntity
  8
NETAFIM-L-DETL-035M
100
AcDbVertex
100
AcDb2dVertex
 10
4.5813250222918
 20
6.567400804481463
 30
0.0
 70
     8
  0
VERTEX
  5
2A6C
330
2A68
100
AcDbEntity
  8
NETAFIM-L-DETL-035M
100
AcDbVertex
100
AcDb2dVertex
 10
4.5813250222918
 20
6.513040804481464
 30
0.0
 70
     8
  0
VERTEX
  5
2A6D
330
2A68
100
AcDbEntity
  8
NETAFIM-L-DETL-035M
100
AcDbVertex
100
AcDb2dVertex
 10
4.5813250222918
 20
6.436144804481463
 30
0.0
 70
     8
  0
VERTEX
  5
2A6E
330
2A68
100
AcDbEntity
  8
NETAFIM-L-DETL-035M
100
AcDbVertex
100
AcDb2dVertex
 10
4.5813250222918
 20
6.348016804481463
 30
0.0
 70
     8
  0
VERTEX
  5
2A6F
330
2A68
100
AcDbEntity
  8
NETAFIM-L-DETL-035M
100
AcDbVertex
100
AcDb2dVertex
 10
4.5813250222918
 20
6.259888804481464
 30
0.0
 70
     8
  0
VERTEX
  5
2A70
330
2A68
100
AcDbEntity
  8
NETAFIM-L-DETL-035M
100
AcDbVertex
100
AcDb2dVertex
 10
4.5813250222918
 20
6.183064804481462
 30
0.0
 70
     8
  0
VERTEX
  5
2A71
330
2A68
100
AcDbEntity
  8
NETAFIM-L-DETL-035M
100
AcDbVertex
100
AcDb2dVertex
 10
4.5813250222918
 20
6.128632804481464
 30
0.0
 70
     8
  0
VERTEX
  5
2A72
330
2A68
100
AcDbEntity
  8
NETAFIM-L-DETL-035M
100
AcDbVertex
100
AcDb2dVertex
 10
4.5813250222918
 20
6.108040804481463
 30
0.0
 70
     8
  0
VERTEX
  5
2A73
330
2A68
100
AcDbEntity
  8
NETAFIM-L-DETL-035M
100
AcDbVertex
100
AcDb2dVertex
 10
4.5813250222918
 20
6.588064804481463
 30
0.0
 70
    16
  0
VERTEX
  5
2A74
330
2A68
100
AcDbEntity
  8
NETAFIM-L-DETL-035M
100
AcDbVertex
100
AcDb2dVertex
 10
4.5813250222918
 20
6.108040804481463
 30
0.0
 70
    16
  0
VERTEX
  5
2A75
330
2A68
100
AcDbEntity
  8
NETAFIM-L-DETL-035M
100
AcDbVertex
100
AcDb2dVertex
 10
4.5813250222918
 20
6.108040804481463
 30
0.0
 70
    16
  0
SEQEND
  5
2A76
330
2A68
100
AcDbEntity
  8
NETAFIM-L-DETL-035M
  0
POLYLINE
  5
2A77
330
1F
100
AcDbEntity
  8
NETAFIM-L-DETL-035M
100
AcDb2dPolyline
 66
     1
 10
0.0
 20
0.0
 30
0.0
 70
     4
  0
VERTEX
  5
2A78
330
2A77
100
AcDbEntity
  8
NETAFIM-L-DETL-035M
100
AcDbVertex
100
AcDb2dVertex
 10
4.5813250222918
 20
6.108040804481463
 30
0.0
 70
    16
  0
VERTEX
  5
2A79
330
2A77
100
AcDbEntity
  8
NETAFIM-L-DETL-035M
100
AcDbVertex
100
AcDb2dVertex
 10
4.5813250222918
 20
6.108040804481463
 30
0.0
 70
     8
  0
VERTEX
  5
2A7A
330
2A77
100
AcDbEntity
  8
NETAFIM-L-DETL-035M
100
AcDbVertex
100
AcDb2dVertex
 10
4.579453022291797
 20
6.089248804481464
 30
0.0
 70
     8
  0
VERTEX
  5
2A7B
330
2A77
100
AcDbEntity
  8
NETAFIM-L-DETL-035M
100
AcDbVertex
100
AcDb2dVertex
 10
4.573909022291797
 20
6.071680804481463
 30
0.0
 70
     8
  0
VERTEX
  5
2A7C
330
2A77
100
AcDbEntity
  8
NETAFIM-L-DETL-035M
100
AcDbVertex
100
AcDb2dVertex
 10
4.565269022291797
 20
6.055768804481465
 30
0.0
 70
     8
  0
VERTEX
  5
2A7D
330
2A77
100
AcDbEntity
  8
NETAFIM-L-DETL-035M
100
AcDbVertex
100
AcDb2dVertex
 10
4.553749022291796
 20
6.041872804481464
 30
0.0
 70
     8
  0
VERTEX
  5
2A7E
330
2A77
100
AcDbEntity
  8
NETAFIM-L-DETL-035M
100
AcDbVertex
100
AcDb2dVertex
 10
4.539853022291797
 20
6.030352804481465
 30
0.0
 70
     8
  0
VERTEX
  5
2A7F
330
2A77
100
AcDbEntity
  8
NETAFIM-L-DETL-035M
100
AcDbVertex
100
AcDb2dVertex
 10
4.523941022291797
 20
6.021712804481463
 30
0.0
 70
     8
  0
VERTEX
  5
2A80
330
2A77
100
AcDbEntity
  8
NETAFIM-L-DETL-035M
100
AcDbVertex
100
AcDb2dVertex
 10
4.506373022291796
 20
6.016168804481464
 30
0.0
 70
     8
  0
VERTEX
  5
2A81
330
2A77
100
AcDbEntity
  8
NETAFIM-L-DETL-035M
100
AcDbVertex
100
AcDb2dVertex
 10
4.487581022291799
 20
6.014296804481464
 30
0.0
 70
     8
  0
VERTEX
  5
2A82
330
2A77
100
AcDbEntity
  8
NETAFIM-L-DETL-035M
100
AcDbVertex
100
AcDb2dVertex
 10
4.5813250222918
 20
6.056632804481465
 30
0.0
 70
    16
  0
VERTEX
  5
2A83
330
2A77
100
AcDbEntity
  8
NETAFIM-L-DETL-035M
100
AcDbVertex
100
AcDb2dVertex
 10
4.539061022291797
 20
6.014296804481464
 30
0.0
 70
    16
  0
VERTEX
  5
2A84
330
2A77
100
AcDbEntity
  8
NETAFIM-L-DETL-035M
100
AcDbVertex
100
AcDb2dVertex
 10
4.487581022291799
 20
6.014296804481464
 30
0.0
 70
    16
  0
SEQEND
  5
2A85
330
2A77
100
AcDbEntity
  8
NETAFIM-L-DETL-035M
  0
POLYLINE
  5
2A86
330
1F
100
AcDbEntity
  8
NETAFIM-L-DETL-035M
100
AcDb2dPolyline
 66
     1
 10
0.0
 20
0.0
 30
0.0
 70
     4
  0
VERTEX
  5
2A87
330
2A86
100
AcDbEntity
  8
NETAFIM-L-DETL-035M
100
AcDbVertex
100
AcDb2dVertex
 10
4.487581022291799
 20
6.014296804481464
 30
0.0
 70
    16
  0
VERTEX
  5
2A88
330
2A86
100
AcDbEntity
  8
NETAFIM-L-DETL-035M
100
AcDbVertex
100
AcDb2dVertex
 10
4.487581022291799
 20
6.014296804481464
 30
0.0
 70
     8
  0
VERTEX
  5
2A89
330
2A86
100
AcDbEntity
  8
NETAFIM-L-DETL-035M
100
AcDbVertex
100
AcDb2dVertex
 10
4.476349022291799
 20
6.014296804481464
 30
0.0
 70
     8
  0
VERTEX
  5
2A8A
330
2A86
100
AcDbEntity
  8
NETAFIM-L-DETL-035M
100
AcDbVertex
100
AcDb2dVertex
 10
4.446613022291799
 20
6.014296804481464
 30
0.0
 70
     8
  0
VERTEX
  5
2A8B
330
2A86
100
AcDbEntity
  8
NETAFIM-L-DETL-035M
100
AcDbVertex
100
AcDb2dVertex
 10
4.404565022291798
 20
6.014296804481464
 30
0.0
 70
     8
  0
VERTEX
  5
2A8C
330
2A86
100
AcDbEntity
  8
NETAFIM-L-DETL-035M
100
AcDbVertex
100
AcDb2dVertex
 10
4.356325022291798
 20
6.014296804481464
 30
0.0
 70
     8
  0
VERTEX
  5
2A8D
330
2A86
100
AcDbEntity
  8
NETAFIM-L-DETL-035M
100
AcDbVertex
100
AcDb2dVertex
 10
4.308157022291798
 20
6.014296804481464
 30
0.0
 70
     8
  0
VERTEX
  5
2A8E
330
2A86
100
AcDbEntity
  8
NETAFIM-L-DETL-035M
100
AcDbVertex
100
AcDb2dVertex
 10
4.2661090222918
 20
6.014296804481464
 30
0.0
 70
     8
  0
VERTEX
  5
2A8F
330
2A86
100
AcDbEntity
  8
NETAFIM-L-DETL-035M
100
AcDbVertex
100
AcDb2dVertex
 10
4.2363730222918
 20
6.014296804481464
 30
0.0
 70
     8
  0
VERTEX
  5
2A90
330
2A86
100
AcDbEntity
  8
NETAFIM-L-DETL-035M
100
AcDbVertex
100
AcDb2dVertex
 10
4.225141022291797
 20
6.014296804481464
 30
0.0
 70
     8
  0
VERTEX
  5
2A91
330
2A86
100
AcDbEntity
  8
NETAFIM-L-DETL-035M
100
AcDbVertex
100
AcDb2dVertex
 10
4.487581022291799
 20
6.014296804481464
 30
0.0
 70
    16
  0
VERTEX
  5
2A92
330
2A86
100
AcDbEntity
  8
NETAFIM-L-DETL-035M
100
AcDbVertex
100
AcDb2dVertex
 10
4.225141022291797
 20
6.014296804481464
 30
0.0
 70
    16
  0
VERTEX
  5
2A93
330
2A86
100
AcDbEntity
  8
NETAFIM-L-DETL-035M
100
AcDbVertex
100
AcDb2dVertex
 10
4.225141022291797
 20
6.014296804481464
 30
0.0
 70
    16
  0
SEQEND
  5
2A94
330
2A86
100
AcDbEntity
  8
NETAFIM-L-DETL-035M
  0
POLYLINE
  5
2A95
330
1F
100
AcDbEntity
  8
NETAFIM-L-DETL-035M
100
AcDb2dPolyline
 66
     1
 10
0.0
 20
0.0
 30
0.0
 70
     4
  0
VERTEX
  5
2A96
330
2A95
100
AcDbEntity
  8
NETAFIM-L-DETL-035M
100
AcDbVertex
100
AcDb2dVertex
 10
4.225141022291797
 20
6.014296804481464
 30
0.0
 70
    16
  0
VERTEX
  5
2A97
330
2A95
100
AcDbEntity
  8
NETAFIM-L-DETL-035M
100
AcDbVertex
100
AcDb2dVertex
 10
4.225141022291797
 20
6.014296804481464
 30
0.0
 70
     8
  0
VERTEX
  5
2A98
330
2A95
100
AcDbEntity
  8
NETAFIM-L-DETL-035M
100
AcDbVertex
100
AcDb2dVertex
 10
4.206349022291796
 20
6.016168804481464
 30
0.0
 70
     8
  0
VERTEX
  5
2A99
330
2A95
100
AcDbEntity
  8
NETAFIM-L-DETL-035M
100
AcDbVertex
100
AcDb2dVertex
 10
4.188781022291799
 20
6.021712804481463
 30
0.0
 70
     8
  0
VERTEX
  5
2A9A
330
2A95
100
AcDbEntity
  8
NETAFIM-L-DETL-035M
100
AcDbVertex
100
AcDb2dVertex
 10
4.172869022291799
 20
6.030352804481465
 30
0.0
 70
     8
  0
VERTEX
  5
2A9B
330
2A95
100
AcDbEntity
  8
NETAFIM-L-DETL-035M
100
AcDbVertex
100
AcDb2dVertex
 10
4.158973022291796
 20
6.041872804481464
 30
0.0
 70
     8
  0
VERTEX
  5
2A9C
330
2A95
100
AcDbEntity
  8
NETAFIM-L-DETL-035M
100
AcDbVertex
100
AcDb2dVertex
 10
4.147453022291799
 20
6.055768804481465
 30
0.0
 70
     8
  0
VERTEX
  5
2A9D
330
2A95
100
AcDbEntity
  8
NETAFIM-L-DETL-035M
100
AcDbVertex
100
AcDb2dVertex
 10
4.138741022291799
 20
6.071680804481463
 30
0.0
 70
     8
  0
VERTEX
  5
2A9E
330
2A95
100
AcDbEntity
  8
NETAFIM-L-DETL-035M
100
AcDbVertex
100
AcDb2dVertex
 10
4.133269022291798
 20
6.089248804481464
 30
0.0
 70
     8
  0
VERTEX
  5
2A9F
330
2A95
100
AcDbEntity
  8
NETAFIM-L-DETL-035M
100
AcDbVertex
100
AcDb2dVertex
 10
4.131325022291797
 20
6.108040804481463
 30
0.0
 70
     8
  0
VERTEX
  5
2AA0
330
2A95
100
AcDbEntity
  8
NETAFIM-L-DETL-035M
100
AcDbVertex
100
AcDb2dVertex
 10
4.173661022291796
 20
6.014296804481464
 30
0.0
 70
    16
  0
VERTEX
  5
2AA1
330
2A95
100
AcDbEntity
  8
NETAFIM-L-DETL-035M
100
AcDbVertex
100
AcDb2dVertex
 10
4.131325022291797
 20
6.056632804481465
 30
0.0
 70
    16
  0
VERTEX
  5
2AA2
330
2A95
100
AcDbEntity
  8
NETAFIM-L-DETL-035M
100
AcDbVertex
100
AcDb2dVertex
 10
4.131325022291797
 20
6.108040804481463
 30
0.0
 70
    16
  0
SEQEND
  5
2AA3
330
2A95
100
AcDbEntity
  8
NETAFIM-L-DETL-035M
  0
POLYLINE
  5
2AA4
330
1F
100
AcDbEntity
  8
NETAFIM-L-DETL-035M
100
AcDb2dPolyline
 66
     1
 10
0.0
 20
0.0
 30
0.0
 70
     4
  0
VERTEX
  5
2AA5
330
2AA4
100
AcDbEntity
  8
NETAFIM-L-DETL-035M
100
AcDbVertex
100
AcDb2dVertex
 10
4.131325022291797
 20
6.108040804481463
 30
0.0
 70
    16
  0
VERTEX
  5
2AA6
330
2AA4
100
AcDbEntity
  8
NETAFIM-L-DETL-035M
100
AcDbVertex
100
AcDb2dVertex
 10
4.131325022291797
 20
6.108040804481463
 30
0.0
 70
     8
  0
VERTEX
  5
2AA7
330
2AA4
100
AcDbEntity
  8
NETAFIM-L-DETL-035M
100
AcDbVertex
100
AcDb2dVertex
 10
4.131325022291797
 20
6.128632804481464
 30
0.0
 70
     8
  0
VERTEX
  5
2AA8
330
2AA4
100
AcDbEntity
  8
NETAFIM-L-DETL-035M
100
AcDbVertex
100
AcDb2dVertex
 10
4.131325022291797
 20
6.183064804481462
 30
0.0
 70
     8
  0
VERTEX
  5
2AA9
330
2AA4
100
AcDbEntity
  8
NETAFIM-L-DETL-035M
100
AcDbVertex
100
AcDb2dVertex
 10
4.131325022291797
 20
6.259888804481464
 30
0.0
 70
     8
  0
VERTEX
  5
2AAA
330
2AA4
100
AcDbEntity
  8
NETAFIM-L-DETL-035M
100
AcDbVertex
100
AcDb2dVertex
 10
4.131325022291797
 20
6.348016804481463
 30
0.0
 70
     8
  0
VERTEX
  5
2AAB
330
2AA4
100
AcDbEntity
  8
NETAFIM-L-DETL-035M
100
AcDbVertex
100
AcDb2dVertex
 10
4.131325022291797
 20
6.436144804481463
 30
0.0
 70
     8
  0
VERTEX
  5
2AAC
330
2AA4
100
AcDbEntity
  8
NETAFIM-L-DETL-035M
100
AcDbVertex
100
AcDb2dVertex
 10
4.131325022291797
 20
6.513040804481464
 30
0.0
 70
     8
  0
VERTEX
  5
2AAD
330
2AA4
100
AcDbEntity
  8
NETAFIM-L-DETL-035M
100
AcDbVertex
100
AcDb2dVertex
 10
4.131325022291797
 20
6.567400804481463
 30
0.0
 70
     8
  0
VERTEX
  5
2AAE
330
2AA4
100
AcDbEntity
  8
NETAFIM-L-DETL-035M
100
AcDbVertex
100
AcDb2dVertex
 10
4.131325022291797
 20
6.588064804481463
 30
0.0
 70
     8
  0
VERTEX
  5
2AAF
330
2AA4
100
AcDbEntity
  8
NETAFIM-L-DETL-035M
100
AcDbVertex
100
AcDb2dVertex
 10
4.131325022291797
 20
6.108040804481463
 30
0.0
 70
    16
  0
VERTEX
  5
2AB0
330
2AA4
100
AcDbEntity
  8
NETAFIM-L-DETL-035M
100
AcDbVertex
100
AcDb2dVertex
 10
4.131325022291797
 20
6.588064804481463
 30
0.0
 70
    16
  0
VERTEX
  5
2AB1
330
2AA4
100
AcDbEntity
  8
NETAFIM-L-DETL-035M
100
AcDbVertex
100
AcDb2dVertex
 10
4.131325022291797
 20
6.588064804481463
 30
0.0
 70
    16
  0
SEQEND
  5
2AB2
330
2AA4
100
AcDbEntity
  8
NETAFIM-L-DETL-035M
  0
POLYLINE
  5
2AB3
330
1F
100
AcDbEntity
  8
NETAFIM-L-DETL-035M
100
AcDb2dPolyline
 66
     1
 10
0.0
 20
0.0
 30
0.0
 70
     4
  0
VERTEX
  5
2AB4
330
2AB3
100
AcDbEntity
  8
NETAFIM-L-DETL-035M
100
AcDbVertex
100
AcDb2dVertex
 10
4.131325022291797
 20
6.588064804481463
 30
0.0
 70
    16
  0
VERTEX
  5
2AB5
330
2AB3
100
AcDbEntity
  8
NETAFIM-L-DETL-035M
100
AcDbVertex
100
AcDb2dVertex
 10
4.131325022291797
 20
6.588064804481463
 30
0.0
 70
     8
  0
VERTEX
  5
2AB6
330
2AB3
100
AcDbEntity
  8
NETAFIM-L-DETL-035M
100
AcDbVertex
100
AcDb2dVertex
 10
4.133269022291798
 20
6.606856804481463
 30
0.0
 70
     8
  0
VERTEX
  5
2AB7
330
2AB3
100
AcDbEntity
  8
NETAFIM-L-DETL-035M
100
AcDbVertex
100
AcDb2dVertex
 10
4.138741022291799
 20
6.624352804481462
 30
0.0
 70
     8
  0
VERTEX
  5
2AB8
330
2AB3
100
AcDbEntity
  8
NETAFIM-L-DETL-035M
100
AcDbVertex
100
AcDb2dVertex
 10
4.147453022291799
 20
6.640264804481462
 30
0.0
 70
     8
  0
VERTEX
  5
2AB9
330
2AB3
100
AcDbEntity
  8
NETAFIM-L-DETL-035M
100
AcDbVertex
100
AcDb2dVertex
 10
4.158973022291796
 20
6.654160804481465
 30
0.0
 70
     8
  0
VERTEX
  5
2ABA
330
2AB3
100
AcDbEntity
  8
NETAFIM-L-DETL-035M
100
AcDbVertex
100
AcDb2dVertex
 10
4.172869022291799
 20
6.665680804481464
 30
0.0
 70
     8
  0
VERTEX
  5
2ABB
330
2AB3
100
AcDbEntity
  8
NETAFIM-L-DETL-035M
100
AcDbVertex
100
AcDb2dVertex
 10
4.188781022291799
 20
6.674392804481465
 30
0.0
 70
     8
  0
VERTEX
  5
2ABC
330
2AB3
100
AcDbEntity
  8
NETAFIM-L-DETL-035M
100
AcDbVertex
100
AcDb2dVertex
 10
4.206349022291796
 20
6.679864804481464
 30
0.0
 70
     8
  0
VERTEX
  5
2ABD
330
2AB3
100
AcDbEntity
  8
NETAFIM-L-DETL-035M
100
AcDbVertex
100
AcDb2dVertex
 10
4.225141022291797
 20
6.681808804481464
 30
0.0
 70
     8
  0
VERTEX
  5
2ABE
330
2AB3
100
AcDbEntity
  8
NETAFIM-L-DETL-035M
100
AcDbVertex
100
AcDb2dVertex
 10
4.131325022291797
 20
6.639472804481464
 30
0.0
 70
    16
  0
VERTEX
  5
2ABF
330
2AB3
100
AcDbEntity
  8
NETAFIM-L-DETL-035M
100
AcDbVertex
100
AcDb2dVertex
 10
4.173661022291796
 20
6.681808804481464
 30
0.0
 70
    16
  0
VERTEX
  5
2AC0
330
2AB3
100
AcDbEntity
  8
NETAFIM-L-DETL-035M
100
AcDbVertex
100
AcDb2dVertex
 10
4.225141022291797
 20
6.681808804481464
 30
0.0
 70
    16
  0
SEQEND
  5
2AC1
330
2AB3
100
AcDbEntity
  8
NETAFIM-L-DETL-035M
  0
POLYLINE
  5
2AC2
330
1F
100
AcDbEntity
  8
NETAFIM-L-DETL-035M
100
AcDb2dPolyline
 66
     1
 10
0.0
 20
0.0
 30
0.0
 70
     4
  0
VERTEX
  5
2AC3
330
2AC2
100
AcDbEntity
  8
NETAFIM-L-DETL-035M
100
AcDbVertex
100
AcDb2dVertex
 10
4.225141022291797
 20
6.681808804481464
 30
0.0
 70
    16
  0
VERTEX
  5
2AC4
330
2AC2
100
AcDbEntity
  8
NETAFIM-L-DETL-035M
100
AcDbVertex
100
AcDb2dVertex
 10
4.225141022291797
 20
6.681808804481464
 30
0.0
 70
     8
  0
VERTEX
  5
2AC5
330
2AC2
100
AcDbEntity
  8
NETAFIM-L-DETL-035M
100
AcDbVertex
100
AcDb2dVertex
 10
4.230757022291797
 20
6.681808804481464
 30
0.0
 70
     8
  0
VERTEX
  5
2AC6
330
2AC2
100
AcDbEntity
  8
NETAFIM-L-DETL-035M
100
AcDbVertex
100
AcDb2dVertex
 10
4.245589022291795
 20
6.681808804481464
 30
0.0
 70
     8
  0
VERTEX
  5
2AC7
330
2AC2
100
AcDbEntity
  8
NETAFIM-L-DETL-035M
100
AcDbVertex
100
AcDb2dVertex
 10
4.266613022291799
 20
6.681808804481464
 30
0.0
 70
     8
  0
VERTEX
  5
2AC8
330
2AC2
100
AcDbEntity
  8
NETAFIM-L-DETL-035M
100
AcDbVertex
100
AcDb2dVertex
 10
4.290733022291796
 20
6.681808804481464
 30
0.0
 70
     8
  0
VERTEX
  5
2AC9
330
2AC2
100
AcDbEntity
  8
NETAFIM-L-DETL-035M
100
AcDbVertex
100
AcDb2dVertex
 10
4.314853022291799
 20
6.681808804481464
 30
0.0
 70
     8
  0
VERTEX
  5
2ACA
330
2AC2
100
AcDbEntity
  8
NETAFIM-L-DETL-035M
100
AcDbVertex
100
AcDb2dVertex
 10
4.335877022291796
 20
6.681808804481464
 30
0.0
 70
     8
  0
VERTEX
  5
2ACB
330
2AC2
100
AcDbEntity
  8
NETAFIM-L-DETL-035M
100
AcDbVertex
100
AcDb2dVertex
 10
4.350709022291798
 20
6.681808804481464
 30
0.0
 70
     8
  0
VERTEX
  5
2ACC
330
2AC2
100
AcDbEntity
  8
NETAFIM-L-DETL-035M
100
AcDbVertex
100
AcDb2dVertex
 10
4.356325022291798
 20
6.681808804481464
 30
0.0
 70
     8
  0
VERTEX
  5
2ACD
330
2AC2
100
AcDbEntity
  8
NETAFIM-L-DETL-035M
100
AcDbVertex
100
AcDb2dVertex
 10
4.225141022291797
 20
6.681808804481464
 30
0.0
 70
    16
  0
VERTEX
  5
2ACE
330
2AC2
100
AcDbEntity
  8
NETAFIM-L-DETL-035M
100
AcDbVertex
100
AcDb2dVertex
 10
4.356325022291798
 20
6.681808804481464
 30
0.0
 70
    16
  0
VERTEX
  5
2ACF
330
2AC2
100
AcDbEntity
  8
NETAFIM-L-DETL-035M
100
AcDbVertex
100
AcDb2dVertex
 10
4.356325022291798
 20
6.681808804481464
 30
0.0
 70
    16
  0
SEQEND
  5
2AD0
330
2AC2
100
AcDbEntity
  8
NETAFIM-L-DETL-035M
  0
LWPOLYLINE
  5
2AD1
330
1F
100
AcDbEntity
  8
NETAFIM-L-DETL-035M
100
AcDbPolyline
 90
        2
 70
     0
 43
0.0
 10
4.316653022291799
 20
4.964824804481464
 10
4.316653022291799
 20
6.014296804481464
  0
LWPOLYLINE
  5
2AD2
330
1F
100
AcDbEntity
  8
NETAFIM-L-DETL-035M
100
AcDbPolyline
 90
        2
 70
     0
 43
0.0
 10
4.394197022291798
 20
6.014296804481464
 10
4.394197022291798
 20
4.964824804481464
  0
LWPOLYLINE
  5
2AD3
330
1F
100
AcDbEntity
  8
NETAFIM-L-DETL-025M
100
AcDbPolyline
 90
        4
 70
     1
 43
0.0
 10
4.291669022291799
 20
3.215487693418733
 10
4.415437022291797
 20
3.215487693418733
 10
4.415437022291797
 20
3.011727693418732
 10
4.291669022291799
 20
3.011727693418732
  0
LWPOLYLINE
  5
2AD4
330
1F
100
AcDbEntity
  8
NETAFIM-L-DETL-035M
100
AcDbPolyline
 90
        2
 70
     0
 43
0.0
 10
4.316653022291799
 20
3.215487693418733
 10
4.316653022291799
 20
4.761064804481462
  0
LWPOLYLINE
  5
2AD5
330
1F
100
AcDbEntity
  8
NETAFIM-L-DETL-035M
100
AcDbPolyline
 90
        2
 70
     0
 43
0.0
 10
4.394197022291798
 20
4.761064804481462
 10
4.394197022291798
 20
3.215487693418733
  0
LWPOLYLINE
  5
2AD6
330
1F
100
AcDbEntity
  8
NETAFIM-L-DETL-025M
100
AcDbPolyline
 90
        4
 70
     1
 43
0.0
 10
2.234748049583288
 20
3.215487693418733
 10
2.358516049583286
 20
3.215487693418733
 10
2.358516049583286
 20
3.011727693418732
 10
2.234748049583288
 20
3.011727693418732
  0
LWPOLYLINE
  5
2AD7
330
1F
100
AcDbEntity
  8
NETAFIM-L-DETL-025M
100
AcDbPolyline
 90
        4
 70
     1
 43
0.0
 10
2.234748049583288
 20
1.36887774317688
 10
2.358516049583286
 20
1.36887774317688
 10
2.358516049583286
 20
1.16511774317688
 10
2.234748049583288
 20
1.16511774317688
  0
LWPOLYLINE
  5
2AD8
330
1F
100
AcDbEntity
  8
NETAFIM-L-DETL-025M
100
AcDbPolyline
 90
        4
 70
     1
 43
0.0
 10
2.234748049583288
 20
4.955066040680321
 10
2.358516049583286
 20
4.955066040680321
 10
2.358516049583286
 20
4.75130604068032
 10
2.234748049583288
 20
4.75130604068032
  0
LWPOLYLINE
  5
2AD9
330
1F
100
AcDbEntity
  8
NETAFIM-L-DETL-035M
100
AcDbPolyline
 90
        2
 70
     0
 43
0.0
 10
2.256661022291797
 20
3.215487693418733
 10
2.256661022291797
 20
4.75130604068032
  0
LWPOLYLINE
  5
2ADA
330
1F
100
AcDbEntity
  8
NETAFIM-L-DETL-035M
100
AcDbPolyline
 90
        2
 70
     0
 43
0.0
 10
2.256661022291797
 20
4.955066040680321
 10
2.256661022291797
 20
6.006960043020997
  0
LWPOLYLINE
  5
2ADB
330
1F
100
AcDbEntity
  8
NETAFIM-L-DETL-035M
100
AcDbPolyline
 90
        2
 70
     0
 43
0.0
 10
2.334205022291797
 20
6.00931529398605
 10
2.334205022291797
 20
4.955066040680321
  0
LWPOLYLINE
  5
2ADC
330
1F
100
AcDbEntity
  8
NETAFIM-L-DETL-035M
100
AcDbPolyline
 90
        2
 70
     0
 43
0.0
 10
2.334205022291797
 20
4.75130604068032
 10
2.334205022291797
 20
3.215487693418733
  0
LWPOLYLINE
  5
2ADD
330
1F
100
AcDbEntity
  8
NETAFIM-L-DETL-035M
100
AcDbPolyline
 90
        2
 70
     0
 43
0.0
 10
2.334205022291797
 20
3.011727693418732
 10
2.334205022291797
 20
1.36887774317688
  0
LWPOLYLINE
  5
2ADE
330
1F
100
AcDbEntity
  8
NETAFIM-L-DETL-035M
100
AcDbPolyline
 90
        2
 70
     0
 43
0.0
 10
2.334205022291797
 20
1.16511774317688
 10
2.334205022291797
 20
1.109971566897325
  0
LWPOLYLINE
  5
2ADF
330
1F
100
AcDbEntity
  8
NETAFIM-L-DETL-035M
100
AcDbPolyline
 90
        2
 70
     0
 43
0.0
 10
2.256661022291797
 20
1.109411463704737
 10
2.256661022291797
 20
1.16511774317688
  0
LWPOLYLINE
  5
2AE0
330
1F
100
AcDbEntity
  8
NETAFIM-L-DETL-035M
100
AcDbPolyline
 90
        2
 70
     0
 43
0.0
 10
2.256661022291797
 20
1.36887774317688
 10
2.256661022291797
 20
3.011727693418732
  0
LWPOLYLINE
  5
2AE1
330
1F
100
AcDbEntity
  8
NETAFIM-L-DETL-035M
100
AcDbPolyline
 90
        2
 70
     0
 43
0.0
 10
4.394197022291798
 20
3.011727693418734
 10
4.394197022291798
 20
1.366754386172641
  0
LWPOLYLINE
  5
2AE2
330
1F
100
AcDbEntity
  8
NETAFIM-L-DETL-035M
100
AcDbPolyline
 90
        2
 70
     0
 43
0.0
 10
4.316653022291799
 20
1.363742022544432
 10
4.316653022291799
 20
3.011727693418734
  0
LWPOLYLINE
  5
2AE3
330
1F
100
AcDbEntity
  8
NETAFIM-L-DETL-HIDD-035M
100
AcDbPolyline
 90
        2
 70
     0
 43
0.0
 10
2.225413022291796
 20
5.951080804481465
 10
2.256661022291797
 20
5.951080804481465
  0
LWPOLYLINE
  5
2AE4
330
1F
100
AcDbEntity
  8
NETAFIM-L-DETL-HIDD-035M
100
AcDbPolyline
 90
        2
 70
     0
 43
0.0
 10
2.334205022291797
 20
5.951080804481465
 10
4.316653022291799
 20
5.951080804481465
  0
LWPOLYLINE
  5
2AE5
330
1F
100
AcDbEntity
  8
NETAFIM-L-DETL-HIDD-035M
100
AcDbPolyline
 90
        3
 70
     0
 43
0.0
 10
2.256661022291797
 20
1.421128804481464
 10
2.225413022291796
 20
1.421128804481464
 10
2.225413022291796
 20
5.951080804481465
  0
LWPOLYLINE
  5
2AE6
330
1F
100
AcDbEntity
  8
NETAFIM-L-DETL-HIDD-035M
100
AcDbPolyline
 90
        4
 70
     0
 43
0.0
 10
4.394197022291798
 20
5.951080804481465
 10
4.455397022291798
 20
5.951080804481465
 10
4.455397022291798
 20
1.421128804481464
 10
4.394197022291798
 20
1.421128804481464
  0
LWPOLYLINE
  5
2AE7
330
1F
100
AcDbEntity
  8
NETAFIM-L-DETL-HIDD-035M
100
AcDbPolyline
 90
        2
 70
     0
 43
0.0
 10
4.316653022291799
 20
1.421128804481464
 10
2.334205022291797
 20
1.421128804481464
  0
MTEXT
  5
2AE8
330
1F
100
AcDbEntity
  8
NETAFIM-L-DETL-TEXT-025M
100
AcDbMText
 10
1.573398183214234
 20
4.25959911466254
 30
0.0
 40
0.09
 41
0.0
 71
     1
 72
     1
  1
\A1;SLOPE\P(3% +)
  7
DETAIL TEXT
 73
     1
 44
1.0
  0
LINE
  5
2AE9
330
1F
100
AcDbEntity
  8
NETAFIM-L-DETL-025M-TUBING
100
AcDbLine
 10
2.845405022291799
 20
5.691088804481465
 30
0.0
 11
2.975005022291796
 21
5.691088804481465
 31
0.0
  0
LINE
  5
2AEA
330
1F
100
AcDbEntity
  8
NETAFIM-L-DETL-025M-TUBING
100
AcDbLine
 10
2.298776800897719
 20
5.847076225275369
 30
0.0
 11
4.358991653946773
 21
5.847076225275369
 31
0.0
  0
LINE
  5
2AEB
330
1F
100
AcDbEntity
  8
NETAFIM-L-DETL-025M-TUBING
100
AcDbLine
 10
2.298776800897719
 20
5.897424523057603
 30
0.0
 11
4.358991653946773
 21
5.897424523057603
 31
0.0
  0
CIRCLE
  5
2AEC
330
1F
100
AcDbEntity
  8
NETAFIM-L-DETL-025M-TUBING
100
AcDbCircle
 10
2.298776800897719
 20
5.872250374166485
 30
0.0
 40
0.0251741488911165
  0
CIRCLE
  5
2AED
330
1F
100
AcDbEntity
  8
NETAFIM-L-DETL-025M-TUBING
100
AcDbCircle
 10
4.358991653946773
 20
5.872250374166485
 30
0.0
 40
0.0251741488911165
  0
CIRCLE
  5
2AEE
330
1F
100
AcDbEntity
  8
NETAFIM-L-DETL-025M-TUBING
100
AcDbCircle
 10
2.298776800897719
 20
5.666469300726399
 30
0.0
 40
0.0251741488911165
  0
LINE
  5
2AEF
330
1F
100
AcDbEntity
  8
NETAFIM-L-DETL-025M-TUBING
100
AcDbLine
 10
2.298776800897719
 20
5.691643449617517
 30
0.0
 11
4.026183737813688
 21
5.691643449617517
 31
0.0
  0
LINE
  5
2AF0
330
1F
100
AcDbEntity
  8
NETAFIM-L-DETL-025M-TUBING
100
AcDbLine
 10
2.298776800897719
 20
5.641295151835283
 30
0.0
 11
4.026183737813688
 21
5.641295151835283
 31
0.0
  0
LINE
  5
2AF1
330
1F
100
AcDbEntity
  8
NETAFIM-L-DETL-025M-TUBING
100
AcDbLine
 10
2.603043858329456
 20
5.402770091091957
 30
0.0
 11
4.026183737813688
 21
5.402770091091957
 31
0.0
  0
LINE
  5
2AF2
330
1F
100
AcDbEntity
  8
NETAFIM-L-DETL-025M-TUBING
100
AcDbLine
 10
2.603043858329456
 20
5.352421793309725
 30
0.0
 11
4.026183737813688
 21
5.352421793309725
 31
0.0
  0
LINE
  5
2AF3
330
1F
100
AcDbEntity
  8
NETAFIM-L-DETL-025M-TUBING
100
AcDbLine
 10
2.603043858329456
 20
5.116728824316648
 30
0.0
 11
4.358991653946773
 21
5.116728824316648
 31
0.0
  0
LINE
  5
2AF4
330
1F
100
AcDbEntity
  8
NETAFIM-L-DETL-025M-TUBING
100
AcDbLine
 10
2.603043858329456
 20
5.066380526534414
 30
0.0
 11
4.358991653946773
 21
5.066380526534414
 31
0.0
  0
LINE
  5
2AF5
330
1F
100
AcDbEntity
  8
NETAFIM-L-DETL-025M-TUBING
100
AcDbLine
 10
2.298776800897719
 20
4.746334651591917
 30
0.0
 11
4.026183737813688
 21
4.746334651591917
 31
0.0
  0
LINE
  5
2AF6
330
1F
100
AcDbEntity
  8
NETAFIM-L-DETL-025M-TUBING
100
AcDbLine
 10
2.298776800897719
 20
4.695986353809685
 30
0.0
 11
4.026183737813688
 21
4.695986353809685
 31
0.0
  0
LINE
  5
2AF7
330
1F
100
AcDbEntity
  8
NETAFIM-L-DETL-025M-TUBING
100
AcDbLine
 10
2.603043858329456
 20
4.449909048399023
 30
0.0
 11
4.026183737813688
 21
4.449909048399023
 31
0.0
  0
LINE
  5
2AF8
330
1F
100
AcDbEntity
  8
NETAFIM-L-DETL-025M-TUBING
100
AcDbLine
 10
2.603043858329456
 20
4.399560750616791
 30
0.0
 11
4.026183737813688
 21
4.399560750616791
 31
0.0
  0
LINE
  5
2AF9
330
1F
100
AcDbEntity
  8
NETAFIM-L-DETL-025M-TUBING
100
AcDbLine
 10
2.603043858329456
 20
4.164497135345991
 30
0.0
 11
4.026183737813688
 21
4.164497135345991
 31
0.0
  0
LINE
  5
2AFA
330
1F
100
AcDbEntity
  8
NETAFIM-L-DETL-025M-TUBING
100
AcDbLine
 10
2.603043858329456
 20
4.114148837563758
 30
0.0
 11
4.026183737813688
 21
4.114148837563758
 31
0.0
  0
LINE
  5
2AFB
330
1F
100
AcDbEntity
  8
NETAFIM-L-DETL-025M-TUBING
100
AcDbLine
 10
2.603043858329456
 20
3.874050392514737
 30
0.0
 11
4.026183737813688
 21
3.874050392514737
 31
0.0
  0
LINE
  5
2AFC
330
1F
100
AcDbEntity
  8
NETAFIM-L-DETL-025M-TUBING
100
AcDbLine
 10
2.603043858329456
 20
3.823702094732505
 30
0.0
 11
4.026183737813688
 21
3.823702094732505
 31
0.0
  0
LINE
  5
2AFD
330
1F
100
AcDbEntity
  8
NETAFIM-L-DETL-025M-TUBING
100
AcDbLine
 10
2.603043858329456
 20
3.583918326544623
 30
0.0
 11
4.026183737813688
 21
3.583918326544623
 31
0.0
  0
LINE
  5
2AFE
330
1F
100
AcDbEntity
  8
NETAFIM-L-DETL-025M-TUBING
100
AcDbLine
 10
2.603043858329456
 20
3.533570028762389
 30
0.0
 11
4.026183737813688
 21
3.533570028762389
 31
0.0
  0
LINE
  5
2AFF
330
1F
100
AcDbEntity
  8
NETAFIM-L-DETL-025M-TUBING
100
AcDbLine
 10
2.603043858329453
 20
2.387451175198488
 30
0.0
 11
4.026183737813688
 21
2.387451175198488
 31
0.0
  0
LINE
  5
2B00
330
1F
100
AcDbEntity
  8
NETAFIM-L-DETL-025M-TUBING
100
AcDbLine
 10
2.603043858329453
 20
2.337102877416255
 30
0.0
 11
4.026183737813688
 21
2.337102877416255
 31
0.0
  0
LINE
  5
2B01
330
1F
100
AcDbEntity
  8
NETAFIM-L-DETL-025M-TUBING
100
AcDbLine
 10
2.603043858329453
 20
2.097319109228374
 30
0.0
 11
4.026183737813688
 21
2.097319109228374
 31
0.0
  0
LINE
  5
2B02
330
1F
100
AcDbEntity
  8
NETAFIM-L-DETL-025M-TUBING
100
AcDbLine
 10
2.603043858329453
 20
2.046970811446141
 30
0.0
 11
4.026183737813688
 21
2.046970811446141
 31
0.0
  0
LINE
  5
2B03
330
1F
100
AcDbEntity
  8
NETAFIM-L-DETL-025M-TUBING
100
AcDbLine
 10
2.603043858329453
 20
1.802781567202313
 30
0.0
 11
4.026183737813688
 21
1.802781567202313
 31
0.0
  0
LINE
  5
2B04
330
1F
100
AcDbEntity
  8
NETAFIM-L-DETL-025M-TUBING
100
AcDbLine
 10
2.603043858329453
 20
1.75243326942008
 30
0.0
 11
4.026183737813688
 21
1.75243326942008
 31
0.0
  0
LINE
  5
2B05
330
1F
100
AcDbEntity
  8
NETAFIM-L-DETL-025M-TUBING
100
AcDbLine
 10
2.603043858329453
 20
1.517054977288143
 30
0.0
 11
4.358991653946773
 21
1.517054977288142
 31
0.0
  0
LINE
  5
2B06
330
1F
100
AcDbEntity
  8
NETAFIM-L-DETL-025M-TUBING
100
AcDbLine
 10
2.603043858329453
 20
1.466706679505909
 30
0.0
 11
4.358991653946773
 21
1.466706679505909
 31
0.0
  0
ARC
  5
2B07
330
1F
100
AcDbEntity
  8
NETAFIM-L-DETL-025M-TUBING
100
AcDbCircle
 10
4.026183737813688
 20
1.924876189324227
 30
0.0
 40
0.122094622121914
100
AcDbArc
 50
270.0
 51
90.0
  0
ARC
  5
2B08
330
1F
100
AcDbEntity
  8
NETAFIM-L-DETL-025M-TUBING
100
AcDbCircle
 10
4.026183737813688
 20
1.924876189324227
 30
0.0
 40
0.172442919904147
100
AcDbArc
 50
270.0
 51
90.0
  0
ARC
  5
2B09
330
1F
100
AcDbEntity
  8
NETAFIM-L-DETL-025M-TUBING
100
AcDbCircle
 10
4.026183737813688
 20
2.50734305929243
 30
0.0
 40
0.1702401818761743
100
AcDbArc
 50
270.0
 51
90.0
  0
ARC
  5
2B0A
330
1F
100
AcDbEntity
  8
NETAFIM-L-DETL-025M-TUBING
100
AcDbCircle
 10
4.026183737813688
 20
2.50734305929243
 30
0.0
 40
0.1198918840939413
100
AcDbArc
 50
270.0
 51
90.0
  0
ARC
  5
2B0B
330
1F
100
AcDbEntity
  8
NETAFIM-L-DETL-025M-TUBING
100
AcDbCircle
 10
4.026183737813688
 20
3.994099615039248
 30
0.0
 40
0.1703975203067436
100
AcDbArc
 50
270.0
 51
90.0
  0
ARC
  5
2B0C
330
1F
100
AcDbEntity
  8
NETAFIM-L-DETL-025M-TUBING
100
AcDbCircle
 10
4.026183737813688
 20
3.994099615039248
 30
0.0
 40
0.1200492225245106
100
AcDbArc
 50
270.0
 51
90.0
  0
ARC
  5
2B0D
330
1F
100
AcDbEntity
  8
NETAFIM-L-DETL-025M-TUBING
100
AcDbCircle
 10
4.026183737813688
 20
4.572947701104352
 30
0.0
 40
0.1733869504875635
100
AcDbArc
 50
270.0
 51
90.0
  0
ARC
  5
2B0E
330
1F
100
AcDbEntity
  8
NETAFIM-L-DETL-025M-TUBING
100
AcDbCircle
 10
4.026183737813688
 20
4.572947701104352
 30
0.0
 40
0.1230386527053306
100
AcDbArc
 50
270.0
 51
90.0
  0
ARC
  5
2B0F
330
1F
100
AcDbEntity
  8
NETAFIM-L-DETL-025M-TUBING
100
AcDbCircle
 10
4.026183737813688
 20
5.522032621463621
 30
0.0
 40
0.169610828153896
100
AcDbArc
 50
270.0
 51
90.0
  0
ARC
  5
2B10
330
1F
100
AcDbEntity
  8
NETAFIM-L-DETL-025M-TUBING
100
AcDbCircle
 10
4.026183737813688
 20
5.522032621463621
 30
0.0
 40
0.1192625303716631
100
AcDbArc
 50
270.0
 51
90.0
  0
ARC
  5
2B11
330
1F
100
AcDbEntity
  8
NETAFIM-L-DETL-025M-TUBING
100
AcDbCircle
 10
2.603043858329453
 20
1.634744123354112
 30
0.0
 40
0.1680374438482016
100
AcDbArc
 50
90.0
 51
270.0
  0
ARC
  5
2B12
330
1F
100
AcDbEntity
  8
NETAFIM-L-DETL-025M-TUBING
100
AcDbCircle
 10
2.603043858329453
 20
1.634744123354112
 30
0.0
 40
0.1176891460659686
100
AcDbArc
 50
90.0
 51
270.0
  0
ARC
  5
2B13
330
1F
100
AcDbEntity
  8
NETAFIM-L-DETL-025M-TUBING
100
AcDbCircle
 10
2.603043858329453
 20
2.217210993322315
 30
0.0
 40
0.170240181876174
100
AcDbArc
 50
90.0
 51
270.0
  0
ARC
  5
2B14
330
1F
100
AcDbEntity
  8
NETAFIM-L-DETL-025M-TUBING
100
AcDbCircle
 10
2.603043858329453
 20
2.217210993322315
 30
0.0
 40
0.119891884093941
100
AcDbArc
 50
90.0
 51
270.0
  0
ARC
  5
2B15
330
1F
100
AcDbEntity
  8
NETAFIM-L-DETL-025M-TUBING
100
AcDbCircle
 10
2.603043858329456
 20
3.703810210638563
 30
0.0
 40
0.170240181876174
100
AcDbArc
 50
90.0
 51
270.0
  0
ARC
  5
2B16
330
1F
100
AcDbEntity
  8
NETAFIM-L-DETL-025M-TUBING
100
AcDbCircle
 10
2.603043858329456
 20
3.703810210638563
 30
0.0
 40
0.119891884093941
100
AcDbArc
 50
90.0
 51
270.0
  0
ARC
  5
2B17
330
1F
100
AcDbEntity
  8
NETAFIM-L-DETL-025M-TUBING
100
AcDbCircle
 10
2.603043858329456
 20
4.282028942981389
 30
0.0
 40
0.167880105417632
100
AcDbArc
 50
90.0
 51
270.0
  0
ARC
  5
2B18
330
1F
100
AcDbEntity
  8
NETAFIM-L-DETL-025M-TUBING
100
AcDbCircle
 10
2.603043858329456
 20
4.282028942981389
 30
0.0
 40
0.117531807635399
100
AcDbArc
 50
90.0
 51
270.0
  0
ARC
  5
2B19
330
1F
100
AcDbEntity
  8
NETAFIM-L-DETL-025M-TUBING
100
AcDbCircle
 10
2.603043858329456
 20
5.234575308813186
 30
0.0
 40
0.1681947822787709
100
AcDbArc
 50
90.0
 51
270.0
  0
ARC
  5
2B1A
330
1F
100
AcDbEntity
  8
NETAFIM-L-DETL-025M-TUBING
100
AcDbCircle
 10
2.603043858329456
 20
5.234575308813186
 30
0.0
 40
0.1178464844965379
100
AcDbArc
 50
90.0
 51
270.0
  0
CIRCLE
  5
2B1B
330
1F
100
AcDbEntity
  8
NETAFIM-L-DETL-025M-TUBING
100
AcDbCircle
 10
4.358991653946773
 20
5.091554675425532
 30
0.0
 40
0.0251741488911165
  0
CIRCLE
  5
2B1C
330
1F
100
AcDbEntity
  8
NETAFIM-L-DETL-025M-TUBING
100
AcDbCircle
 10
2.298776800897719
 20
4.721160502700801
 30
0.0
 40
0.0251741488911165
  0
CIRCLE
  5
2B1D
330
1F
100
AcDbEntity
  8
NETAFIM-L-DETL-025M-TUBING
100
AcDbCircle
 10
4.358991653946773
 20
1.491880828397026
 30
0.0
 40
0.0251741488911165
  0
LINE
  5
2B1E
330
1F
100
AcDbEntity
  8
NETAFIM-L-DETL-025M-TUBING
100
AcDbLine
 10
2.298776800897719
 20
2.627234943386371
 30
0.0
 11
4.026183737813688
 21
2.627234943386371
 31
0.0
  0
LINE
  5
2B1F
330
1F
100
AcDbEntity
  8
NETAFIM-L-DETL-025M-TUBING
100
AcDbLine
 10
2.298776800897719
 20
2.677583241168604
 30
0.0
 11
4.026183737813688
 21
2.677583241168604
 31
0.0
  0
CIRCLE
  5
2B20
330
1F
100
AcDbEntity
  8
NETAFIM-L-DETL-025M-TUBING
100
AcDbCircle
 10
2.298776800897719
 20
2.652409092277487
 30
0.0
 40
0.0251741488911165
  0
LINE
  5
2B21
330
1F
100
AcDbEntity
  8
NETAFIM-L-DETL-025M-TUBING
100
AcDbLine
 10
2.603043858329456
 20
3.293471583713368
 30
0.0
 11
4.026183737813688
 21
3.293471583713368
 31
0.0
  0
LINE
  5
2B22
330
1F
100
AcDbEntity
  8
NETAFIM-L-DETL-025M-TUBING
100
AcDbLine
 10
2.603043858329456
 20
3.243123285931135
 30
0.0
 11
4.026183737813688
 21
3.243123285931135
 31
0.0
  0
ARC
  5
2B23
330
1F
100
AcDbEntity
  8
NETAFIM-L-DETL-025M-TUBING
100
AcDbCircle
 10
2.603043858329456
 20
3.123231401837194
 30
0.0
 40
0.170240181876174
100
AcDbArc
 50
90.0
 51
270.0
  0
ARC
  5
2B24
330
1F
100
AcDbEntity
  8
NETAFIM-L-DETL-025M-TUBING
100
AcDbCircle
 10
2.603043858329456
 20
3.123231401837194
 30
0.0
 40
0.119891884093941
100
AcDbArc
 50
90.0
 51
270.0
  0
ARC
  5
2B25
330
1F
100
AcDbEntity
  8
NETAFIM-L-DETL-025M-TUBING
100
AcDbCircle
 10
4.026183737813688
 20
3.41352080623788
 30
0.0
 40
0.1703975203067436
100
AcDbArc
 50
270.0
 51
90.0
  0
ARC
  5
2B26
330
1F
100
AcDbEntity
  8
NETAFIM-L-DETL-025M-TUBING
100
AcDbCircle
 10
4.026183737813688
 20
3.41352080623788
 30
0.0
 40
0.1200492225245106
100
AcDbArc
 50
270.0
 51
90.0
  0
LINE
  5
2B27
330
1F
100
AcDbEntity
  8
NETAFIM-L-DETL-025M-TUBING
100
AcDbLine
 10
2.603043858329456
 20
3.003339517743254
 30
0.0
 11
4.358991653946773
 21
3.003339517743254
 31
0.0
  0
LINE
  5
2B28
330
1F
100
AcDbEntity
  8
NETAFIM-L-DETL-025M-TUBING
100
AcDbLine
 10
2.603043858329456
 20
2.95299121996102
 30
0.0
 11
4.358991653946773
 21
2.95299121996102
 31
0.0
  0
CIRCLE
  5
2B29
330
1F
100
AcDbEntity
  8
NETAFIM-L-DETL-025M-TUBING
100
AcDbCircle
 10
4.358991653946773
 20
2.978165368852137
 30
0.0
 40
0.0251741488911165
  0
ARC
  5
2B2A
330
1F
100
AcDbEntity
  8
NETAFIM-L-DETL-035M
100
AcDbCircle
 10
2.296369852341733
 20
0.9799912201527174
 30
0.0
 40
0.1353749999999956
100
AcDbArc
 50
115.7874585180341
 51
115.242779645503
  0
TEXT
  5
2B2B
330
1F
100
AcDbEntity
  8
NETAFIM-L-DETL-TEXT-025M
  6
Continuous
100
AcDbText
 10
2.210655566627447
 20
0.9299912201527174
 30
0.0
 40
0.1
  1
AF
  7
DETAIL TEXT
 72
     1
 11
2.296369852341733
 21
0.9799912201527174
 31
0.0
100
AcDbText
 73
     2
  0
ARC
  5
2B2C
330
1F
100
AcDbEntity
  8
NETAFIM-L-DETL-035M
100
AcDbCircle
 10
4.360459515585752
 20
1.23565072006731
 30
0.0
 40
0.1353749999999956
100
AcDbArc
 50
115.7874585180341
 51
115.242779645503
  0
TEXT
  5
2B2D
330
1F
100
AcDbEntity
  8
NETAFIM-L-DETL-TEXT-025M
  6
Continuous
100
AcDbText
 10
4.274745229871466
 20
1.18565072006731
 30
0.0
 40
0.1
  1
AF
  7
DETAIL TEXT
 72
     1
 11
4.360459515585752
 21
1.23565072006731
 31
0.0
100
AcDbText
 73
     2
  0
ARC
  5
2B2E
330
1F
100
AcDbEntity
  8
NETAFIM-L-DETL-035M
100
AcDbCircle
 10
2.291495489680464
 20
6.137776519455529
 30
0.0
 40
0.1353749999999956
100
AcDbArc
 50
115.7874585180341
 51
115.242779645503
  0
TEXT
  5
2B2F
330
1F
100
AcDbEntity
  8
NETAFIM-L-DETL-TEXT-025M
  6
Continuous
100
AcDbText
 10
2.203400251585226
 20
6.087776519455529
 30
0.0
 40
0.1
  1
AR
  7
DETAIL TEXT
 72
     1
 11
2.291495489680464
 21
6.137776519455529
 31
0.0
100
AcDbText
 73
     2
  0
LWPOLYLINE
  5
2B31
330
1F
100
AcDbEntity
  8
NETAFIM-LG-DETL-ANNO
100
AcDbPolyline
 90
        4
 70
     1
 43
0.0
 10
-0.0000000117333592
 20
0.0000000071579578
 10
9.642499988266642
 20
0.0000000071579578
 10
9.642499988266642
 20
7.125000007157956
 10
-0.0000000117333592
 20
7.125000007157956
1001
LandFX
1000
DETAIL-FORMAT
1000
1A
1040
1.0
1000
DIM1
  0
LINE
  5
2B32
330
1F
100
AcDbEntity
  8
NETAFIM-D-070M
100
AcDbLine
 10
0.6827834860482156
 20
0.3411345867920357
 30
0.0
 11
9.402671647946768
 21
0.3411345867920357
 31
0.0
  0
CIRCLE
  5
2B33
330
1F
100
AcDbEntity
  8
NETAFIM-D-070M
100
AcDbCircle
 10
0.4015334860482156
 20
0.3411345867920357
 30
0.0
 40
0.28125
1001
LandFX
1000
DETAIL-CIRCLE
  0
TEXT
  5
2B34
330
1F
100
AcDbEntity
  8
NETAFIM-D-TEXT-025M
100
AcDbText
 10
0.218397029836403
 20
0.2363665679905544
 30
0.0
 40
0.24
  1
00
  7
DETAIL NUMBER
 72
     1
 11
0.4015334860482156
 21
0.2363665679905544
 31
0.0
100
AcDbText
1001
LandFX
1000
DETAIL-NUMBER
  0
TEXT
  5
2B35
330
1F
100
AcDbEntity
  8
NETAFIM-D-TEXT-025M
100
AcDbText
 10
0.8627389445297168
 20
0.4291972900805057
 30
0.0
 40
0.18
  1
Techline® EZ LITE MEDIAN ISLAND LAYOUT:  Down Slope
  7
DETAIL TITLE
100
AcDbText
1001
LandFX
1000
DETAIL-TITLE
  0
TEXT
  5
2B36
330
1F
100
AcDbEntity
  8
NETAFIM-D-TEXT-025M
100
AcDbText
 10
0.8697210703008018
 20
0.1397430208208448
 30
0.0
 40
0.09
  1
NOT TO SCALE
  7
DETAIL TEXT
100
AcDbText
1001
LandFX
1000
DETAIL-SCALE
  0
TEXT
  5
2B37
330
1F
100
AcDbEntity
  8
NETAFIM-D-TEXT-025M
100
AcDbText
 10
7.913906354532702
 20
0.1348378298752806
 30
0.0
 40
0.09
  1
DETAIL - EZ110 LITE
  7
DETAIL TEXT
 72
     2
 11
9.39247778310413
 21
0.1348378298752806
 31
0.0
100
AcDbText
1001
LandFX
1000
DETAIL-FILE
  0
LINE
  5
2B38
330
1F
100
AcDbEntity
  8
NETAFIM-D-NPLT
100
AcDbLine
 10
-0.0000000117333592
 20
0.1500000071579581
 30
0.0
 11
-0.0000000117333592
 21
0.0000000071579578
 31
0.0
  0
LINE
  5
2B39
330
1F
100
AcDbEntity
  8
NETAFIM-D-NPLT
100
AcDbLine
 10
9.642499988266642
 20
0.1500000071579581
 30
0.0
 11
9.642499988266642
 21
0.0000000071579578
 31
0.0
  0
LINE
  5
2B3A
330
1F
100
AcDbEntity
  8
NETAFIM-D-NPLT
100
AcDbLine
 10
-0.0000000117333592
 20
0.0000000071579578
 30
0.0
 11
0.1499999882666394
 21
0.0000000071579578
 31
0.0
  0
LINE
  5
2B3B
330
1F
100
AcDbEntity
  8
NETAFIM-D-NPLT
100
AcDbLine
 10
9.492499988266644
 20
0.0000000071579578
 30
0.0
 11
9.642499988266642
 21
0.0000000071579578
 31
0.0
  0
HATCH
  5
2B3C
330
1F
100
AcDbEntity
  8
NETAFIM-L-DETL-013M
100
AcDbHatch
 10
0.0
 20
0.0
 30
0.0
210
0.0
220
0.0
230
1.0
  2
SOLID
 70
     1
 71
     0
 91
       12
 92
        7
 72
     1
 73
     1
 93
        3
 10
8.182780111986396
 20
0.508858014480297
 42
1.407273687863683
 10
8.30661044399666
 20
0.508858014480297
 42
0.0
 10
8.244695277991528
 20
0.6547210047938555
 42
0.0
 97
        0
 92
        7
 72
     1
 73
     1
 93
        3
 10
8.328564258607677
 20
0.7413756792411457
 42
0.0
 10
8.289189258607677
 20
0.648613992336836
 42
1.407273687863691
 10
8.367939258607677
 20
0.648613992336836
 42
0.0
 97
        0
 92
        7
 72
     0
 73
     1
 93
       10
 10
8.471403906422537
 20
0.6487752689937932
 10
8.504014478420806
 20
0.5638218244876923
 10
8.553964478420805
 20
0.5638218244876923
 10
8.576479120140128
 20
0.7240218244876928
 10
8.526529120140128
 20
0.7240218244876928
 10
8.514589692138397
 20
0.6390683799815911
 10
8.481979120140128
 20
0.7240218244876928
 10
8.432029120140128
 20
0.7240218244876928
 10
8.409514478420803
 20
0.5638218244876923
 10
8.459464478420805
 20
0.5638218244876923
 97
        0
 92
        7
 72
     0
 73
     1
 93
       12
 10
8.631780229874404
 20
0.6237577993482759
 10
8.672276374307546
 20
0.6237577993482759
 10
8.678084457939302
 20
0.6650844617667567
 10
8.637588313506164
 20
0.6650844617667567
 10
8.639780289846285
 20
0.680681183849436
 10
8.6837874915695
 20
0.680681183849436
 10
8.689878621381335
 20
0.7240218244876928
 10
8.593129120140126
 20
0.7240218244876928
 10
8.570614478420804
 20
0.5638218244876923
 10
8.667363979662013
 20
0.5638218244876923
 10
8.673438885518919
 20
0.6070470256882619
 10
8.629431683795704
 20
0.6070470256882619
 97
        0
 92
        7
 72
     0
 73
     1
 93
        8
 10
8.711801479662014
 20
0.5638218244876923
 10
8.761751479662013
 20
0.5638218244876923
 10
8.778191215524429
 20
0.6807966232871224
 10
8.808228715524428
 20
0.6807966232871224
 10
8.814303621381334
 20
0.7240218244876928
 10
8.704278621381337
 20
0.7240218244876928
 10
8.698203715524428
 20
0.6807966232871224
 10
8.72824121552443
 20
0.6807966232871224
 97
        0
 92
        7
 72
     0
 73
     1
 93
        8
 10
8.775267210042596
 20
0.5638218244876923
 10
8.829267210042594
 20
0.5638218244876923
 10
8.837971386582285
 20
0.5849499665483071
 10
8.880784989772866
 20
0.5849499665483071
 10
8.881852976809003
 20
0.5638218244876923
 10
8.933602976809002
 20
0.5638218244876923
 10
8.912512246695502
 20
0.7240218244876928
 10
8.855139983652755
 20
0.7240218244876928
 97
        0
 92
       22
 72
     0
 73
     1
 93
        3
 10
8.853959078583059
 20
0.6237577993482759
 10
8.876105946813439
 20
0.6775161504151948
 10
8.878823328297283
 20
0.6237577993482759
 97
        0
 92
        7
 72
     0
 73
     1
 93
       10
 10
9.008384711215335
 20
0.6237577993482759
 10
9.048880855648473
 20
0.6237577993482759
 10
9.054688939280232
 20
0.6650844617667567
 10
9.01419279484709
 20
0.6650844617667567
 10
9.016384771187212
 20
0.680681183849436
 10
9.060391972910426
 20
0.680681183849436
 10
9.066483102722266
 20
0.7240218244876928
 10
8.969600900999047
 20
0.7240218244876928
 10
8.947086259279725
 20
0.5638218244876923
 10
8.999961259279725
 20
0.5638218244876923
 97
        0
 92
        7
 72
     0
 73
     1
 93
        4
 10
9.134433102722262
 20
0.7240218244876928
 10
9.081558102722262
 20
0.7240218244876928
 10
9.059043461002943
 20
0.5638218244876923
 10
9.111918461002943
 20
0.5638218244876923
 97
        0
 92
        7
 72
     0
 73
     1
 93
       13
 10
9.194590590082192
 20
0.6425896293183256
 10
9.204960568317623
 20
0.5638218244876923
 10
9.239362029811175
 20
0.5638218244876923
 10
9.269742671362308
 20
0.649149430503206
 10
9.269742671362308
 20
0.5638218244876923
 10
9.317892671362308
 20
0.5638218244876923
 10
9.317892671362308
 20
0.7240218244876928
 10
9.26199930412379
 20
0.7240218244876928
 10
9.233007032064357
 20
0.642593617528398
 10
9.222286805244102
 20
0.7240218244876928
 10
9.168440896299223
 20
0.7240218244876928
 10
9.12250428550066
 20
0.5638218244876923
 10
9.172004285500662
 20
0.5638218244876923
 97
        0
 92
        7
 72
     0
 73
     1
 93
        8
 10
9.359631371873334
 20
0.7240218244876928
 10
9.334881371873333
 20
0.7240218244876928
 10
9.334881371873333
 20
0.7192968244876923
 10
9.34388137187333
 20
0.7192968244876923
 10
9.34388137187333
 20
0.6943218244876928
 10
9.350631371873333
 20
0.6943218244876928
 10
9.350631371873333
 20
0.7192968244876923
 10
9.359631371873334
 20
0.7192968244876923
 97
        0
 92
        7
 72
     0
 73
     1
 93
       13
 10
9.374481371873333
 20
0.7240218244876928
 10
9.363456371873333
 20
0.7240218244876928
 10
9.363456371873333
 20
0.6943218244876928
 10
9.370206371873333
 20
0.6943218244876928
 10
9.370206371873333
 20
0.7157621125174991
 10
9.378868871873333
 20
0.6943218244876928
 10
9.383368871873333
 20
0.6943218244876928
 10
9.392031371873333
 20
0.7157621125174983
 10
9.392031371873333
 20
0.6943218244876928
 10
9.398781371873333
 20
0.6943218244876928
 10
9.398781371873333
 20
0.7240218244876928
 10
9.387756371873333
 20
0.7240218244876928
 10
9.381118871873333
 20
0.7075935518414776
 97
        0
 75
     0
 76
     1
 47
0.0019728894204142
 98
       12
 10
8.230372123377289
 20
0.5103152213082556
 10
8.336056481632002
 20
0.6443730587624082
 10
8.449733776783801
 20
0.6372706559509274
 10
8.618473510639262
 20
0.6372706559509274
 10
8.745472363248918
 20
0.6354950562553184
 10
8.829842227148688
 20
0.6124122501397889
 10
8.829842227148688
 20
0.6124122501397889
 10
8.987924716854642
 20
0.6239536521902922
 10
9.102490113414592
 20
0.625729253900424
 10
9.187748084778441
 20
0.6488120600159526
 10
9.348494881736819
 20
0.7224994796160856
 10
9.365368856939142
 20
0.7233872794638901
450
        0
451
        0
460
0.0
461
0.0
452
        1
462
1.0
453
        2
463
0.0
 63
     5
421
      255
463
1.0
 63
     7
421
 16777215
470
LINEAR
1001
ACAD
1010
0.0
1020
0.0
1030
0.0
  0
LWPOLYLINE
  5
2B3D
330
1F
100
AcDbEntity
  8
NETAFIM-L-DETL-013M
100
AcDbPolyline
 90
        3
 70
     1
 43
0.0
 10
8.328564258607677
 20
0.7413756792411457
 10
8.289189258607677
 20
0.648613992336836
 42
1.407273687863686
 10
8.367939258607677
 20
0.6486139923368351
  0
LWPOLYLINE
  5
2B3E
330
1F
100
AcDbEntity
  8
NETAFIM-L-DETL-013M
100
AcDbPolyline
 90
        3
 70
     1
 43
0.0
 10
8.244695277991528
 20
0.6547210047938555
 10
8.182780111986396
 20
0.508858014480297
 42
1.407273687863686
 10
8.30661044399666
 20
0.508858014480297
  0
LWPOLYLINE
  5
2B3F
330
1F
100
AcDbEntity
  8
NETAFIM-L-DETL-013M
100
AcDbPolyline
 90
        2
 70
     0
 43
0.0
 10
8.432029120140128
 20
0.7240218244876928
 10
8.481979120140128
 20
0.7240218244876928
  0
LWPOLYLINE
  5
2B40
330
1F
100
AcDbEntity
  8
NETAFIM-L-DETL-013M
100
AcDbPolyline
 90
        2
 70
     0
 43
0.0
 10
8.526529120140128
 20
0.7240218244876928
 10
8.576479120140128
 20
0.7240218244876928
  0
LWPOLYLINE
  5
2B41
330
1F
100
AcDbEntity
  8
NETAFIM-L-DETL-013M
100
AcDbPolyline
 90
        2
 70
     0
 43
0.0
 10
8.704278621381337
 20
0.7240218244876928
 10
8.814303621381334
 20
0.7240218244876928
  0
LWPOLYLINE
  5
2B42
330
1F
100
AcDbEntity
  8
NETAFIM-L-DETL-013M
100
AcDbPolyline
 90
        2
 70
     0
 43
0.0
 10
8.855139983652755
 20
0.7240218244876928
 10
8.912512246695502
 20
0.7240218244876928
  0
LWPOLYLINE
  5
2B43
330
1F
100
AcDbEntity
  8
NETAFIM-L-DETL-013M
100
AcDbPolyline
 90
        2
 70
     0
 43
0.0
 10
8.969600900999047
 20
0.7240218244876928
 10
9.066483102722266
 20
0.7240218244876928
  0
LWPOLYLINE
  5
2B44
330
1F
100
AcDbEntity
  8
NETAFIM-L-DETL-013M
100
AcDbPolyline
 90
        2
 70
     0
 43
0.0
 10
9.081558102722262
 20
0.7240218244876928
 10
9.134433102722262
 20
0.7240218244876928
  0
LWPOLYLINE
  5
2B45
330
1F
100
AcDbEntity
  8
NETAFIM-L-DETL-013M
100
AcDbPolyline
 90
        2
 70
     0
 43
0.0
 10
9.168440896299223
 20
0.7240218244876928
 10
9.222286805244102
 20
0.7240218244876928
  0
LWPOLYLINE
  5
2B46
330
1F
100
AcDbEntity
  8
NETAFIM-L-DETL-013M
100
AcDbPolyline
 90
        2
 70
     0
 43
0.0
 10
9.26199930412379
 20
0.7240218244876928
 10
9.317892671362308
 20
0.7240218244876928
  0
LWPOLYLINE
  5
2B47
330
1F
100
AcDbEntity
  8
NETAFIM-L-DETL-013M
100
AcDbPolyline
 90
        2
 70
     0
 43
0.0
 10
9.334881371873333
 20
0.7240218244876928
 10
9.359631371873334
 20
0.7240218244876928
  0
LWPOLYLINE
  5
2B48
330
1F
100
AcDbEntity
  8
NETAFIM-L-DETL-013M
100
AcDbPolyline
 90
        2
 70
     0
 43
0.0
 10
9.363456371873333
 20
0.7240218244876928
 10
9.374481371873333
 20
0.7240218244876928
  0
LWPOLYLINE
  5
2B49
330
1F
100
AcDbEntity
  8
NETAFIM-L-DETL-013M
100
AcDbPolyline
 90
        2
 70
     0
 43
0.0
 10
9.387756371873333
 20
0.7240218244876928
 10
9.398781371873333
 20
0.7240218244876928
  0
LWPOLYLINE
  5
2B4A
330
1F
100
AcDbEntity
  8
NETAFIM-L-DETL-013M
100
AcDbPolyline
 90
        2
 70
     0
 43
0.0
 10
9.34388137187333
 20
0.6943218244876928
 10
9.350631371873333
 20
0.6943218244876928
  0
LWPOLYLINE
  5
2B4B
330
1F
100
AcDbEntity
  8
NETAFIM-L-DETL-013M
100
AcDbPolyline
 90
        2
 70
     0
 43
0.0
 10
9.363456371873333
 20
0.6943218244876928
 10
9.370206371873333
 20
0.6943218244876928
  0
LWPOLYLINE
  5
2B4C
330
1F
100
AcDbEntity
  8
NETAFIM-L-DETL-013M
100
AcDbPolyline
 90
        2
 70
     0
 43
0.0
 10
9.378868871873333
 20
0.6943218244876928
 10
9.383368871873333
 20
0.6943218244876928
  0
LWPOLYLINE
  5
2B4D
330
1F
100
AcDbEntity
  8
NETAFIM-L-DETL-013M
100
AcDbPolyline
 90
        2
 70
     0
 43
0.0
 10
9.392031371873333
 20
0.6943218244876928
 10
9.398781371873333
 20
0.6943218244876928
  0
LWPOLYLINE
  5
2B4E
330
1F
100
AcDbEntity
  8
NETAFIM-L-DETL-013M
100
AcDbPolyline
 90
        2
 70
     0
 43
0.0
 10
8.409514478420803
 20
0.5638218244876923
 10
8.459464478420805
 20
0.5638218244876923
  0
LWPOLYLINE
  5
2B4F
330
1F
100
AcDbEntity
  8
NETAFIM-L-DETL-013M
100
AcDbPolyline
 90
        2
 70
     0
 43
0.0
 10
8.504014478420806
 20
0.5638218244876923
 10
8.553964478420805
 20
0.5638218244876923
  0
LWPOLYLINE
  5
2B50
330
1F
100
AcDbEntity
  8
NETAFIM-L-DETL-013M
100
AcDbPolyline
 90
        2
 70
     0
 43
0.0
 10
8.570614478420804
 20
0.5638218244876923
 10
8.667363979662013
 20
0.5638218244876923
  0
LWPOLYLINE
  5
2B51
330
1F
100
AcDbEntity
  8
NETAFIM-L-DETL-013M
100
AcDbPolyline
 90
        2
 70
     0
 43
0.0
 10
8.711801479662014
 20
0.5638218244876923
 10
8.761751479662013
 20
0.5638218244876923
  0
LWPOLYLINE
  5
2B52
330
1F
100
AcDbEntity
  8
NETAFIM-L-DETL-013M
100
AcDbPolyline
 90
        2
 70
     0
 43
0.0
 10
8.775267210042596
 20
0.5638218244876923
 10
8.829267210042594
 20
0.5638218244876923
  0
LWPOLYLINE
  5
2B53
330
1F
100
AcDbEntity
  8
NETAFIM-L-DETL-013M
100
AcDbPolyline
 90
        2
 70
     0
 43
0.0
 10
8.881852976809003
 20
0.5638218244876923
 10
8.933602976809002
 20
0.5638218244876923
  0
LWPOLYLINE
  5
2B54
330
1F
100
AcDbEntity
  8
NETAFIM-L-DETL-013M
100
AcDbPolyline
 90
        2
 70
     0
 43
0.0
 10
8.947086259279725
 20
0.5638218244876923
 10
8.999961259279725
 20
0.5638218244876923
  0
LWPOLYLINE
  5
2B55
330
1F
100
AcDbEntity
  8
NETAFIM-L-DETL-013M
100
AcDbPolyline
 90
        2
 70
     0
 43
0.0
 10
9.059043461002943
 20
0.5638218244876923
 10
9.111918461002943
 20
0.5638218244876923
  0
LWPOLYLINE
  5
2B56
330
1F
100
AcDbEntity
  8
NETAFIM-L-DETL-013M
100
AcDbPolyline
 90
        2
 70
     0
 43
0.0
 10
9.12250428550066
 20
0.5638218244876923
 10
9.172004285500662
 20
0.5638218244876923
  0
LWPOLYLINE
  5
2B57
330
1F
100
AcDbEntity
  8
NETAFIM-L-DETL-013M
100
AcDbPolyline
 90
        2
 70
     0
 43
0.0
 10
9.204960568317623
 20
0.5638218244876923
 10
9.239362029811175
 20
0.5638218244876923
  0
LWPOLYLINE
  5
2B58
330
1F
100
AcDbEntity
  8
NETAFIM-L-DETL-013M
100
AcDbPolyline
 90
        2
 70
     0
 43
0.0
 10
9.269742671362308
 20
0.5638218244876923
 10
9.317892671362308
 20
0.5638218244876923
  0
LWPOLYLINE
  5
2B59
330
1F
100
AcDbEntity
  8
NETAFIM-L-DETL-013M
100
AcDbPolyline
 90
        2
 70
     0
 43
0.0
 10
8.409514478420803
 20
0.5638218244876923
 10
8.432029120140128
 20
0.7240218244876928
  0
LWPOLYLINE
  5
2B5A
330
1F
100
AcDbEntity
  8
NETAFIM-L-DETL-013M
100
AcDbPolyline
 90
        2
 70
     0
 43
0.0
 10
8.459464478420805
 20
0.5638218244876923
 10
8.471403906422537
 20
0.6487752689937932
  0
LWPOLYLINE
  5
2B5B
330
1F
100
AcDbEntity
  8
NETAFIM-L-DETL-013M
100
AcDbPolyline
 90
        2
 70
     0
 43
0.0
 10
8.514589692138397
 20
0.6390683799815911
 10
8.481979120140128
 20
0.7240218244876928
  0
LWPOLYLINE
  5
2B5C
330
1F
100
AcDbEntity
  8
NETAFIM-L-DETL-013M
100
AcDbPolyline
 90
        2
 70
     0
 43
0.0
 10
8.514589692138397
 20
0.6390683799815911
 10
8.526529120140128
 20
0.7240218244876928
  0
LWPOLYLINE
  5
2B5D
330
1F
100
AcDbEntity
  8
NETAFIM-L-DETL-013M
100
AcDbPolyline
 90
        2
 70
     0
 43
0.0
 10
8.504014478420806
 20
0.5638218244876923
 10
8.471403906422537
 20
0.6487752689937932
  0
LWPOLYLINE
  5
2B5E
330
1F
100
AcDbEntity
  8
NETAFIM-L-DETL-013M
100
AcDbPolyline
 90
        2
 70
     0
 43
0.0
 10
8.553964478420805
 20
0.5638218244876923
 10
8.576479120140128
 20
0.7240218244876928
  0
LWPOLYLINE
  5
2B5F
330
1F
100
AcDbEntity
  8
NETAFIM-L-DETL-013M
100
AcDbPolyline
 90
        2
 70
     0
 43
0.0
 10
8.570614478420804
 20
0.5638218244876923
 10
8.593129120140126
 20
0.7240218244876928
  0
LWPOLYLINE
  5
2B60
330
1F
100
AcDbEntity
  8
NETAFIM-L-DETL-013M
100
AcDbPolyline
 90
        2
 70
     0
 43
0.0
 10
8.667363979662013
 20
0.5638218244876923
 10
8.673438885518919
 20
0.6070470256882619
  0
LWPOLYLINE
  5
2B61
330
1F
100
AcDbEntity
  8
NETAFIM-L-DETL-013M
100
AcDbPolyline
 90
        2
 70
     0
 43
0.0
 10
8.6837874915695
 20
0.680681183849436
 10
8.689878621381335
 20
0.7240218244876928
  0
LWPOLYLINE
  5
2B62
330
1F
100
AcDbEntity
  8
NETAFIM-L-DETL-013M
100
AcDbPolyline
 90
        2
 70
     0
 43
0.0
 10
8.629431683795704
 20
0.6070470256882619
 10
8.631780229874404
 20
0.6237577993482759
  0
LWPOLYLINE
  5
2B63
330
1F
100
AcDbEntity
  8
NETAFIM-L-DETL-013M
100
AcDbPolyline
 90
        2
 70
     0
 43
0.0
 10
8.637588313506164
 20
0.6650844617667567
 10
8.639780289846285
 20
0.680681183849436
  0
LWPOLYLINE
  5
2B64
330
1F
100
AcDbEntity
  8
NETAFIM-L-DETL-013M
100
AcDbPolyline
 90
        2
 70
     0
 43
0.0
 10
8.672276374307546
 20
0.6237577993482759
 10
8.678084457939302
 20
0.6650844617667567
  0
LWPOLYLINE
  5
2B65
330
1F
100
AcDbEntity
  8
NETAFIM-L-DETL-013M
100
AcDbPolyline
 90
        2
 70
     0
 43
0.0
 10
8.698203715524428
 20
0.6807966232871224
 10
8.704278621381337
 20
0.7240218244876928
  0
LWPOLYLINE
  5
2B66
330
1F
100
AcDbEntity
  8
NETAFIM-L-DETL-013M
100
AcDbPolyline
 90
        2
 70
     0
 43
0.0
 10
8.808228715524428
 20
0.6807966232871224
 10
8.814303621381334
 20
0.7240218244876928
  0
LWPOLYLINE
  5
2B67
330
1F
100
AcDbEntity
  8
NETAFIM-L-DETL-013M
100
AcDbPolyline
 90
        2
 70
     0
 43
0.0
 10
8.698203715524428
 20
0.6807966232871224
 10
8.72824121552443
 20
0.6807966232871224
  0
LWPOLYLINE
  5
2B68
330
1F
100
AcDbEntity
  8
NETAFIM-L-DETL-013M
100
AcDbPolyline
 90
        2
 70
     0
 43
0.0
 10
8.778191215524429
 20
0.6807966232871224
 10
8.808228715524428
 20
0.6807966232871224
  0
LWPOLYLINE
  5
2B69
330
1F
100
AcDbEntity
  8
NETAFIM-L-DETL-013M
100
AcDbPolyline
 90
        2
 70
     0
 43
0.0
 10
8.711801479662014
 20
0.5638218244876923
 10
8.72824121552443
 20
0.6807966232871224
  0
LWPOLYLINE
  5
2B6A
330
1F
100
AcDbEntity
  8
NETAFIM-L-DETL-013M
100
AcDbPolyline
 90
        2
 70
     0
 43
0.0
 10
8.761751479662013
 20
0.5638218244876923
 10
8.778191215524429
 20
0.6807966232871224
  0
LWPOLYLINE
  5
2B6B
330
1F
100
AcDbEntity
  8
NETAFIM-L-DETL-013M
100
AcDbPolyline
 90
        2
 70
     0
 43
0.0
 10
8.6837874915695
 20
0.680681183849436
 10
8.639780289846285
 20
0.680681183849436
  0
LWPOLYLINE
  5
2B6C
330
1F
100
AcDbEntity
  8
NETAFIM-L-DETL-013M
100
AcDbPolyline
 90
        2
 70
     0
 43
0.0
 10
8.673438885518919
 20
0.6070470256882619
 10
8.629431683795704
 20
0.6070470256882619
  0
LWPOLYLINE
  5
2B6D
330
1F
100
AcDbEntity
  8
NETAFIM-L-DETL-013M
100
AcDbPolyline
 90
        2
 70
     0
 43
0.0
 10
8.672276374307546
 20
0.6237577993482759
 10
8.631780229874404
 20
0.6237577993482759
  0
LWPOLYLINE
  5
2B6E
330
1F
100
AcDbEntity
  8
NETAFIM-L-DETL-013M
100
AcDbPolyline
 90
        2
 70
     0
 43
0.0
 10
8.678084457939302
 20
0.6650844617667567
 10
8.637588313506164
 20
0.6650844617667567
  0
LWPOLYLINE
  5
2B6F
330
1F
100
AcDbEntity
  8
NETAFIM-L-DETL-013M
100
AcDbPolyline
 90
        2
 70
     0
 43
0.0
 10
8.878823328297283
 20
0.6237577993482759
 10
8.853959078583059
 20
0.6237577993482759
  0
LWPOLYLINE
  5
2B70
330
1F
100
AcDbEntity
  8
NETAFIM-L-DETL-013M
100
AcDbPolyline
 90
        2
 70
     0
 43
0.0
 10
8.947086259279725
 20
0.5638218244876923
 10
8.969600900999047
 20
0.7240218244876928
  0
LWPOLYLINE
  5
2B71
330
1F
100
AcDbEntity
  8
NETAFIM-L-DETL-013M
100
AcDbPolyline
 90
        2
 70
     0
 43
0.0
 10
9.059043461002943
 20
0.5638218244876923
 10
9.081558102722262
 20
0.7240218244876928
  0
LWPOLYLINE
  5
2B72
330
1F
100
AcDbEntity
  8
NETAFIM-L-DETL-013M
100
AcDbPolyline
 90
        2
 70
     0
 43
0.0
 10
9.060391972910426
 20
0.680681183849436
 10
9.066483102722266
 20
0.7240218244876928
  0
LWPOLYLINE
  5
2B73
330
1F
100
AcDbEntity
  8
NETAFIM-L-DETL-013M
100
AcDbPolyline
 90
        2
 70
     0
 43
0.0
 10
8.775267210042596
 20
0.5638218244876923
 10
8.855139983652755
 20
0.7240218244876928
  0
LWPOLYLINE
  5
2B74
330
1F
100
AcDbEntity
  8
NETAFIM-L-DETL-013M
100
AcDbPolyline
 90
        2
 70
     0
 43
0.0
 10
8.829267210042594
 20
0.5638218244876923
 10
8.837971386582285
 20
0.5849499665483071
  0
LWPOLYLINE
  5
2B75
330
1F
100
AcDbEntity
  8
NETAFIM-L-DETL-013M
100
AcDbPolyline
 90
        2
 70
     0
 43
0.0
 10
8.853959078583059
 20
0.6237577993482759
 10
8.876105946813439
 20
0.6775161504151948
  0
LWPOLYLINE
  5
2B76
330
1F
100
AcDbEntity
  8
NETAFIM-L-DETL-013M
100
AcDbPolyline
 90
        2
 70
     0
 43
0.0
 10
8.933602976809002
 20
0.5638218244876923
 10
8.912512246695502
 20
0.7240218244876928
  0
LWPOLYLINE
  5
2B77
330
1F
100
AcDbEntity
  8
NETAFIM-L-DETL-013M
100
AcDbPolyline
 90
        2
 70
     0
 43
0.0
 10
8.881852976809003
 20
0.5638218244876923
 10
8.880784989772866
 20
0.5849499665483071
  0
LWPOLYLINE
  5
2B78
330
1F
100
AcDbEntity
  8
NETAFIM-L-DETL-013M
100
AcDbPolyline
 90
        2
 70
     0
 43
0.0
 10
8.878823328297283
 20
0.6237577993482759
 10
8.876105946813439
 20
0.6775161504151948
  0
LWPOLYLINE
  5
2B79
330
1F
100
AcDbEntity
  8
NETAFIM-L-DETL-013M
100
AcDbPolyline
 90
        2
 70
     0
 43
0.0
 10
9.048880855648473
 20
0.6237577993482759
 10
9.054688939280232
 20
0.6650844617667567
  0
LWPOLYLINE
  5
2B7A
330
1F
100
AcDbEntity
  8
NETAFIM-L-DETL-013M
100
AcDbPolyline
 90
        2
 70
     0
 43
0.0
 10
9.054688939280232
 20
0.6650844617667567
 10
9.01419279484709
 20
0.6650844617667567
  0
LWPOLYLINE
  5
2B7B
330
1F
100
AcDbEntity
  8
NETAFIM-L-DETL-013M
100
AcDbPolyline
 90
        2
 70
     0
 43
0.0
 10
9.048880855648473
 20
0.6237577993482759
 10
9.008384711215335
 20
0.6237577993482759
  0
LWPOLYLINE
  5
2B7C
330
1F
100
AcDbEntity
  8
NETAFIM-L-DETL-013M
100
AcDbPolyline
 90
        2
 70
     0
 43
0.0
 10
8.999961259279725
 20
0.5638218244876923
 10
9.008384711215335
 20
0.6237577993482759
  0
LWPOLYLINE
  5
2B7D
330
1F
100
AcDbEntity
  8
NETAFIM-L-DETL-013M
100
AcDbPolyline
 90
        2
 70
     0
 43
0.0
 10
9.01419279484709
 20
0.6650844617667567
 10
9.016384771187212
 20
0.680681183849436
  0
LWPOLYLINE
  5
2B7E
330
1F
100
AcDbEntity
  8
NETAFIM-L-DETL-013M
100
AcDbPolyline
 90
        2
 70
     0
 43
0.0
 10
8.837971386582285
 20
0.5849499665483071
 10
8.880784989772866
 20
0.5849499665483071
  0
LWPOLYLINE
  5
2B7F
330
1F
100
AcDbEntity
  8
NETAFIM-L-DETL-013M
100
AcDbPolyline
 90
        2
 70
     0
 43
0.0
 10
9.060391972910426
 20
0.680681183849436
 10
9.016384771187212
 20
0.680681183849436
  0
LWPOLYLINE
  5
2B80
330
1F
100
AcDbEntity
  8
NETAFIM-L-DETL-013M
100
AcDbPolyline
 90
        2
 70
     0
 43
0.0
 10
9.233007032064357
 20
0.642593617528398
 10
9.222286805244102
 20
0.7240218244876928
  0
LWPOLYLINE
  5
2B81
330
1F
100
AcDbEntity
  8
NETAFIM-L-DETL-013M
100
AcDbPolyline
 90
        2
 70
     0
 43
0.0
 10
9.204960568317623
 20
0.5638218244876923
 10
9.194590590082192
 20
0.6425896293183256
  0
LWPOLYLINE
  5
2B82
330
1F
100
AcDbEntity
  8
NETAFIM-L-DETL-013M
100
AcDbPolyline
 90
        2
 70
     0
 43
0.0
 10
9.269742671362308
 20
0.5638218244876923
 10
9.269742671362308
 20
0.649149430503206
  0
LWPOLYLINE
  5
2B83
330
1F
100
AcDbEntity
  8
NETAFIM-L-DETL-013M
100
AcDbPolyline
 90
        2
 70
     0
 43
0.0
 10
9.12250428550066
 20
0.5638218244876923
 10
9.168440896299223
 20
0.7240218244876928
  0
LWPOLYLINE
  5
2B84
330
1F
100
AcDbEntity
  8
NETAFIM-L-DETL-013M
100
AcDbPolyline
 90
        2
 70
     0
 43
0.0
 10
9.172004285500662
 20
0.5638218244876923
 10
9.194590590082192
 20
0.6425896293183256
  0
LWPOLYLINE
  5
2B85
330
1F
100
AcDbEntity
  8
NETAFIM-L-DETL-013M
100
AcDbPolyline
 90
        2
 70
     0
 43
0.0
 10
9.233007032064357
 20
0.642593617528398
 10
9.26199930412379
 20
0.7240218244876928
  0
LWPOLYLINE
  5
2B86
330
1F
100
AcDbEntity
  8
NETAFIM-L-DETL-013M
100
AcDbPolyline
 90
        2
 70
     0
 43
0.0
 10
9.239362029811175
 20
0.5638218244876932
 10
9.269742671362308
 20
0.649149430503206
  0
LWPOLYLINE
  5
2B87
330
1F
100
AcDbEntity
  8
NETAFIM-L-DETL-013M
100
AcDbPolyline
 90
        2
 70
     0
 43
0.0
 10
8.593129120140126
 20
0.7240218244876928
 10
8.689878621381335
 20
0.7240218244876928
  0
LWPOLYLINE
  5
2B88
330
1F
100
AcDbEntity
  8
NETAFIM-L-DETL-013M
100
AcDbPolyline
 90
        2
 70
     0
 43
0.0
 10
9.334881371873333
 20
0.7240218244876928
 10
9.334881371873333
 20
0.7192968244876923
  0
LWPOLYLINE
  5
2B89
330
1F
100
AcDbEntity
  8
NETAFIM-L-DETL-013M
100
AcDbPolyline
 90
        2
 70
     0
 43
0.0
 10
9.359631371873334
 20
0.7240218244876928
 10
9.359631371873334
 20
0.7192968244876923
  0
LWPOLYLINE
  5
2B8A
330
1F
100
AcDbEntity
  8
NETAFIM-L-DETL-013M
100
AcDbPolyline
 90
        2
 70
     0
 43
0.0
 10
9.363456371873333
 20
0.7240218244876928
 10
9.363456371873333
 20
0.6943218244876928
  0
LWPOLYLINE
  5
2B8B
330
1F
100
AcDbEntity
  8
NETAFIM-L-DETL-013M
100
AcDbPolyline
 90
        2
 70
     0
 43
0.0
 10
9.370206371873333
 20
0.6943218244876928
 10
9.370206371873333
 20
0.7157621125174983
  0
LWPOLYLINE
  5
2B8C
330
1F
100
AcDbEntity
  8
NETAFIM-L-DETL-013M
100
AcDbPolyline
 90
        2
 70
     0
 43
0.0
 10
9.392031371873333
 20
0.6943218244876928
 10
9.392031371873333
 20
0.7157621125174983
  0
LWPOLYLINE
  5
2B8D
330
1F
100
AcDbEntity
  8
NETAFIM-L-DETL-013M
100
AcDbPolyline
 90
        2
 70
     0
 43
0.0
 10
9.34388137187333
 20
0.6943218244876928
 10
9.34388137187333
 20
0.7192968244876923
  0
LWPOLYLINE
  5
2B8E
330
1F
100
AcDbEntity
  8
NETAFIM-L-DETL-013M
100
AcDbPolyline
 90
        2
 70
     0
 43
0.0
 10
9.334881371873333
 20
0.7192968244876923
 10
9.34388137187333
 20
0.7192968244876923
  0
LWPOLYLINE
  5
2B8F
330
1F
100
AcDbEntity
  8
NETAFIM-L-DETL-013M
100
AcDbPolyline
 90
        2
 70
     0
 43
0.0
 10
9.350631371873333
 20
0.7192968244876923
 10
9.359631371873334
 20
0.7192968244876923
  0
LWPOLYLINE
  5
2B90
330
1F
100
AcDbEntity
  8
NETAFIM-L-DETL-013M
100
AcDbPolyline
 90
        2
 70
     0
 43
0.0
 10
9.374481371873333
 20
0.7240218244876928
 10
9.381118871873333
 20
0.7075935518414776
  0
LWPOLYLINE
  5
2B91
330
1F
100
AcDbEntity
  8
NETAFIM-L-DETL-013M
100
AcDbPolyline
 90
        2
 70
     0
 43
0.0
 10
9.387756371873333
 20
0.7240218244876928
 10
9.381118871873333
 20
0.7075935518414776
  0
LWPOLYLINE
  5
2B92
330
1F
100
AcDbEntity
  8
NETAFIM-L-DETL-013M
100
AcDbPolyline
 90
        2
 70
     0
 43
0.0
 10
9.392031371873333
 20
0.7157621125174983
 10
9.383368871873333
 20
0.6943218244876928
  0
LWPOLYLINE
  5
2B93
330
1F
100
AcDbEntity
  8
NETAFIM-L-DETL-013M
100
AcDbPolyline
 90
        2
 70
     0
 43
0.0
 10
9.370206371873333
 20
0.7157621125174983
 10
9.378868871873333
 20
0.6943218244876928
  0
LWPOLYLINE
  5
2B94
330
1F
100
AcDbEntity
  8
NETAFIM-L-DETL-013M
100
AcDbPolyline
 90
        2
 70
     0
 43
0.0
 10
9.134433102722262
 20
0.7240218244876928
 10
9.111918461002943
 20
0.5638218244876923
  0
LWPOLYLINE
  5
2B95
330
1F
100
AcDbEntity
  8
NETAFIM-L-DETL-013M
100
AcDbPolyline
 90
        2
 70
     0
 43
0.0
 10
9.317892671362308
 20
0.5638218244876923
 10
9.317892671362308
 20
0.7240218244876928
  0
LWPOLYLINE
  5
2B96
330
1F
100
AcDbEntity
  8
NETAFIM-L-DETL-013M
100
AcDbPolyline
 90
        2
 70
     0
 43
0.0
 10
9.350631371873333
 20
0.6943218244876928
 10
9.350631371873333
 20
0.7192968244876923
  0
LWPOLYLINE
  5
2B97
330
1F
100
AcDbEntity
  8
NETAFIM-L-DETL-013M
100
AcDbPolyline
 90
        2
 70
     0
 43
0.0
 10
9.398781371873333
 20
0.6943218244876928
 10
9.398781371873333
 20
0.7240218244876928
  0
MULTILEADER
  5
2B98
330
1F
100
AcDbEntity
  8
NETAFIM-L-DETL-TEXT-LEADER-025M
 92
      584
310
48020000140000000C00000016000000000000C00C00000013000000993A0000B40000000B000000A2ECD2759965164012431A229DE61A40000000000000000000000000000000000000000000000000000000000000F03F000000000000F03F000000000000000000000000000000004149522F56414355554D2052454C49
310
45462056414C56450017000000010000000AD7A3703D0AB73F000000000000F03F0000000000000000000000000000F03F0000000000000000000000000000000000000000726F6D616E732E7368780000000070000C00000010000000080000000C00000016000000000000C00C00000012000000FF7F00000C0000001300
310
0000010000000C00000014000000010000005400000007000000030000005F3C539C16A30340D38AD413604D1940000000000000000006D8C1F49BD30240D3D94172670819400000000000000000F27E2A99226B0340196129DA4A6B194000000000000000000C00000013000000891300003C0000000600000002000000A8
310
DDBE9A1C870340F6F5FE76555C19400000000000000000D81A89E09C390740B0EFB059E3161B4000000000000000000C00000013000000112700003C0000000600000002000000D81A89E09C390740B0EFB059E3161B40000000000000000026277BF9D30D1640B0EFB059E3161B4000000000000000000C00000016000000
310
000000C00C00000012000000FF7F00000C00000017000000000000000C000000130000009A3A00000C00000016000000000000C00C00000012000000FF7F00000C00000017000000FFFFFFFF
100
AcDbMLeader
300
CONTEXT_DATA{
 40
1.0
 10
5.513503931180627
 20
6.77235164778169
 30
0.0
 41
0.09
140
0.12
145
0.09
174
     1
175
     1
176
     0
177
     0
290
     1
304
{\Fromans|c0;AIR/VACUUM RELIEF VALVE }
 11
0.0
 21
0.0
 31
1.0
340
27C8
 12
5.603503931180627
 22
6.832351647781689
 32
0.0
 13
1.0
 23
0.0
 33
0.0
 42
0.0
 43
2.614825249745052
 44
0.0
 45
1.0
170
     1
 90
-1073741824
171
     1
172
     5
 91
-1073741824
141
0.0
 92
        0
291
     0
292
     0
173
     0
293
     0
142
0.0
143
0.0
294
     0
295
     0
296
     0
110
2.779069521437241
120
6.466299513455881
130
0.0
111
1.0
121
0.0
131
0.0
112
0.0
122
1.0
132
0.0
297
     0
302
LEADER{
290
     1
291
     1
 10
2.903131250557049
 20
6.77235164778169
 30
0.0
 11
1.0
 21
0.0
 31
0.0
 90
        0
 40
2.610372680623579
304
LEADER_LINE{
 10
2.353324806371349
 20
6.25820711638376
 30
0.0
 91
        0
305
}
303
}
301
}
340
27CB
 90
   279680
170
     1
 91
-1056964608
341
14
171
    -2
290
     1
291
     1
 41
0.36
 42
0.12
172
     2
343
27C8
173
     1
 95
        1
174
     1
175
     0
 92
-1056964608
292
     0
 93
-1056964608
 10
1.0
 20
1.0
 30
1.0
 43
0.0
176
     0
293
     0
294
     0
178
     0
179
     1
 45
1.0
1001
ACAD_MLEADERVER
1070
     2
  0
MULTILEADER
  5
2B99
330
1F
100
AcDbEntity
  8
NETAFIM-L-DETL-TEXT-LEADER-025M
 92
      904
310
88030000160000000C00000016000000000000C00C00000013000000993A0000A80000000B000000A2ECD275996516402BE8E1A71B2E1440000000000000000000000000000000000000000000000000000000000000F03F000000000000F03F00000000000000000000000000000000546563686C696E65000956E0080000
310
00010000000AD7A3703D0AB73F000000000000F03F0000000000000000000000000000F03F0000000000000000000000000000000000000000726F6D616E732E7368780001000000009C0000000B0000000BB58C45C88518402BE8E1A71B2E1440000000000000000000000000000000000000000000000000000000000000
310
F03F000000000000F03F00000000000000000000000000000000AE00000001000000010000000AD7A3703D0AB73F000000000000F03F0000000000000000000000000000F03F0000000000000000000000000000000000000000417269616C00000000000000B00000000B00000045587987D5E418402BE8E1A71B2E144000
310
0000000000000000000000000000000000000000000000000000000000F03F000000000000F03F0000000000000000000000000000000020535441525420434F4E4E454354494F4E004F0011000000010000000AD7A3703D0AB73F000000000000F03F0000000000000000000000000000F03F000000000000000000000000
310
0000000000000000726F6D616E732E7368780000000000000C00000010000000080000000C00000016000000000000C00C00000012000000FF7F00000C00000013000000010000000C000000140000000100000054000000070000000300000075CDC1166D031240FCF725C0B64814400000000000000000FAB813CF8B8811
310
4010A66DA1315D1440000000000000000075CDC1166D0312402454B582AC71144000000000000000000C00000013000000891300003C000000060000000200000075CDC1166D03124010A66DA1315D14400000000000000000FCA0FBF894E0144010A66DA1315D144000000000000000000C00000013000000112700003C00
310
00000600000002000000FCA0FBF894E0144010A66DA1315D1440000000000000000026277BF9D30D164010A66DA1315D144000000000000000000C00000016000000000000C00C00000012000000FF7F00000C00000017000000000000000C000000130000009A3A00000C00000016000000000000C00C00000012000000FF
310
7F00000C00000017000000FFFFFFFF
100
AcDbMLeader
300
CONTEXT_DATA{
 40
1.0
 10
5.513503931180627
 20
5.091009638135361
 30
0.0
 41
0.09
140
0.12
145
0.09
174
     1
175
     1
176
     0
177
     0
290
     1
304
{\Fromans|c0;Techline}®{\Fromans|c0; START CONNECTION}
 11
0.0
 21
0.0
 31
1.0
340
27C8
 12
5.603503931180627
 22
5.136562162009849
 32
0.0
 13
1.0
 23
0.0
 33
0.0
 42
0.0
 43
0.0
 44
0.0
 45
1.0
170
     1
 90
-1073741824
171
     1
172
     5
 91
-1073741824
141
0.0
 92
        0
291
     0
292
     0
173
     0
293
     0
142
0.0
143
0.0
294
     0
295
     0
296
     0
110
2.549408283536511
120
4.708444568717839
130
0.0
111
1.0
121
0.0
131
0.0
112
0.0
122
1.0
132
0.0
297
     0
302
LEADER{
290
     1
291
     1
 10
5.219318285330015
 20
5.091009638135361
 30
0.0
 11
1.0
 21
0.0
 31
0.0
 90
        0
 40
0.2941856458506122
304
LEADER_LINE{
 10
4.383345828608293
 20
5.091009638135361
 30
0.0
 91
        0
305
}
303
}
301
}
340
27CB
 90
   279680
170
     1
 91
-1056964608
341
14
171
    -2
290
     1
291
     1
 41
0.36
 42
0.12
172
     2
343
27C8
173
     1
 95
        1
174
     1
175
     0
 92
-1056964608
292
     0
 93
-1056964608
 10
1.0
 20
1.0
 30
1.0
 43
0.0
176
     0
293
     0
294
     0
178
     0
179
     1
 45
1.0
1001
ACAD_MLEADERVER
1070
     2
  0
MULTILEADER
  5
2B9A
330
1F
100
AcDbEntity
  8
NETAFIM-L-DETL-TEXT-LEADER-025M
 92
      576
310
40020000140000000C00000016000000000000C00C00000013000000993A0000AC0000000B00000083B63DEFFC691640FED6D4BD597E0C40000000000000000000000000000000000000000000000000000000000000F03F000000000000F03F000000000000000000000000000000004152454120504552494D4554455200
310
4F0E000000010000000AD7A3703D0AB73F000000000000F03F0000000000000000000000000000F03F0000000000000000000000000000000000000000726F6D616E732E7368780073007800000C00000010000000080000000C00000016000000000000C00C00000012000000FF7F00000C00000013000000010000000C00
310
00001400000001000000540000000700000003000000178917D2384D1240E644E49961C80A400000000000000000C0A1A79A53D21140E85D8A309B9F0A400000000000000000FEB7BD7FF73F1240184466A3E4150B4000000000000000000C00000013000000891300003C00000006000000020000008BA0EA28984612407F
310
44A51E23EF0A400000000000000000B0EEB1FCFEF914407C160A1C14C80C4000000000000000000C00000013000000112700003C0000000600000002000000B0EEB1FCFEF914407C160A1C14C80C40000000000000000027277BF9D30D16407C160A1C14C80C4000000000000000000C00000016000000000000C00C000000
310
12000000FF7F00000C00000017000000000000000C000000130000009A3A00000C00000016000000000000C00C00000012000000FF7F00000C00000017000000FFFFFFFF
100
AcDbMLeader
300
CONTEXT_DATA{
 40
1.0
 10
5.513503931180628
 20
3.597694605882507
 30
0.0
 41
0.09
140
0.12
145
0.09
174
     1
175
     1
176
     0
177
     0
290
     1
304
\A1;{\Fromans|c0;AREA PERIMETER\A0;\fArial|b0|i0|c0|p34; }
 11
0.0
 21
0.0
 31
1.0
340
27C8
 12
5.603503931180628
 22
3.651694605882507
 32
0.0
 13
1.0
 23
0.0
 33
0.0
 42
0.0
 43
0.0
 44
0.0
 45
1.0
170
     1
 90
-1073741824
171
     1
172
     5
 91
-1073741824
141
0.0
 92
        0
291
     0
292
     0
173
     0
293
     0
142
0.0
143
0.0
294
     0
295
     0
296
     0
110
4.095165721884702
120
3.262951983900451
130
0.0
111
1.0
121
0.0
131
0.0
112
0.0
122
1.0
132
0.0
297
     0
302
LEADER{
290
     1
291
     1
 10
5.244136761055116
 20
3.597694605882507
 30
0.0
 11
1.0
 21
0.0
 31
0.0
 90
        0
 40
0.2693671701255115
304
LEADER_LINE{
 10
4.455397049409327
 20
3.327932719442959
 30
0.0
 91
        0
305
}
303
}
301
}
340
27CB
 90
   279680
170
     1
 91
-1056964608
341
14
171
    -2
290
     1
291
     1
 41
0.36
 42
0.12
172
     2
343
27C8
173
     1
 95
        1
174
     1
175
     0
 92
-1056964608
292
     0
 93
-1056964608
 10
1.0
 20
1.0
 30
1.0
 43
0.0
176
     0
293
     0
294
     0
178
   256
179
     1
 45
1.0
1001
ACAD_MLEADERVER
1070
     2
  0
MULTILEADER
  5
2B9B
330
1F
100
AcDbEntity
  8
NETAFIM-L-DETL-TEXT-LEADER-025M
 92
      908
310
8C030000160000000C00000016000000000000C00C00000013000000993A0000A80000000B000000A2ECD27599651640E67624835DF60340000000000000000000000000000000000000000000000000000000000000F03F000000000000F03F00000000000000000000000000000000546563686C696E65000956E0080000
310
00010000000AD7A3703D0AB73F000000000000F03F0000000000000000000000000000F03F0000000000000000000000000000000000000000726F6D616E732E7368780001000000009C0000000B0000000BB58C45C8851840301E3A2DCBF40340000000000000000000000000000000000000000000000000000000000000
310
F03F000000000000F03F00000000000000000000000000000000AE00000001000000010000000AD7A3703D0AB73F000000000000F03F0000000000000000000000000000F03F0000000000000000000000000000000000000000417269616C00000000000000B40000000B00000045587987D5E41840E67624835DF6034000
310
0000000000000000000000000000000000000000000000000000000000F03F000000000000F03F0000000000000000000000000000000020455A204C41544552414C20445249504C494E450056450014000000010000000AD7A3703D0AB73F000000000000F03F0000000000000000000000000000F03F0000000000000000
310
000000000000000000000000726F6D616E732E7368780000000070000C00000010000000080000000C00000016000000000000C00C00000012000000FF7F00000C00000013000000010000000C00000014000000010000005400000007000000030000004AC5D9AD4BD30C4063E78723F3B10640000000000000000028F7F7
310
78E0880C407C90D8DBB99F07400000000000000000CDAB41BD631C0D4084D2B937F0D6064000000000000000000C00000013000000891300003C00000006000000020000008CB88DB5D7F70C40F3DCA0AD71C406400000000000000000F8EB565D5C340E40FA995120F752044000000000000000000C000000130000001127
310
00003C0000000600000002000000F8EB565D5C340E40FA995120F7520440000000000000000026277BF9D30D1640FA995120F752044000000000000000000C00000016000000000000C00C00000012000000FF7F00000C00000017000000000000000C000000130000009A3A00000C00000016000000000000C00C00000012
310
000000FF7F00000C00000017000000FFFFFFFF
100
AcDbMLeader
300
CONTEXT_DATA{
 40
1.0
 10
5.513503931180627
 20
2.540510418405799
 30
0.0
 41
0.09
140
0.12
145
0.09
174
     1
175
     1
176
     0
177
     0
290
     1
304
\A1;{\Fromans|c0;Techline\A0;\fArial|b0|i0|c0|p34;®\A1;\Fromans|c0; EZ LATERAL DRIPLINE}
 11
0.0
 21
0.0
 31
1.0
340
27C8
 12
5.603503931180627
 22
2.586062942280287
 32
0.0
 13
1.0
 23
0.0
 33
0.0
 42
0.0
 43
0.0
 44
0.0
 45
1.0
170
     1
 90
-1073741824
171
     1
172
     5
 91
-1073741824
141
0.0
 92
        0
291
     0
292
     0
173
     0
293
     0
142
0.0
143
0.0
294
     0
295
     0
296
     0
110
3.621161441150411
120
2.884482022757614
130
0.0
111
1.0
121
0.0
131
0.0
112
0.0
122
1.0
132
0.0
297
     0
302
LEADER{
290
     1
291
     1
 10
3.77556679650797
 20
2.540510418405799
 30
0.0
 11
1.0
 21
0.0
 31
0.0
 90
        0
 40
1.737937134672657
304
LEADER_LINE{
 10
3.566834397380166
 20
2.952991216227074
 30
0.0
 91
        0
305
}
303
}
301
}
340
27CB
 90
   279680
170
     1
 91
-1056964608
341
14
171
    -2
290
     1
291
     1
 41
0.36
 42
0.12
172
     2
343
27C8
173
     1
 95
        1
174
     1
175
     0
 92
-1056964608
292
     0
 93
-1056964608
 10
1.0
 20
1.0
 30
1.0
 43
0.0
176
     0
293
     0
294
     0
178
   256
179
     1
 45
1.0
1001
ACAD_MLEADERVER
1070
     2
  0
MULTILEADER
  5
2B9C
330
1F
100
AcDbEntity
  8
NETAFIM-L-DETL-TEXT-LEADER-025M
 92
      772
310
04030000150000000C00000016000000000000C00C00000013000000993A0000B40000000B000000A3ECD27599651640679091E80BE3F63F000000000000000000000000000000000000000000000000000000000000F03F000000000000F03F000000000000000000000000000000004155544F4D4154494320464C555348
310
2056414C5645005C0015000000010000000AD7A3703D0AB73F000000000000F03F0000000000000000000000000000F03F0000000000000000000000000000000000000000726F6D616E732E736878000000007000BC0000000B000000048F92096F581640038C7EEB6D36F43F000000000000000000000000000000000000
310
000000000000000000000000F03F000000000000F03F00000000000000000000000000000000504C554D42454420544F20505643204F5220504F4C59202854595029000000001C000000010000000AD7A3703D0AB73F000000000000F03F0000000000000000000000000000F03F0000000000000000000000000000000000
310
000000726F6D616E732E7368780000000000000C00000010000000080000000C00000016000000000000C00C00000012000000FF7F00000C00000013000000010000000C00000014000000010000005400000007000000030000009517BC203F7A1240995BE737B7ECF33F0000000000000000CCFA1597D7FF1140B8366234
310
1A90F33F00000000000000001E0C6AF61E6C124000258E288186F43F00000000000000000C00000013000000891300003C0000000600000002000000D911930B2F7312404CC03A309C39F43F0000000000000000B6EE0C317B961440E3A43F30ED5DF73F00000000000000000C00000013000000112700003C000000060000
310
0002000000B6EE0C317B961440E3A43F30ED5DF73F000000000000000027277BF9D30D1640E3A43F30ED5DF73F00000000000000000C00000016000000000000C00C00000012000000FF7F00000C00000017000000000000000C000000130000009A3A00000C00000016000000000000C00C00000012000000FF7F00000C00
310
000017000000FFFFFFFF
100
AcDbMLeader
300
CONTEXT_DATA{
 40
1.0
 10
5.513503931180628
 20
1.460431278678066
 30
0.0
 41
0.09
140
0.12
145
0.09
174
     1
175
     1
176
     0
177
     0
290
     1
304
{\Fromans|c0;AUTOMATIC FLUSH VALVE\PPLUMBED TO PVC OR POLY (TYP)}
 11
0.0
 21
0.0
 31
1.0
340
27C8
 12
5.603503931180628
 22
1.520431278678065
 32
0.0
 13
1.0
 23
0.0
 33
0.0
 42
0.0
 43
2.342680692474612
 44
0.0
 45
1.0
170
     1
 90
-1073741824
171
     1
172
     5
 91
-1073741824
141
0.0
 92
        0
291
     0
292
     0
173
     0
293
     0
142
0.0
143
0.0
294
     0
295
     0
296
     0
110
2.647834472708728
120
0.9049733341027028
130
0.0
111
1.0
121
0.0
131
0.0
112
0.0
122
1.0
132
0.0
297
     0
302
LEADER{
290
     1
291
     1
 10
5.146954313673338
 20
1.460431278678066
 30
0.0
 11
1.0
 21
0.0
 31
0.0
 90
        0
 40
0.3665496175072894
304
LEADER_LINE{
 10
4.499845848766835
 20
1.22268124067652
 30
0.0
 91
        0
305
}
303
}
301
}
340
27CB
 90
   279680
170
     1
 91
-1056964608
341
14
171
    -2
290
     1
291
     1
 41
0.36
 42
0.12
172
     2
343
27C8
173
     1
 95
        1
174
     1
175
     0
 92
-1056964608
292
     0
 93
-1056964608
 10
1.0
 20
1.0
 30
1.0
 43
0.0
176
     0
293
     0
294
     0
178
     0
179
     1
 45
1.0
1001
ACAD_MLEADERVER
1070
     2
  0
MULTILEADER
  5
2B9D
330
1F
100
AcDbEntity
  8
NETAFIM-L-DETL-TEXT-LEADER-025M
 92
      588
310
4C020000140000000C00000016000000000000C00C00000013000000993A0000B80000000B000000038F92096F5816403E1FA69E7EA51640000000000000000000000000000000000000000000000000000000000000F03F000000000000F03F00000000000000000000000000000000505643204F5220504F4C5920535550
310
504C592048454144455200000019000000010000000AD7A3703D0AB73F000000000000F03F0000000000000000000000000000F03F0000000000000000000000000000000000000000726F6D616E732E7368780000000000000C00000010000000080000000C00000016000000000000C00C00000012000000FF7F00000C00
310
000013000000010000000C0000001400000001000000540000000700000003000000458719690E0E124048FA352FC1A71540000000000000000030922D64A8931140AEF2B0E8919015400000000000000000DB08BFB9EBFF114093E14ABE32CE154000000000000000000C00000013000000891300003C0000000600000002
310
00000010486C11FD061240EE6DC0F6F9BA15400000000000000000000124A40DE91440FCBEC0CD5BCA164000000000000000000C00000013000000112700003C0000000600000002000000000124A40DE91440FCBEC0CD5BCA1640000000000000000026277BF9D30D1640FCBEC0CD5BCA164000000000000000000C000000
310
16000000000000C00C00000012000000FF7F00000C00000017000000000000000C000000130000009A3A00000C00000016000000000000C00C00000012000000FF7F00000C00000017000000FFFFFFFF
100
AcDbMLeader
300
CONTEXT_DATA{
 40
1.0
 10
5.513503931180627
 20
5.697615828408512
 30
0.0
 41
0.09
140
0.12
145
0.09
174
     1
175
     1
176
     0
177
     0
290
     1
304
{\Fromans|c0;PVC OR POLY SUPPLY HEADER}
 11
0.0
 21
0.0
 31
1.0
340
27C8
 12
5.603503931180627
 22
5.751615828408512
 32
0.0
 13
1.0
 23
0.0
 33
0.0
 42
0.0
 43
2.342680692474612
 44
0.0
 45
1.0
170
     1
 90
-1073741824
171
     1
172
     5
 91
-1073741824
141
0.0
 92
        0
291
     0
292
     0
173
     0
293
     0
142
0.0
143
0.0
294
     0
295
     0
296
     0
110
2.647834472708726
120
4.980753706420061
130
0.0
111
1.0
121
0.0
131
0.0
112
0.0
122
1.0
132
0.0
297
     0
302
LEADER{
290
     1
291
     1
 10
5.227591099450592
 20
5.697615828408512
 30
0.0
 11
1.0
 21
0.0
 31
0.0
 90
        0
 40
0.2859128317300352
304
LEADER_LINE{
 10
4.394197049409328
 20
5.391181598472639
 30
0.0
 91
        0
305
}
303
}
301
}
340
27CB
 90
   279680
170
     1
 91
-1056964608
341
14
171
    -2
290
     1
291
     1
 41
0.36
 42
0.12
172
     2
343
27C8
173
     1
 95
        1
174
     1
175
     0
 92
-1056964608
292
     0
 93
-1056964608
 10
1.0
 20
1.0
 30
1.0
 43
0.0
176
     0
293
     0
294
     0
178
     0
179
     1
 45
1.0
1001
ACAD_MLEADERVER
1070
     2
  0
MULTILEADER
  5
2B9E
330
1F
100
AcDbEntity
  8
NETAFIM-L-DETL-TEXT-LEADER-025M
 92
      944
310
B0030000160000000C00000016000000000000C00C00000013000000993A0000B40000000B000000038F92096F581640F6ED5DBF55721240000000000000000000000000000000000000000000000000000000000000F03F000000000000F03F00000000000000000000000000000000494E2D4C494E4520535052494E4720
310
434845434B0041444514000000010000000AD7A3703D0AB73F000000000000F03F0000000000000000000000000000F03F0000000000000000000000000000000000000000726F6D616E732E736878007300780000B00000000B000000A2ECD275996516405C54C425BCD81140000000000000000000000000000000000000
310
000000000000000000000000F03F000000000000F03F0000000000000000000000000000000056414C564520544F20444953434F55524147450013000000010000000AD7A3703D0AB73F000000000000F03F0000000000000000000000000000F03F0000000000000000000000000000000000000000726F6D616E732E7368
310
78000000000000B80000000B000000038F92096F58164042937FA6942D1140000000000000000000000000000000000000000000000000000000000000F03F000000000000F03F000000000000000000000000000000004C4F572D454D495454455220445241494E41474520285459502900001A000000010000000AD7A370
310
3D0AB73F000000000000F03F0000000000000000000000000000F03F0000000000000000000000000000000000000000726F6D616E732E7368780000000000000C00000010000000080000000C00000016000000000000C00C00000012000000FF7F00000C00000013000000010000000C0000001400000001000000540000
310
000700000003000000C7630CD1A01A12402EF5A8D1B03513400000000000000000080A735468A91140180FBFFDA6691340000000000000000070B33B4E5C2512400A4BB93A385D134000000000000000000C00000013000000891300003C00000006000000020000009B0BA48FFE1F12401C20318674491340000000000000
310
00004C5345F52AC71440157349110E91124000000000000000000C00000013000000112700003C00000006000000020000004C5345F52AC71440157349110E911240000000000000000026277BF9D30D1640157349110E91124000000000000000000C00000016000000000000C00C00000012000000FF7F00000C00000017
310
000000000000000C000000130000009A3A00000C00000016000000000000C00C00000012000000FF7F00000C00000017000000FFFFFFFF
100
AcDbMLeader
300
CONTEXT_DATA{
 40
1.0
 10
5.513503931180627
 20
4.641655225856784
 30
0.0
 41
0.09
140
0.12
145
0.09
174
     1
175
     1
176
     0
177
     0
290
     1
304
{\Fromans|c0;IN-LINE SPRING CHECK \PVALVE TO DISCOURAGE \PLOW-EMITTER DRAINAGE (TYP)}
 11
0.0
 21
0.0
 31
1.0
340
27C8
 12
5.603503931180627
 22
4.701655225856784
 32
0.0
 13
1.0
 23
0.0
 33
0.0
 42
0.0
 43
2.116655134295626
 44
0.0
 45
1.0
170
     1
 90
-1073741824
171
     1
172
     5
 91
-1073741824
141
0.0
 92
        0
291
     0
292
     0
173
     0
293
     0
142
0.0
143
0.0
294
     0
295
     0
296
     0
110
2.549408283536513
120
4.360085217079406
130
0.0
111
1.0
121
0.0
131
0.0
112
0.0
122
1.0
132
0.0
297
     0
302
LEADER{
290
     1
291
     1
 10
5.194499809604916
 20
4.641655225856784
 30
0.0
 11
1.0
 21
0.0
 31
0.0
 90
        0
 40
0.3190041215757113
304
LEADER_LINE{
 10
4.415437049409327
 20
4.85317608336097
 30
0.0
 91
        0
305
}
303
}
301
}
340
27CB
 90
   279680
170
     1
 91
-1056964608
341
14
171
    -2
290
     1
291
     1
 41
0.36
 42
0.12
172
     2
343
27C8
173
     1
 95
        1
174
     1
175
     0
 92
-1056964608
292
     0
 93
-1056964608
 10
1.0
 20
1.0
 30
1.0
 43
0.0
176
     0
293
     0
294
     0
178
     0
179
     1
 45
1.0
1001
ACAD_MLEADERVER
1070
     2
  0
MULTILEADER
  5
2B9F
330
1F
100
AcDbEntity
  8
NETAFIM-L-DETL-TEXT-LEADER-025M
 92
      768
310
00030000150000000C00000016000000000000C00C00000013000000993A0000B40000000B000000038F92096F5816406C4DCDF200A71840000000000000000000000000000000000000000000000000000000000000F03F000000000000F03F0000000000000000000000000000000052454D4F544520434F4E54524F4C20
310
56414C56450028545914000000010000000AD7A3703D0AB73F000000000000F03F0000000000000000000000000000F03F0000000000000000000000000000000000000000726F6D616E732E736878007300780000B80000000B000000C22268FC35611640D2B33359670D1840000000000000000000000000000000000000
310
000000000000000000000000F03F000000000000F03F000000000000000000000000000000005749544820444953432046494C54455220414E44205052560000000018000000010000000AD7A3703D0AB73F000000000000F03F0000000000000000000000000000F03F000000000000000000000000000000000000000072
310
6F6D616E732E7368780000000000000C00000010000000080000000C00000016000000000000C00C00000012000000FF7F00000C00000013000000010000000C000000140000000100000054000000070000000300000004612277719512402925CFD476B519400000000000000000C0C239BC1A29124068CF3E8BF5F21940
310
0000000000000000D781100988A31240B8B419D6ECDB194000000000000000000C00000013000000891300003C00000006000000020000006E7119C07C9C1240F16C74D5B1C819400000000000000000240AC0B0B54E15402AEDE721DECB184000000000000000000C00000013000000112700003C00000006000000020000
310
00240AC0B0B54E15402AEDE721DECB1840000000000000000026277BF9D30D16402AEDE721DECB184000000000000000000C00000016000000000000C00C00000012000000FF7F00000C00000017000000000000000C000000130000009A3A00000C00000016000000000000C00C00000012000000FF7F00000C0000001700
310
0000FFFFFFFF
100
AcDbMLeader
300
CONTEXT_DATA{
 40
1.0
 10
5.513503931180627
 20
6.199089555531182
 30
0.0
 41
0.09
140
0.12
145
0.09
174
     1
175
     1
176
     0
177
     0
290
     1
304
{\Fromans|c0;REMOTE CONTROL VALVE \PWITH DISC FILTER AND PRV}
 11
0.0
 21
0.0
 31
1.0
340
27C8
 12
5.603503931180627
 22
6.253089555531182
 32
0.0
 13
1.0
 23
0.0
 33
0.0
 42
0.0
 43
0.0
 44
0.0
 45
1.0
170
     1
 90
-1073741824
171
     1
172
     5
 91
-1073741824
141
0.0
 92
        0
291
     0
292
     0
173
     0
293
     0
142
0.0
143
0.0
294
     0
295
     0
296
     0
110
2.549408283536513
120
5.929407073696262
130
0.0
111
1.0
121
0.0
131
0.0
112
0.0
122
1.0
132
0.0
297
     0
302
LEADER{
290
     1
291
     1
 10
5.326864968987624
 20
6.199089555531182
 30
0.0
 11
1.0
 21
0.0
 31
0.0
 90
        0
 40
0.1866389621930034
304
LEADER_LINE{
 10
4.540141049409328
 20
6.487264800747517
 30
0.0
 91
        0
305
}
303
}
301
}
340
27CB
 90
   279680
170
     1
 91
-1056964608
341
14
171
    -2
290
     1
291
     1
 41
0.36
 42
0.12
172
     2
343
27C8
173
     1
 95
        1
174
     1
175
     0
 92
-1056964608
292
     0
 93
-1056964608
 10
1.0
 20
1.0
 30
1.0
 43
0.0
176
     0
293
     0
294
     0
178
     0
179
     1
 45
1.0
1001
ACAD_MLEADERVER
1070
     2
  0
LEADER
  5
2BA0
330
1F
100
AcDbEntity
  8
NETAFIM-L-DETL-TEXT-LEADER-025M
100
AcDbLeader
  3
Netafim Detail
 76
     3
 10
4.455397022291798
 20
2.237611749703233
 30
0.0
 10
4.840810242858538
 20
2.237611749703233
 30
0.0
 10
4.860126619668257
 20
2.237611749703233
 30
0.0
1001
ACAD
1000
DSTYLE
1002
{
1070
    40
1040
1.0
1070
    41
1040
0.125
1070
   341
1005
0
1070
    63
1070
     1
1002
}
  0
LEADER
  5
2BA1
330
1F
100
AcDbEntity
  8
NETAFIM-L-DETL-TEXT-LEADER-025M
100
AcDbLeader
  3
Netafim Detail
 76
     3
 10
4.394197022291798
 20
2.237821601160116
 30
0.0
 10
4.128241596596549
 20
2.237821601160116
 30
0.0
 10
4.007619307090788
 20
2.237874245909863
 30
0.0
211
-1.0
221
0.0
231
0.0
1001
ACAD
1000
DSTYLE
1002
{
1070
    40
1040
1.0
1070
    41
1040
0.125
1070
   341
1005
0
1070
    63
1070
     1
1002
}
  0
MULTILEADER
  5
2BA3
330
1F
100
AcDbEntity
  8
NETAFIM-L-DETL-TEXT-LEADER-025M
 92
      768
310
00030000150000000C00000016000000000000C00C00000013000000993A0000B80000000B000000038F92096F5816407AEAB89B92EAFE3F000000000000000000000000000000000000000000000000000000000000F03F000000000000F03F00000000000000000000000000000000504552494D45544552204C41544552
310
414C5320322220544F203422001B000000010000000AD7A3703D0AB73F000000000000F03F0000000000000000000000000000F03F0000000000000000000000000000000000000000726F6D616E732E736878000000000000B40000000B000000038F92096F581640138452352C84FC3F0000000000000000000000000000
310
00000000000000000000000000000000F03F000000000000F03F0000000000000000000000000000000046524F4D2045444745204F46204C414E445343415045005916000000010000000AD7A3703D0AB73F000000000000F03F0000000000000000000000000000F03F000000000000000000000000000000000000000072
310
6F6D616E732E7368780073007800000C00000010000000080000000C00000016000000000000C00C00000012000000FF7F00000C00000013000000010000000C000000140000000100000054000000070000000300000002DC8687B3F711402AE54AEB4E1501400000000000000000A42E7F1B1AB411406B98C6EF95E60140
310
0000000000000000A0F61DF1FB151240480C2D01784C014000000000000000000C00000013000000891300003C0000000600000002000000516952BCD7061240B9F83B76E330014000000000000000001CEBCF8D499F12407207D0EE3EC4FF3F00000000000000000C00000013000000112700003C00000006000000020000
310
001CEBCF8D499F12407207D0EE3EC4FF3F000000000000000026277BF9D30D16407207D0EE3EC4FF3F00000000000000000C00000016000000000000C00C00000012000000FF7F00000C00000017000000000000000C000000130000009A3A00000C00000016000000000000C00C00000012000000FF7F00000C0000001700
310
0000FFFFFFFF
100
AcDbMLeader
300
CONTEXT_DATA{
 40
1.0
 10
5.513503931180627
 20
1.985411579953929
 30
0.0
 41
0.09
140
0.12
145
0.09
174
     1
175
     1
176
     0
177
     0
290
     1
304
{\Fromans|c0;PERIMETER LATERALS 2" TO 4" \PFROM EDGE OF LANDSCAPE}
 11
0.0
 21
0.0
 31
1.0
340
27C8
 12
5.603503931180627
 22
2.039411579953929
 32
0.0
 13
1.0
 23
0.0
 33
0.0
 42
0.0
 43
0.0
 44
0.0
 45
1.0
170
     1
 90
-1073741824
171
     1
172
     5
 91
-1073741824
141
0.0
 92
        0
291
     0
292
     0
173
     0
293
     0
142
0.0
143
0.0
294
     0
295
     0
296
     0
110
4.278603346659527
120
2.292003487925686
130
0.0
111
1.0
121
0.0
131
0.0
112
0.0
122
1.0
132
0.0
297
     0
302
LEADER{
290
     1
291
     1
 10
4.655554023566562
 20
1.985411579953929
 30
0.0
 11
1.0
 21
0.0
 31
0.0
 90
        0
 40
0.8579499076140649
304
LEADER_LINE{
 10
4.425880841863236
 20
2.237590668914938
 30
0.0
 91
        0
305
}
303
}
301
}
340
27CB
 90
   279680
170
     1
 91
-1056964608
341
14
171
    -2
290
     1
291
     1
 41
0.36
 42
0.12
172
     2
343
27C8
173
     1
 95
        1
174
     1
175
     0
 92
-1056964608
292
     0
 93
-1056964608
 10
1.0
 20
1.0
 30
1.0
 43
0.0
176
     0
293
     0
294
     0
178
     0
179
     1
 45
1.0
1001
ACAD_MLEADERVER
1070
     2
  0
SOLID
  5
2BA4
330
1F
100
AcDbEntity
  8
NETAFIM-L-DETL-TEXT-LEADER-025M
100
AcDbTrace
 10
4.373235550207098
 20
3.131679385930865
 30
0.0
 11
4.357610550207098
 21
3.037929385930865
 31
0.0
 12
4.341985550207097
 22
3.131679385930865
 32
0.0
 13
4.341985550207097
 23
3.131679385930865
 33
0.0
1001
ACAD
1000
DSTYLE
1002
{
1070
    40
1040
1.0
1070
    41
1040
0.125
1070
   341
1005
0
1070
    63
1070
     1
1002
}
  0
LWPOLYLINE
  5
2BA5
330
1F
100
AcDbEntity
  8
NETAFIM-L-DETL-TEXT-LEADER-025M
100
AcDbPolyline
 90
        2
 70
     0
 43
0.0
 10
4.357610550207098
 20
3.131679385930865
 10
4.357610550207098
 20
3.199364380571692
1001
ACAD
1000
DSTYLE
1002
{
1070
    40
1040
1.0
1070
    41
1040
0.125
1070
   341
1005
0
1070
    63
1070
     1
1002
}
  0
SOLID
  5
2BA6
330
1F
100
AcDbEntity
  8
NETAFIM-L-DETL-TEXT-LEADER-025M
100
AcDbTrace
 10
2.316314577498587
 20
1.283357635855397
 30
0.0
 11
2.300689577498587
 21
1.189607635855397
 31
0.0
 12
2.285064577498586
 22
1.283357635855397
 32
0.0
 13
2.285064577498586
 23
1.283357635855397
 33
0.0
1001
ACAD
1000
DSTYLE
1002
{
1070
    40
1040
1.0
1070
    41
1040
0.125
1070
   341
1005
0
1070
    63
1070
     1
1002
}
  0
LWPOLYLINE
  5
2BA7
330
1F
100
AcDbEntity
  8
NETAFIM-L-DETL-TEXT-LEADER-025M
100
AcDbPolyline
 90
        2
 70
     0
 43
0.0
 10
2.300689577498587
 20
1.283357635855397
 10
2.300689577498587
 20
1.351042630496224
1001
ACAD
1000
DSTYLE
1002
{
1070
    40
1040
1.0
1070
    41
1040
0.125
1070
   341
1005
0
1070
    63
1070
     1
1002
}
  0
SOLID
  5
2BA8
330
1F
100
AcDbEntity
  8
NETAFIM-L-DETL-TEXT-LEADER-025M
100
AcDbTrace
 10
2.316314577498587
 20
3.125655543683729
 30
0.0
 11
2.300689577498587
 21
3.031905543683729
 31
0.0
 12
2.285064577498586
 22
3.125655543683729
 32
0.0
 13
2.285064577498586
 23
3.125655543683729
 33
0.0
1001
ACAD
1000
DSTYLE
1002
{
1070
    40
1040
1.0
1070
    41
1040
0.125
1070
   341
1005
0
1070
    63
1070
     1
1002
}
  0
LWPOLYLINE
  5
2BA9
330
1F
100
AcDbEntity
  8
NETAFIM-L-DETL-TEXT-LEADER-025M
100
AcDbPolyline
 90
        2
 70
     0
 43
0.0
 10
2.300689577498587
 20
3.125655543683729
 10
2.300689577498587
 20
3.193340538324556
1001
ACAD
1000
DSTYLE
1002
{
1070
    40
1040
1.0
1070
    41
1040
0.125
1070
   341
1005
0
1070
    63
1070
     1
1002
}
  0
SOLID
  5
2BAA
330
1F
100
AcDbEntity
  8
NETAFIM-L-DETL-TEXT-LEADER-025M
100
AcDbTrace
 10
4.373235550207098
 20
4.882630052582459
 30
0.0
 11
4.357610550207098
 21
4.788880052582459
 31
0.0
 12
4.341985550207097
 22
4.882630052582459
 32
0.0
 13
4.341985550207097
 23
4.882630052582459
 33
0.0
1001
ACAD
1000
DSTYLE
1002
{
1070
    40
1040
1.0
1070
    41
1040
0.125
1070
   341
1005
0
1070
    63
1070
     1
1002
}
  0
LWPOLYLINE
  5
2BAB
330
1F
100
AcDbEntity
  8
NETAFIM-L-DETL-TEXT-LEADER-025M
100
AcDbPolyline
 90
        2
 70
     0
 43
0.0
 10
4.357610550207098
 20
4.882630052582459
 10
4.357610550207098
 20
4.950315047223286
1001
ACAD
1000
DSTYLE
1002
{
1070
    40
1040
1.0
1070
    41
1040
0.125
1070
   341
1005
0
1070
    63
1070
     1
1002
}
  0
SOLID
  5
2BAC
330
1F
100
AcDbEntity
  8
NETAFIM-L-DETL-TEXT-LEADER-025M
100
AcDbTrace
 10
2.316314577498587
 20
4.870410494784425
 30
0.0
 11
2.300689577498587
 21
4.776660494784425
 31
0.0
 12
2.285064577498586
 22
4.870410494784425
 32
0.0
 13
2.285064577498586
 23
4.870410494784425
 33
0.0
1001
ACAD
1000
DSTYLE
1002
{
1070
    40
1040
1.0
1070
    41
1040
0.125
1070
   341
1005
0
1070
    63
1070
     1
1002
}
  0
LWPOLYLINE
  5
2BAD
330
1F
100
AcDbEntity
  8
NETAFIM-L-DETL-TEXT-LEADER-025M
100
AcDbPolyline
 90
        2
 70
     0
 43
0.0
 10
2.300689577498587
 20
4.870410494784425
 10
2.300689577498587
 20
4.938095489425252
1001
ACAD
1000
DSTYLE
1002
{
1070
    40
1040
1.0
1070
    41
1040
0.125
1070
   341
1005
0
1070
    63
1070
     1
1002
}
  0
LEADER
  5
2BAE
330
1F
100
AcDbEntity
  8
NETAFIM-L-DETL-TEXT-LEADER-025M
100
AcDbLeader
  3
Netafim Detail
 76
     3
 10
1.796375438946217
 20
3.527310596133229
 30
0.0
 10
1.796375438946217
 20
3.912723816699969
 30
0.0
 10
1.796375438946217
 20
3.932040193509688
 30
0.0
211
0.0000000000000001
221
1.0
231
0.0
1001
ACAD
1000
DSTYLE
1002
{
1070
    40
1040
1.0
1070
    41
1040
0.125
1070
   341
1005
0
1070
    63
1070
     1
1002
}
  0
MULTILEADER
  5
2BAF
330
1F
100
AcDbEntity
  8
NETAFIM-L-DETL-TEXT-LEADER-025M
 92
      588
310
4C020000140000000C00000016000000000000C00C00000013000000993A0000B80000000B000000038F92096F581640B70E6B1966170F40000000000000000000000000000000000000000000000000000000000000F03F000000000000F03F00000000000000000000000000000000505643204F5220504F4C5920455848
310
415553542048454144455200001A000000010000000AD7A3703D0AB73F000000000000F03F0000000000000000000000000000F03F0000000000000000000000000000000000000000726F6D616E732E7368780000000000000C00000010000000080000000C00000016000000000000C00C00000012000000FF7F00000C00
310
000013000000010000000C0000001400000001000000540000000700000003000000EBF6F26F8DA50340A1B777FB11420C40000000000000000010F86AB273AC024060337F1D08470C400000000000000000D8E0FB5BB2990340923351B720930C4000000000000000000C00000013000000891300003C0000000600000002
310
000000E16BF7E59F9F03409A756459996A0C400000000000000000788AF4EAD3F01340344EA07720610F4000000000000000000C00000013000000112700003C0000000600000002000000788AF4EAD3F01340344EA07720610F40000000000000000026277BF9D30D1640344EA07720610F4000000000000000000C000000
310
16000000000000C00C00000012000000FF7F00000C00000017000000000000000C000000130000009A3A00000C00000016000000000000C00C00000012000000FF7F00000C00000017000000FFFFFFFF
100
AcDbMLeader
300
CONTEXT_DATA{
 40
1.0
 10
5.513503931180627
 20
3.922425207690844
 30
0.0
 41
0.09
140
0.12
145
0.09
174
     1
175
     1
176
     0
177
     0
290
     1
304
{\Fromans|c0;PVC OR POLY EXHAUST HEADER}
 11
0.0
 21
0.0
 31
1.0
340
27C8
 12
5.603503931180627
 22
3.976425207690844
 32
0.0
 13
1.0
 23
0.0
 33
0.0
 42
0.0
 43
2.342680692474612
 44
0.0
 45
1.0
170
     1
 90
-1073741824
171
     1
172
     5
 91
-1073741824
141
0.0
 92
        0
291
     0
292
     0
173
     0
293
     0
142
0.0
143
0.0
294
     0
295
     0
296
     0
110
2.647834472708726
120
3.004268903203135
130
0.0
111
1.0
121
0.0
131
0.0
112
0.0
122
1.0
132
0.0
297
     0
302
LEADER{
290
     1
291
     1
 10
4.985183402228919
 20
3.922425207690844
 30
0.0
 11
1.0
 21
0.0
 31
0.0
 90
        0
 40
0.5283205289517077
304
LEADER_LINE{
 10
2.334205049409327
 20
3.534683447307926
 30
0.0
 91
        0
305
}
303
}
301
}
340
27CB
 90
   279680
170
     1
 91
-1056964608
341
14
171
    -2
290
     1
291
     1
 41
0.36
 42
0.12
172
     2
343
27C8
173
     1
 95
        1
174
     1
175
     0
 92
-1056964608
292
     0
 93
-1056964608
 10
1.0
 20
1.0
 30
1.0
 43
0.0
176
     0
293
     0
294
     0
178
     0
179
     1
 45
1.0
1001
ACAD_MLEADERVER
1070
     2
  0
MULTILEADER
  5
2BB1
330
1F
100
AcDbEntity
  8
NETAFIM-L-DETL-TEXT-LEADER-025M
 92
      360
310
68010000040000000C00000016000000000000C00C00000013000000993A0000A40000000B00000016E50DE9F9F7F83FD879AB63ABAD1040000000000000000000000000000000000000000000000000000000000000F03F000000000000F03F00000000000000000000000000000000534C4F5045006E6505000000010000
310
000AD7A3703D0AB73F000000000000F03F0000000000000000000000000000F03F0000000000000000000000000000000000000000726F6D616E732E736878007300780001A40000000B00000097BD62036CE6F83F7F4C3CD74A0B1040000000000000000000000000000000000000000000000000000000000000F03F0000
310
00000000F03F00000000000000000000000000000000283325202B29001306000000010000000AD7A3703D0AB73F000000000000F03F0000000000000000000000000000F03F0000000000000000000000000000000000000000726F6D616E732E736878003F00000000
100
AcDbMLeader
300
CONTEXT_DATA{
 40
1.0
 10
1.483398210331764
 20
4.199599110928593
 30
0.0
 41
0.09
140
0.12
145
0.09
174
     1
175
     1
176
     0
177
     0
290
     1
304
\A1;{\Fromans|c0;SLOPE\P(3% +)}
 11
0.0
 21
0.0
 31
1.0
340
27C8
 12
1.573398210331764
 22
4.259599110928594
 32
0.0
 13
1.0
 23
0.0
 33
0.0
 42
0.0
 43
0.0
 44
0.0
 45
1.0
170
     1
 90
-1073741824
171
     1
172
     5
 91
-1073741824
141
0.0
 92
        0
291
     0
292
     0
173
     0
293
     0
142
0.0
143
0.0
294
     0
295
     0
296
     0
110
-0.4089442796984529
120
4.582164180346117
130
0.0
111
1.0
121
0.0
131
0.0
112
0.0
122
1.0
132
0.0
297
     0
302
LEADER{
290
     1
291
     1
 10
0.7502989753171861
 20
4.199599110928593
 30
0.0
 11
1.0
 21
0.0
 31
0.0
 90
        0
 40
0.7330992350145783
304
LEADER_LINE{
 10
-1.001792140516236
 20
4.799412938362991
 30
0.0
 91
        0
305
}
303
}
301
}
340
27CB
 90
   279681
170
     0
 91
-1056964608
341
14
171
    -2
290
     1
291
     1
 41
0.36
 42
0.12
172
     2
343
27C8
173
     1
 95
        1
174
     1
175
     0
 92
-1056964608
292
     0
 93
-1056964608
 10
1.0
 20
1.0
 30
1.0
 43
0.0
176
     0
293
     0
294
     0
178
   256
179
     1
 45
1.0
1001
ACAD_MLEADERVER
1070
     2
  0
INSERT
  5
2C94
330
1F
100
AcDbEntity
  8
0
100
AcDbBlockReference
  2
LIMITATIONS
 10
-0.0000000117333592
 20
0.0000000071579578
 30
0.0
  0
ENDSEC
  0
SECTION
  2
OBJECTS
  0
DICTIONARY
  5
C
330
0
100
AcDbDictionary
281
     1
  3
ACAD_CIP_PREVIOUS_PRODUCT_INFO
350
2BCD
  3
ACAD_COLOR
350
73
  3
ACAD_GROUP
350
D
  3
ACAD_LAYOUT
350
1A
  3
ACAD_MATERIAL
350
72
  3
ACAD_MLEADERSTYLE
350
D7
  3
ACAD_MLINESTYLE
350
17
  3
ACAD_PLOTSETTINGS
350
19
  3
ACAD_PLOTSTYLENAME
350
E
  3
ACAD_SCALELIST
350
B6
  3
ACAD_TABLESTYLE
350
86
  3
ACAD_VISUALSTYLE
350
99
  3
ACDB_RECOMPOSE_DATA
350
2CFB
  3
AcDbVariableDictionary
350
66
  3
ADE_QUERY_LIBRARY
350
18F
  3
AEC_PROPERTY_SET_DEFS
350
2C90
  3
ASE_INDEX_DICTIONARY
350
1FA
  3
Autodesk_MAP
350
179
1001
ADE
1000
ADE02C004
1000
[Query]
1000
CaseSensitiveMatch=0
1000
SaveCurrQueryInSession=1
1000
MkSelSetWithQryObj=0
1000
ShowBlockAsInsPt=0
1000
CreateAssociativeHatchObjects=0
1000
ReferenceBoundaryForAreaLocation=1
1000
ShowImageAsBoundary=1
1000
DefaultJoinOperator=2
1000
ColorForAdd=red
1000
ColorForRemove=red
1000
BlockLocnForQuery=1
1000
TextLocnForQuery=1
1000
IncludeAllObjectsInGroups=0
1000
AlwaysUseLibraryDefinitions=0
1000
PreviewDefinitionsFrom=2
1000
[Save Back]
1000
RedefineBlockDefinitions=1
1000
RedefineLayerDefinitions=1
1000
RedefineTextStyleDefinitions=1
1000
RemoveUnusedGroups=1
1000
EraseSavedBackObjects=1
1000
RemoveLockAfterSave=1
1000
CreateHistoryFileOfChanges=0
1000
CreateBackupFileOfSourceDwg=1
1000
DontAddObjectsToSaveSet=0
1000
MarkObjectsForEditingWithoutPrompting=0
1000
FdoDontAddObjsToSvSet=0
1000
FdoEditWithoutPrompt=1
1000
FdoRemUnusedGrps=1
1000
FdoEraseSvdBkObjs=1
1000
FdoRemoveLockOnSave=1
1000
FdoTesselationMaxPointsDistance=0
1000
FdoTesselationMaxCurvesDistance=0
1000
[Coordinate Transformation]
1000
RestoreLastActiveDwgsOnStartup=1
1000
ActivateDwgsOnAttach=1
1000
AdjustSizesAndScalesForChangesInUnits=1
1000
AdjustRotationsForMapDistortions=1
1000
AdjustSizesAndScalesForMapDistortions=1
1000
AdjustElevations=1
1000
AdjustZeroRotationObjects=1
1000
ReconnectDbOnWSOpen=1
1000
NoOfSQLConditionsInHistory=10
  0
DICTIONARY
  5
2CBB
330
8
100
AcDbDictionary
280
     1
281
     1
  0
DICTIONARY
  5
20C
330
2
100
AcDbDictionary
280
     1
281
     1
  3
ACAD_LAYERSTATES
360
20D
  0
DICTIONARY
  5
E6
330
10
100
AcDbDictionary
280
     1
281
     1
  0
DICTIONARY
  5
27BA
330
27B9
100
AcDbDictionary
280
     1
281
     1
  0
DICTIONARY
  5
27BC
330
27BB
100
AcDbDictionary
280
     1
281
     1
  0
DICTIONARY
  5
27BE
330
27BD
100
AcDbDictionary
280
     1
281
     1
  0
DICTIONARY
  5
27C1
330
27C0
100
AcDbDictionary
280
     1
281
     1
  0
DICTIONARY
  5
27C3
330
27C2
100
AcDbDictionary
280
     1
281
     1
  0
DICTIONARY
  5
15D
330
1F
100
AcDbDictionary
280
     1
281
     1
  3
ACAD_GEOGRAPHICDATA
360
18D
  3
ACAD_SORTENTS
360
188
  0
DICTIONARY
  5
2C84
330
2C83
100
AcDbDictionary
280
     1
281
     1
  3
ACAD_SORTENTS
360
2C85
  0
XRECORD
  5
2BCD
102
{ACAD_REACTORS
330
C
102
}
330
C
100
AcDbXrecord
280
     1
300
MAP
300
2012
300
MAP_F_S
  0
DICTIONARY
  5
73
102
{ACAD_REACTORS
330
C
102
}
330
C
100
AcDbDictionary
281
     1
  0
DICTIONARY
  5
D
102
{ACAD_REACTORS
330
C
102
}
330
C
100
AcDbDictionary
281
     1
  0
DICTIONARY
  5
1A
102
{ACAD_REACTORS
330
C
102
}
330
C
100
AcDbDictionary
281
     1
  3
Layout1
350
59
  3
Layout2
350
5E
  3
Model
350
22
  0
DICTIONARY
  5
72
102
{ACAD_REACTORS
330
C
102
}
330
C
100
AcDbDictionary
281
     1
  3
ByBlock
350
97
  3
ByLayer
350
96
  3
Global
350
98
  0
DICTIONARY
  5
D7
102
{ACAD_REACTORS
330
C
102
}
330
C
100
AcDbDictionary
281
     1
  3
Netafim Detail
350
27CB
  3
Standard
350
D8
  0
DICTIONARY
  5
17
102
{ACAD_REACTORS
330
C
102
}
330
C
100
AcDbDictionary
281
     1
  3
Standard
350
18
  0
DICTIONARY
  5
19
102
{ACAD_REACTORS
330
C
102
}
330
C
100
AcDbDictionary
281
     1
  0
ACDBDICTIONARYWDFLT
  5
E
102
{ACAD_REACTORS
330
C
102
}
330
C
100
AcDbDictionary
281
     1
  3
Normal
350
F
100
AcDbDictionaryWithDefault
340
F
  0
DICTIONARY
  5
B6
102
{ACAD_REACTORS
330
C
102
}
330
C
100
AcDbDictionary
281
     1
  3
A0
350
B7
  3
A1
350
124
  3
A2
350
125
  3
A3
350
126
  3
A4
350
127
  3
A5
350
128
  3
A6
350
129
  3
A7
350
12A
  3
A8
350
12B
  3
A9
350
12C
  3
B0
350
12D
  3
B1
350
12E
  3
B2
350
12F
  3
B3
350
130
  3
B4
350
131
  3
B5
350
132
  3
B6
350
133
  3
B7
350
134
  3
B8
350
135
  3
B9
350
136
  3
C0
350
137
  3
C1
350
138
  3
C2
350
139
  3
C3
350
13A
  3
C4
350
13B
  3
C5
350
13C
  3
C6
350
13D
  3
C7
350
13E
  3
C8
350
13F
  3
C9
350
140
  3
D0
350
141
  3
D1
350
142
  3
D2
350
143
  0
DICTIONARY
  5
86
102
{ACAD_REACTORS
330
C
102
}
330
C
100
AcDbDictionary
281
     1
  3
Legend
350
181
  3
Standard
350
87
  0
DICTIONARY
  5
99
102
{ACAD_REACTORS
330
C
102
}
330
C
100
AcDbDictionary
281
     1
  3
2dWireframe
350
9F
  3
3D Hidden
350
A1
  3
3dWireframe
350
A0
  3
Basic
350
9E
  3
Brighten
350
A5
  3
ColorChange
350
A9
  3
Conceptual
350
A2
  3
Dim
350
A4
  3
EdgeColorOff
350
175
  3
Facepattern
350
A8
  3
Flat
350
9A
  3
FlatWithEdges
350
9B
  3
Gouraud
350
9C
  3
GouraudWithEdges
350
9D
  3
Hidden
350
1AE
  3
JitterOff
350
173
  3
Linepattern
350
A7
  3
OverhangOff
350
174
  3
Realistic
350
A3
  3
Shaded
350
1B1
  3
Shaded with edges
350
1B4
  3
Shades of Gray
350
1B7
  3
Sketchy
350
1BA
  3
Thicken
350
A6
  3
Wireframe
350
1BD
  3
X-Ray
350
1C0
  0
XRECORD
  5
2CFB
102
{ACAD_REACTORS
330
C
102
}
330
C
100
AcDbXrecord
280
     1
 90
        1
330
87
330
181
330
2C87
  0
DICTIONARY
  5
66
102
{ACAD_REACTORS
330
C
102
}
330
C
100
AcDbDictionary
281
     1
  3
CANNOSCALE
350
F0
  3
CMLEADERSTYLE
350
EF
  3
CTABLESTYLE
350
89
  3
DIMASSOC
350
67
  3
EXPORTMODELSPACE
350
2C97
  3
HIDETEXT
350
6B
  3
LAYEREVAL
350
14D
  3
LAYERNOTIFY
350
14E
  3
LIGHTINGUNITS
350
BA3
  3
MSLTSCALE
350
2CEA
  3
STEPSIZE
350
2CEB
  3
XCLIPFRAME
350
2CF8
  0
DICTIONARY
  5
18F
102
{ACAD_REACTORS
330
C
102
}
330
C
100
AcDbDictionary
281
     1
  3
_CurrQry
350
2CF7
  0
DICTIONARY
  5
2C90
102
{ACAD_REACTORS
330
C
102
}
330
C
100
AcDbDictionary
281
     1
  0
DICTIONARY
  5
1FA
102
{ACAD_REACTORS
330
C
102
}
330
C
100
AcDbDictionary
281
     1
  3
ASEBlockHierarchyIndexRecord
350
1FB
1001
DCO15
1040
1758272544.926
  0
DICTIONARY
  5
179
102
{ACAD_REACTORS
330
C
102
}
330
C
100
AcDbDictionary
281
     1
  3
AcMapDMStylizedEntities
350
189
  3
FSD_Dictionary
350
18A
  3
MAP_DISPLAY_CUSTOMOBJ_REG_TABLE
350
17D
  3
MAP_DISPLAY_MANAGEMENT_DICTIONARY
350
17A
  3
MAP_DISPLAY_STYLELIBRARY_DICTIONARY
350
17B
  3
MAP_RESOURCE_VERSION_MANAGEMENT_DICTIONARY
350
17E
1001
MapGWS
1000
D:\ProgramData\Autodesk\AutoCAD Map 3D 2010\R18.0\MapCache\EZ110L-Techline_LITE_MEDIAN_ISLAND_LAYOUT_Down_SlopeGWS1344892048.xml
  0
DICTIONARY
  5
20D
102
{ACAD_REACTORS
330
20C
102
}
330
20C
100
AcDbDictionary
281
     1
  0
GEODATA
  5
18D
102
{ACAD_REACTORS
330
15D
102
}
330
15D
100
AcDbGeoData
 90
        1
 70
     0
330
1F
 40
37.795
 41
-122.394
 42
0.0
 91
        6
 10
0.0
 20
0.0
 30
0.0
 11
0.0
 21
0.0
 31
0.0
210
0.0
220
0.0
230
1.0
 52
0.0
 43
1.0
 44
1.0
 45
1.0
301

302
<georss:point>37.7950 -122.3940</georss:point>
 46
1.0
303

304

305

306

307

 93
        0
 96
        0
  3
CIVIL3D_DATA_BEGIN
292
     0
 14
-122.394
 24
37.795
 15
-122.394
 25
37.795
 93
        0
 94
        0
293
     0
 16
0.0
 26
0.0
 17
0.0
 27
0.0
 54
0.0
140
0.0
 95
        3
141
1.0
294
     0
142
0.0
143
0.0
  4
CIVIL3D_DATA_END
  0
SORTENTSTABLE
  5
188
102
{ACAD_REACTORS
330
15D
102
}
330
15D
100
AcDbSortentsTable
330
1F
331
29D2
  5
29D2
331
2BA0
  5
2BA0
331
2B2A
  5
2B2A
331
2AF3
  5
2AF3
331
2B69
  5
2B69
331
2BA8
  5
2BA8
331
2B32
  5
2B32
331
2AFB
  5
2AFB
331
2B71
  5
2B71
331
2B3A
  5
2B3A
331
2B03
  5
2B03
331
2B79
  5
2B79
331
2B42
  5
2B42
331
2A68
  5
2A68
331
2B81
  5
2B81
331
2B4A
  5
2B4A
331
2B0B
  5
2B0B
331
2AD4
  5
2AD4
331
2A95
  5
2A95
331
2B89
  5
2B89
331
2B52
  5
2B52
331
2B13
  5
2B13
331
2ADC
  5
2ADC
331
2B91
  5
2B91
331
2B5A
  5
2B5A
331
2B1B
  5
2B1B
331
2AE4
  5
2AE4
331
2B99
  5
2B99
331
2B23
  5
2B23
331
2AEC
  5
2AEC
331
2B62
  5
2B62
331
29C3
  5
29C3
331
2BA1
  5
2BA1
331
2B2B
  5
2B2B
331
2AF4
  5
2AF4
331
2B6A
  5
2B6A
331
2BA9
  5
2BA9
331
2B33
  5
2B33
331
2AFC
  5
2AFC
331
2B72
  5
2B72
331
2BB1
  5
2BB1
331
2B3B
  5
2B3B
331
2B04
  5
2B04
331
2B7A
  5
2B7A
331
2B43
  5
2B43
331
2A59
  5
2A59
331
2B82
  5
2B82
331
2B4B
  5
2B4B
331
2B0C
  5
2B0C
331
2AD5
  5
2AD5
331
2B8A
  5
2B8A
331
2B53
  5
2B53
331
2B14
  5
2B14
331
2ADD
  5
2ADD
331
2B92
  5
2B92
331
2B5B
  5
2B5B
331
2B1C
  5
2B1C
331
2AE5
  5
2AE5
331
2B9A
  5
2B9A
331
2B24
  5
2B24
331
2AED
  5
2AED
331
2B63
  5
2B63
331
2A4A
  5
2A4A
331
2B2C
  5
2B2C
331
2AF5
  5
2AF5
331
2B6B
  5
2B6B
331
2BAA
  5
2BAA
331
2B34
  5
2B34
331
2AFD
  5
2AFD
331
2B73
  5
2B73
331
2B3C
  5
2B3C
331
2B05
  5
2B05
331
2B7B
  5
2B7B
331
2B44
  5
2B44
331
2B83
  5
2B83
331
2B4C
  5
2B4C
331
2B0D
  5
2B0D
331
2AD6
  5
2AD6
331
2B8B
  5
2B8B
331
2B54
  5
2B54
331
2B15
  5
2B15
331
2ADE
  5
2ADE
331
2B93
  5
2B93
331
2B5C
  5
2B5C
331
2B1D
  5
2B1D
331
2AE6
  5
2AE6
331
2B9B
  5
2B9B
331
2B25
  5
2B25
331
2AEE
  5
2AEE
331
2B64
  5
2B64
331
2A3B
  5
2A3B
331
2BA3
  5
2BA3
331
2B2D
  5
2B2D
331
2AF6
  5
2AF6
331
2B6C
  5
2B6C
331
2BAB
  5
2BAB
331
2B35
  5
2B35
331
2AFE
  5
2AFE
331
2B74
  5
2B74
331
2B3D
  5
2B3D
331
2B06
  5
2B06
331
2B7C
  5
2B7C
331
2B45
  5
2B45
331
2A2C
  5
2A2C
331
2B84
  5
2B84
331
2B4D
  5
2B4D
331
2B0E
  5
2B0E
331
2AD7
  5
2AD7
331
2B8C
  5
2B8C
331
2B55
  5
2B55
331
2B16
  5
2B16
331
2ADF
  5
2ADF
331
2B94
  5
2B94
331
2B5D
  5
2B5D
331
2B1E
  5
2B1E
331
2AE7
  5
2AE7
331
2B65
  5
2B65
331
2AEF
  5
2AEF
331
2B26
  5
2B26
331
2B9C
  5
2B9C
331
2BA4
  5
2BA4
331
2B2E
  5
2B2E
331
2AF7
  5
2AF7
331
2B6D
  5
2B6D
331
2BAC
  5
2BAC
331
2B36
  5
2B36
331
2AFF
  5
2AFF
331
2B75
  5
2B75
331
2B3E
  5
2B3E
331
2B07
  5
2B07
331
2B7D
  5
2B7D
331
2B46
  5
2B46
331
2A1D
  5
2A1D
331
2B85
  5
2B85
331
2B4E
  5
2B4E
331
2B0F
  5
2B0F
331
2AD8
  5
2AD8
331
2B8D
  5
2B8D
331
2B56
  5
2B56
331
2B17
  5
2B17
331
2AE0
  5
2AE0
331
2B95
  5
2B95
331
2B5E
  5
2B5E
331
2B1F
  5
2B1F
331
2AE8
  5
2AE8
331
2B9D
  5
2B9D
331
2B27
  5
2B27
331
2B66
  5
2B66
331
2A0E
  5
2A0E
331
2AF0
  5
2AF0
331
2BA5
  5
2BA5
331
2B2F
  5
2B2F
331
2AF8
  5
2AF8
331
2B6E
  5
2B6E
331
2BAD
  5
2BAD
331
2B37
  5
2B37
331
2B00
  5
2B00
331
2B76
  5
2B76
331
2B3F
  5
2B3F
331
2B7E
  5
2B7E
331
2B47
  5
2B47
331
29FF
  5
29FF
331
2B08
  5
2B08
331
2AD1
  5
2AD1
331
2B86
  5
2B86
331
2B4F
  5
2B4F
331
2B10
  5
2B10
331
2AD9
  5
2AD9
331
2B8E
  5
2B8E
331
2B57
  5
2B57
331
2B18
  5
2B18
331
2AE1
  5
2AE1
331
2B96
  5
2B96
331
2B5F
  5
2B5F
331
2B20
  5
2B20
331
2AE9
  5
2AE9
331
2B9E
  5
2B9E
331
2B67
  5
2B67
331
2B28
  5
2B28
331
2AF1
  5
2AF1
331
2BA6
  5
2BA6
331
2AF9
  5
2AF9
331
2B6F
  5
2B6F
331
2BAE
  5
2BAE
331
2B38
  5
2B38
331
2AC2
  5
2AC2
331
2B01
  5
2B01
331
2B77
  5
2B77
331
2B40
  5
2B40
331
2B7F
  5
2B7F
331
29F0
  5
29F0
331
2B48
  5
2B48
331
2B09
  5
2B09
331
2AD2
  5
2AD2
331
2B87
  5
2B87
331
2B50
  5
2B50
331
2B11
  5
2B11
331
2ADA
  5
2ADA
331
2B8F
  5
2B8F
331
2B58
  5
2B58
331
2B19
  5
2B19
331
2AE2
  5
2AE2
331
2B97
  5
2B97
331
2B21
  5
2B21
331
2AEA
  5
2AEA
331
2B60
  5
2B60
331
2B9F
  5
2B9F
331
2A86
  5
2A86
331
2B29
  5
2B29
331
2AB3
  5
2AB3
331
2AF2
  5
2AF2
331
2B68
  5
2B68
331
2BA7
  5
2BA7
331
2B31
  5
2B31
331
2AFA
  5
2AFA
331
2B70
  5
2B70
331
2BAF
  5
2BAF
331
2B39
  5
2B39
331
2B02
  5
2B02
331
2B78
  5
2B78
331
2B41
  5
2B41
331
29E1
  5
29E1
331
2A77
  5
2A77
331
2B80
  5
2B80
331
2B49
  5
2B49
331
2B0A
  5
2B0A
331
2AD3
  5
2AD3
331
2B88
  5
2B88
331
2B51
  5
2B51
331
2B12
  5
2B12
331
2ADB
  5
2ADB
331
2B90
  5
2B90
331
2B59
  5
2B59
331
2B1A
  5
2B1A
331
2AE3
  5
2AE3
331
2AA4
  5
2AA4
331
2B98
  5
2B98
331
2B22
  5
2B22
331
2AEB
  5
2AEB
331
2B61
  5
2B61
331
29C2
  5
29C2
  0
SORTENTSTABLE
  5
2C85
102
{ACAD_REACTORS
330
2C84
102
}
330
2C84
100
AcDbSortentsTable
330
2C83
  0
LAYOUT
  5
59
102
{ACAD_REACTORS
330
1A
102
}
330
1A
100
AcDbPlotSettings
  1

  2
None
  4

  6

 40
0.0
 41
0.0
 42
0.0
 43
0.0
 44
0.0
 45
0.0
 46
0.0
 47
0.0
 48
0.0
 49
0.0
140
0.0
141
0.0
142
1.0
143
1.0
 70
   688
 72
     0
 73
     0
 74
     5
  7
NETAFIM.ctb
 75
    16
147
1.0
 76
     0
 77
     2
 78
   300
148
0.0
149
0.0
100
AcDbLayout
  1
Layout1
 70
     1
 71
     1
 10
0.0
 20
0.0
 11
12.0
 21
9.0
 12
0.0
 22
0.0
 32
0.0
 14
0.0
 24
0.0
 34
0.0
 15
0.0
 25
0.0
 35
0.0
146
0.0
 13
0.0
 23
0.0
 33
0.0
 16
1.0
 26
0.0
 36
0.0
 17
0.0
 27
1.0
 37
0.0
 76
     0
330
58
  0
LAYOUT
  5
5E
102
{ACAD_REACTORS
330
1A
102
}
330
1A
100
AcDbPlotSettings
  1

  2
None
  4

  6

 40
0.0
 41
0.0
 42
0.0
 43
0.0
 44
0.0
 45
0.0
 46
0.0
 47
0.0
 48
0.0
 49
0.0
140
0.0
141
0.0
142
1.0
143
1.0
 70
   688
 72
     0
 73
     0
 74
     5
  7
NETAFIM.ctb
 75
    16
147
1.0
 76
     0
 77
     2
 78
   300
148
0.0
149
0.0
100
AcDbLayout
  1
Layout2
 70
     1
 71
     2
 10
0.0
 20
0.0
 11
12.0
 21
9.0
 12
0.0
 22
0.0
 32
0.0
 14
0.0
 24
0.0
 34
0.0
 15
0.0
 25
0.0
 35
0.0
146
0.0
 13
0.0
 23
0.0
 33
0.0
 16
1.0
 26
0.0
 36
0.0
 17
0.0
 27
1.0
 37
0.0
 76
     0
330
5D
  0
LAYOUT
  5
22
102
{ACAD_XDICTIONARY
360
999
102
}
102
{ACAD_REACTORS
330
1A
102
}
330
1A
100
AcDbPlotSettings
  1

  2
Adobe PDF
  4
Letter
  6

 40
3.174999952316284
 41
3.174999952316284
 42
3.175003051757812
 43
3.17498779296875
 44
215.8999938964844
 45
279.3999938964844
 46
14.28136659187942
 47
14.05226771288058
 48
0.0
 49
0.0
140
0.0
141
0.0
142
1.0
143
1.0
 70
 11940
 72
     0
 73
     1
 74
     1
  7
NETAFIM.ctb
 75
     0
147
1.114792733391864
 76
     0
 77
     2
 78
   300
148
0.0179289394467077
149
0.0121783121639581
100
AcDbLayout
  1
Model
 70
     1
 71
     0
 10
0.0
 20
0.0
 11
12.0
 21
9.0
 12
0.0
 22
0.0
 32
0.0
 14
0.0
 24
0.0
 34
0.0
 15
0.0
 25
0.0
 35
0.0
146
0.0
 13
0.0
 23
0.0
 33
0.0
 16
1.0
 26
0.0
 36
0.0
 17
0.0
 27
1.0
 37
0.0
 76
     0
330
1F
331
94
1001
ACAD_PSEXT
1000
Adobe PDF
1000
Adobe PDF Converter
1000
Documents\*.pdf
1000

1070
     0
  0
MATERIAL
  5
97
102
{ACAD_XDICTIONARY
360
2CFF
102
}
102
{ACAD_REACTORS
330
72
102
}
330
72
100
AcDbMaterial
  1
ByBlock
  0
MATERIAL
  5
96
102
{ACAD_XDICTIONARY
360
2CFD
102
}
102
{ACAD_REACTORS
330
72
102
}
330
72
100
AcDbMaterial
  1
ByLayer
  0
MATERIAL
  5
98
102
{ACAD_XDICTIONARY
360
110
102
}
102
{ACAD_REACTORS
330
72
102
}
330
72
100
AcDbMaterial
  1
Global
 43
0.0208000000566244
 43
0.0
 43
0.0
 43
0.0
 43
0.0
 43
0.0208000000566244
 43
0.0
 43
0.0
 43
0.0
 43
0.0
 43
1.0
 43
0.0
 43
0.0
 43
0.0
 43
0.0
 43
1.0
 49
0.0208000000566244
 49
0.0
 49
0.0
 49
0.0
 49
0.0
 49
0.0208000000566244
 49
0.0
 49
0.0
 49
0.0
 49
0.0
 49
1.0
 49
0.0
 49
0.0
 49
0.0
 49
0.0
 49
1.0
142
0.0208000000566244
142
0.0
142
0.0
142
0.0
142
0.0
142
0.0208000000566244
142
0.0
142
0.0
142
0.0
142
0.0
142
1.0
142
0.0
142
0.0
142
0.0
142
0.0
142
1.0
144
0.0208000000566244
144
0.0
144
0.0
144
0.0
144
0.0
144
0.0208000000566244
144
0.0
144
0.0
144
0.0
144
0.0
144
1.0
144
0.0
144
0.0
144
0.0
144
0.0
144
1.0
1001
ACAD
1070
    -1
1070
     3
1070
     0
1000

1071
        0
1070
     0
  0
MLEADERSTYLE
  5
27CB
102
{ACAD_REACTORS
330
D7
330
2B98
330
2B99
330
2B9A
330
2B9B
330
2B9C
330
2B9D
330
2B9E
330
2B9F
330
2BA3
330
2BAF
330
2BB1
102
}
330
D7
100
AcDbMLeaderStyle
170
     2
171
     1
172
     0
 90
        2
 40
0.0
 41
0.0
173
     1
 91
-1056964608
340
14
 92
       -2
290
     1
 42
0.09
291
     1
 43
0.36
  3
Standard
 44
0.12
300

342
27C8
174
     1
178
     1
175
     1
176
     0
 93
-1056964608
 45
0.09
292
     0
297
     0
 46
0.18
 94
-1056964608
 47
1.0
 49
1.0
140
1.0
293
     1
141
0.0
294
     1
177
     0
142
1.0
295
     0
296
     0
143
0.125
1001
ACAD_MLEADERVER
1070
     2
  0
MLEADERSTYLE
  5
D8
102
{ACAD_REACTORS
330
D7
102
}
330
D7
100
AcDbMLeaderStyle
170
     2
171
     1
172
     0
 90
        2
 40
0.0
 41
0.0
173
     1
 91
-1056964608
340
14
 92
       -2
290
     1
 42
0.09
291
     1
 43
0.36
  3
Standard
 44
0.18
300

342
11
174
     1
178
     1
175
     1
176
     0
 93
-1056964608
 45
0.18
292
     0
297
     0
 46
0.18
 94
-1056964608
 47
1.0
 49
1.0
140
1.0
293
     1
141
0.0
294
     1
177
     0
142
1.0
295
     0
296
     0
143
0.125
1001
ACAD_MLEADERVER
1070
     2
  0
MLINESTYLE
  5
18
102
{ACAD_REACTORS
330
17
102
}
330
17
100
AcDbMlineStyle
  2
STANDARD
 70
     0
  3

 62
   256
 51
90.0
 52
90.0
 71
     2
 49
0.5
 62
   256
  6
BYLAYER
 49
-0.5
 62
   256
  6
BYLAYER
  0
ACDBPLACEHOLDER
  5
F
102
{ACAD_REACTORS
330
E
102
}
330
E
  0
SCALE
  5
B7
102
{ACAD_REACTORS
330
B6
102
}
330
B6
100
AcDbScale
 70
     0
300
1:1
140
1.0
141
1.0
290
     1
  0
SCALE
  5
124
102
{ACAD_REACTORS
330
B6
102
}
330
B6
100
AcDbScale
 70
     0
300
1:2
140
1.0
141
2.0
290
     0
  0
SCALE
  5
125
102
{ACAD_REACTORS
330
B6
102
}
330
B6
100
AcDbScale
 70
     0
300
1:4
140
1.0
141
4.0
290
     0
  0
SCALE
  5
126
102
{ACAD_REACTORS
330
B6
102
}
330
B6
100
AcDbScale
 70
     0
300
1:5
140
1.0
141
5.0
290
     0
  0
SCALE
  5
127
102
{ACAD_REACTORS
330
B6
102
}
330
B6
100
AcDbScale
 70
     0
300
1:8
140
1.0
141
8.0
290
     0
  0
SCALE
  5
128
102
{ACAD_REACTORS
330
B6
102
}
330
B6
100
AcDbScale
 70
     0
300
1:10
140
1.0
141
10.0
290
     0
  0
SCALE
  5
129
102
{ACAD_REACTORS
330
B6
102
}
330
B6
100
AcDbScale
 70
     0
300
1:16
140
1.0
141
16.0
290
     0
  0
SCALE
  5
12A
102
{ACAD_REACTORS
330
B6
102
}
330
B6
100
AcDbScale
 70
     0
300
1:20
140
1.0
141
20.0
290
     0
  0
SCALE
  5
12B
102
{ACAD_REACTORS
330
B6
102
}
330
B6
100
AcDbScale
 70
     0
300
1:30
140
1.0
141
30.0
290
     0
  0
SCALE
  5
12C
102
{ACAD_REACTORS
330
B6
102
}
330
B6
100
AcDbScale
 70
     0
300
1:40
140
1.0
141
40.0
290
     0
  0
SCALE
  5
12D
102
{ACAD_REACTORS
330
B6
102
}
330
B6
100
AcDbScale
 70
     0
300
1:50
140
1.0
141
50.0
290
     0
  0
SCALE
  5
12E
102
{ACAD_REACTORS
330
B6
102
}
330
B6
100
AcDbScale
 70
     0
300
1:100
140
1.0
141
100.0
290
     0
  0
SCALE
  5
12F
102
{ACAD_REACTORS
330
B6
102
}
330
B6
100
AcDbScale
 70
     0
300
2:1
140
2.0
141
1.0
290
     0
  0
SCALE
  5
130
102
{ACAD_REACTORS
330
B6
102
}
330
B6
100
AcDbScale
 70
     0
300
4:1
140
4.0
141
1.0
290
     0
  0
SCALE
  5
131
102
{ACAD_REACTORS
330
B6
102
}
330
B6
100
AcDbScale
 70
     0
300
8:1
140
8.0
141
1.0
290
     0
  0
SCALE
  5
132
102
{ACAD_REACTORS
330
B6
102
}
330
B6
100
AcDbScale
 70
     0
300
10:1
140
10.0
141
1.0
290
     0
  0
SCALE
  5
133
102
{ACAD_REACTORS
330
B6
102
}
330
B6
100
AcDbScale
 70
     0
300
100:1
140
100.0
141
1.0
290
     0
  0
SCALE
  5
134
102
{ACAD_REACTORS
330
B6
102
}
330
B6
100
AcDbScale
 70
     0
300
1/128" = 1'-0"
140
0.0078125
141
12.0
290
     0
  0
SCALE
  5
135
102
{ACAD_REACTORS
330
B6
102
}
330
B6
100
AcDbScale
 70
     0
300
1/64" = 1'-0"
140
0.015625
141
12.0
290
     0
  0
SCALE
  5
136
102
{ACAD_REACTORS
330
B6
102
}
330
B6
100
AcDbScale
 70
     0
300
1/32" = 1'-0"
140
0.03125
141
12.0
290
     0
  0
SCALE
  5
137
102
{ACAD_REACTORS
330
B6
102
}
330
B6
100
AcDbScale
 70
     0
300
1/16" = 1'-0"
140
0.0625
141
12.0
290
     0
  0
SCALE
  5
138
102
{ACAD_REACTORS
330
B6
102
}
330
B6
100
AcDbScale
 70
     0
300
3/32" = 1'-0"
140
0.09375
141
12.0
290
     0
  0
SCALE
  5
139
102
{ACAD_REACTORS
330
B6
102
}
330
B6
100
AcDbScale
 70
     0
300
1/8" = 1'-0"
140
0.125
141
12.0
290
     0
  0
SCALE
  5
13A
102
{ACAD_REACTORS
330
B6
102
}
330
B6
100
AcDbScale
 70
     0
300
3/16" = 1'-0"
140
0.1875
141
12.0
290
     0
  0
SCALE
  5
13B
102
{ACAD_REACTORS
330
B6
102
}
330
B6
100
AcDbScale
 70
     0
300
1/4" = 1'-0"
140
0.25
141
12.0
290
     0
  0
SCALE
  5
13C
102
{ACAD_REACTORS
330
B6
102
}
330
B6
100
AcDbScale
 70
     0
300
3/8" = 1'-0"
140
0.375
141
12.0
290
     0
  0
SCALE
  5
13D
102
{ACAD_REACTORS
330
B6
102
}
330
B6
100
AcDbScale
 70
     0
300
1/2" = 1'-0"
140
0.5
141
12.0
290
     0
  0
SCALE
  5
13E
102
{ACAD_REACTORS
330
B6
102
}
330
B6
100
AcDbScale
 70
     0
300
3/4" = 1'-0"
140
0.75
141
12.0
290
     0
  0
SCALE
  5
13F
102
{ACAD_REACTORS
330
B6
102
}
330
B6
100
AcDbScale
 70
     0
300
1" = 1'-0"
140
1.0
141
12.0
290
     0
  0
SCALE
  5
140
102
{ACAD_REACTORS
330
B6
102
}
330
B6
100
AcDbScale
 70
     0
300
1-1/2" = 1'-0"
140
1.5
141
12.0
290
     0
  0
SCALE
  5
141
102
{ACAD_REACTORS
330
B6
102
}
330
B6
100
AcDbScale
 70
     0
300
3" = 1'-0"
140
3.0
141
12.0
290
     0
  0
SCALE
  5
142
102
{ACAD_REACTORS
330
B6
102
}
330
B6
100
AcDbScale
 70
     0
300
6" = 1'-0"
140
6.0
141
12.0
290
     0
  0
SCALE
  5
143
102
{ACAD_REACTORS
330
B6
102
}
330
B6
100
AcDbScale
 70
     0
300
1'-0" = 1'-0"
140
12.0
141
12.0
290
     0
  0
TABLESTYLE
  5
181
102
{ACAD_XDICTIONARY
360
2CB8
102
}
102
{ACAD_REACTORS
330
86
102
}
330
86
100
AcDbTableStyle
  3

 70
     0
 71
     3
 40
0.06
 41
0.06
280
     0
281
     0
  7
Legend
140
0.4
170
     4
 62
     0
 63
     7
283
     0
274
    -2
284
     0
 64
     0
275
    -2
285
     0
 65
     0
276
    -2
286
     0
 66
     0
277
    -2
287
     0
 67
     0
278
    -2
288
     0
 68
     0
279
    -2
289
     0
 69
     0
  7
Legend
140
0.5
170
     5
 62
     0
 63
     7
283
     0
274
    -2
284
     0
 64
     0
275
    -2
285
     0
 65
     0
276
    -2
286
     0
 66
     0
277
    -2
287
     0
 67
     0
278
    -2
288
     0
 68
     0
279
    -2
289
     0
 69
     0
  7
Legend
140
0.4
170
     4
 62
     0
 63
     7
283
     0
274
    -2
284
     0
 64
     0
275
    -2
285
     0
 65
     0
276
    -2
286
     0
 66
     0
277
    -2
287
     0
 67
     0
278
    -2
288
     0
 68
     0
279
    -2
289
     0
 69
     0
  0
TABLESTYLE
  5
87
102
{ACAD_XDICTIONARY
360
104
102
}
102
{ACAD_REACTORS
330
86
102
}
330
86
100
AcDbTableStyle
  3
Standard
 70
     0
 71
     0
 40
0.06
 41
0.06
280
     0
281
     0
  7
Standard
140
0.18
170
     2
 62
     0
 63
     7
283
     0
274
    -2
284
     1
 64
     0
275
    -2
285
     1
 65
     0
276
    -2
286
     1
 66
     0
277
    -2
287
     1
 67
     0
278
    -2
288
     1
 68
     0
279
    -2
289
     1
 69
     0
  7
Standard
140
0.25
170
     5
 62
     0
 63
     7
283
     0
274
    -2
284
     1
 64
     0
275
    -2
285
     1
 65
     0
276
    -2
286
     1
 66
     0
277
    -2
287
     1
 67
     0
278
    -2
288
     1
 68
     0
279
    -2
289
     1
 69
     0
  7
Standard
140
0.18
170
     5
 62
     0
 63
     7
283
     0
274
    -2
284
     1
 64
     0
275
    -2
285
     1
 65
     0
276
    -2
286
     1
 66
     0
277
    -2
287
     1
 67
     0
278
    -2
288
     1
 68
     0
279
    -2
289
     1
 69
     0
  0
VISUALSTYLE
  5
9F
102
{ACAD_XDICTIONARY
360
2D0C
102
}
102
{ACAD_REACTORS
330
99
102
}
330
99
100
AcDbVisualStyle
  2
2dWireframe
 70
     4
 71
     0
 72
     2
 73
     1
 90
        0
 40
-0.6
 41
-30.0
 62
     5
 63
     7
421
 16777215
 74
     1
 91
        4
 64
     7
 65
   257
 75
     1
175
     1
 42
1.0
 92
        0
 66
   257
 43
1.0
 76
     1
 77
     6
 78
     2
 67
     7
 79
     5
170
     0
171
     0
290
     0
174
     0
 93
        1
 44
0.0
173
     0
291
     0
 45
0.0
1001
ACAD
1000
AcDbSavedByObjectVersion
1070
     0
  0
VISUALSTYLE
  5
A1
102
{ACAD_XDICTIONARY
360
2D10
102
}
102
{ACAD_REACTORS
330
99
102
}
330
99
100
AcDbVisualStyle
  2
3D Hidden
 70
     6
 71
     1
 72
     2
 73
     2
 90
        0
 40
-0.6
 41
-30.0
 62
     5
 63
     7
421
 16777215
 74
     2
 91
        2
 64
     7
 65
   257
 75
     2
175
     1
 42
40.0
 92
        0
 66
   257
 43
1.0
 76
     1
 77
     6
 78
     2
 67
     7
 79
     3
170
     0
171
     0
290
     0
174
     0
 93
        1
 44
0.0
173
     0
291
     0
 45
0.0
1001
ACAD
1000
AcDbSavedByObjectVersion
1070
     0
  0
VISUALSTYLE
  5
A0
102
{ACAD_XDICTIONARY
360
2D0E
102
}
102
{ACAD_REACTORS
330
99
102
}
330
99
100
AcDbVisualStyle
  2
3dWireframe
 70
     5
 71
     0
 72
     2
 73
     1
 90
        0
 40
-0.6
 41
-30.0
 62
     5
 63
     7
421
 16777215
 74
     1
 91
        4
 64
     7
 65
   257
 75
     1
175
     1
 42
1.0
 92
        0
 66
   257
 43
1.0
 76
     1
 77
     6
 78
     2
 67
     7
 79
     5
170
     0
171
     0
290
     0
174
     0
 93
        1
 44
0.0
173
     0
291
     0
 45
0.0
1001
ACAD
1000
AcDbSavedByObjectVersion
1070
     0
  0
VISUALSTYLE
  5
9E
102
{ACAD_XDICTIONARY
360
2D0A
102
}
102
{ACAD_REACTORS
330
99
102
}
330
99
100
AcDbVisualStyle
  2
Basic
 70
     7
 71
     1
 72
     0
 73
     1
 90
        0
 40
-0.6
 41
-30.0
 62
     5
 63
     7
421
 16777215
 74
     0
 91
        4
 64
     7
 65
   257
 75
     1
175
     1
 42
1.0
 92
        8
 66
     7
 43
1.0
 76
     1
 77
     6
 78
     2
 67
     7
 79
     5
170
     0
171
     0
290
     0
174
     0
 93
        1
 44
0.0
173
     0
291
     1
 45
0.0
1001
ACAD
1000
AcDbSavedByObjectVersion
1070
     0
  0
VISUALSTYLE
  5
A5
102
{ACAD_XDICTIONARY
360
2D18
102
}
102
{ACAD_REACTORS
330
99
102
}
330
99
100
AcDbVisualStyle
  2
Brighten
 70
    12
 71
     2
 72
     2
 73
     1
 90
        0
 40
-0.6
 41
-30.0
 62
     5
 63
     7
421
 16777215
 74
     1
 91
        4
 64
     7
 65
   257
 75
     1
175
     1
 42
1.0
 92
        8
 66
     7
 43
1.0
 76
     1
 77
     6
 78
     2
 67
     7
 79
     5
170
     0
171
     0
290
     0
174
     0
 93
        1
 44
50.0
173
     0
291
     1
 45
0.0
1001
ACAD
1000
AcDbSavedByObjectVersion
1070
     0
  0
VISUALSTYLE
  5
A9
102
{ACAD_XDICTIONARY
360
2D20
102
}
102
{ACAD_REACTORS
330
99
102
}
330
99
100
AcDbVisualStyle
  2
ColorChange
 70
    16
 71
     2
 72
     2
 73
     3
 90
        0
 40
-0.6
 41
-30.0
 62
     5
 63
     8
421
  8421504
 74
     1
 91
        4
 64
     7
 65
   257
 75
     1
175
     1
 42
1.0
 92
        8
 66
     8
424
  8421504
 43
1.0
 76
     1
 77
     6
 78
     2
 67
     7
 79
     5
170
     0
171
     0
290
     0
174
     0
 93
        1
 44
0.0
173
     0
291
     1
 45
0.0
1001
ACAD
1000
AcDbSavedByObjectVersion
1070
     0
  0
VISUALSTYLE
  5
A2
102
{ACAD_XDICTIONARY
360
2D12
102
}
102
{ACAD_REACTORS
330
99
102
}
330
99
100
AcDbVisualStyle
  2
Conceptual
 70
     9
 71
     3
 72
     2
 73
     1
 90
        0
 40
-0.6
 41
-30.0
 62
     5
 63
     7
421
 16777215
 74
     2
 91
        2
 64
     7
 65
   257
 75
     1
175
     1
 42
40.0
 92
        8
 66
     7
 43
1.0
 76
     1
 77
     6
 78
     2
 67
     7
 79
     3
170
     0
171
     0
290
     0
174
     0
 93
        1
 44
0.0
173
     0
291
     0
 45
0.0
1001
ACAD
1000
AcDbSavedByObjectVersion
1070
     0
  0
VISUALSTYLE
  5
A4
102
{ACAD_XDICTIONARY
360
2D16
102
}
102
{ACAD_REACTORS
330
99
102
}
330
99
100
AcDbVisualStyle
  2
Dim
 70
    11
 71
     2
 72
     2
 73
     1
 90
        0
 40
-0.6
 41
-30.0
 62
     5
 63
     7
421
 16777215
 74
     1
 91
        4
 64
     7
 65
   257
 75
     1
175
     1
 42
1.0
 92
        8
 66
     7
 43
1.0
 76
     1
 77
     6
 78
     2
 67
     7
 79
     5
170
     0
171
     0
290
     0
174
     0
 93
        1
 44
-50.0
173
     0
291
     1
 45
0.0
1001
ACAD
1000
AcDbSavedByObjectVersion
1070
     0
  0
VISUALSTYLE
  5
175
102
{ACAD_XDICTIONARY
360
2D26
102
}
102
{ACAD_REACTORS
330
99
102
}
330
99
100
AcDbVisualStyle
  2
EdgeColorOff
 70
    22
 71
     2
 72
     2
 73
     0
 90
        0
 40
-0.6
 41
-30.0
 62
     5
 63
     7
421
 16777215
 74
     1
 91
        4
 64
     7
 65
   257
 75
     1
175
     1
 42
1.0
 92
        8
 66
     7
 43
1.0
 76
     1
 77
     6
 78
     2
 67
     7
 79
     5
170
     0
171
     0
290
     0
174
     0
 93
        1
 44
0.0
173
     0
291
     1
 45
0.0
1001
ACAD
1000
AcDbSavedByObjectVersion
1070
     0
  0
VISUALSTYLE
  5
A8
102
{ACAD_XDICTIONARY
360
2D1E
102
}
102
{ACAD_REACTORS
330
99
102
}
330
99
100
AcDbVisualStyle
  2
Facepattern
 70
    15
 71
     2
 72
     2
 73
     1
 90
        0
 40
-0.6
 41
-30.0
 62
     5
 63
     7
421
 16777215
 74
     1
 91
        4
 64
     7
 65
   257
 75
     1
175
     1
 42
1.0
 92
        8
 66
     7
 43
1.0
 76
     1
 77
     6
 78
     2
 67
     7
 79
     5
170
     0
171
     0
290
     0
174
     0
 93
        1
 44
0.0
173
     0
291
     1
 45
0.0
1001
ACAD
1000
AcDbSavedByObjectVersion
1070
     0
  0
VISUALSTYLE
  5
9A
102
{ACAD_XDICTIONARY
360
2D02
102
}
102
{ACAD_REACTORS
330
99
102
}
330
99
100
AcDbVisualStyle
  2
Flat
 70
     0
 71
     2
 72
     1
 73
     1
 90
        2
 40
-0.6
 41
30.0
 62
     5
 63
     7
421
 16777215
 74
     0
 91
        4
 64
     7
 65
   257
 75
     1
175
     1
 42
1.0
 92
        8
 66
     7
 43
1.0
 76
     1
 77
     6
 78
     2
 67
     7
 79
     5
170
     0
171
     0
290
     0
174
     0
 93
        1
 44
0.0
173
     0
291
     1
 45
0.0
1001
ACAD
1000
AcDbSavedByObjectVersion
1070
     0
  0
VISUALSTYLE
  5
9B
102
{ACAD_XDICTIONARY
360
2D04
102
}
102
{ACAD_REACTORS
330
99
102
}
330
99
100
AcDbVisualStyle
  2
FlatWithEdges
 70
     1
 71
     2
 72
     1
 73
     1
 90
        2
 40
-0.6
 41
30.0
 62
     5
 63
     7
421
 16777215
 74
     1
 91
        4
 64
     7
 65
   257
 75
     1
175
     1
 42
1.0
 92
        0
 66
   257
 43
1.0
 76
     1
 77
     6
 78
     2
 67
     7
 79
     5
170
     0
171
     0
290
     0
174
     0
 93
        1
 44
0.0
173
     0
291
     1
 45
0.0
1001
ACAD
1000
AcDbSavedByObjectVersion
1070
     0
  0
VISUALSTYLE
  5
9C
102
{ACAD_XDICTIONARY
360
2D06
102
}
102
{ACAD_REACTORS
330
99
102
}
330
99
100
AcDbVisualStyle
  2
Gouraud
 70
     2
 71
     2
 72
     2
 73
     1
 90
        2
 40
-0.6
 41
30.0
 62
     5
 63
     7
421
 16777215
 74
     0
 91
        4
 64
     7
 65
   257
 75
     1
175
     1
 42
1.0
 92
        0
 66
     7
 43
1.0
 76
     1
 77
     6
 78
     2
 67
     7
 79
     5
170
     0
171
     0
290
     0
174
     0
 93
        1
 44
0.0
173
     0
291
     1
 45
0.0
1001
ACAD
1000
AcDbSavedByObjectVersion
1070
     0
  0
VISUALSTYLE
  5
9D
102
{ACAD_XDICTIONARY
360
2D08
102
}
102
{ACAD_REACTORS
330
99
102
}
330
99
100
AcDbVisualStyle
  2
GouraudWithEdges
 70
     3
 71
     2
 72
     2
 73
     1
 90
        2
 40
-0.6
 41
30.0
 62
     5
 63
     7
421
 16777215
 74
     1
 91
        4
 64
     7
 65
   257
 75
     1
175
     1
 42
1.0
 92
        0
 66
   257
 43
1.0
 76
     1
 77
     6
 78
     2
 67
     7
 79
     5
170
     0
171
     0
290
     0
174
     0
 93
        1
 44
0.0
173
     0
291
     1
 45
0.0
1001
ACAD
1000
AcDbSavedByObjectVersion
1070
     0
  0
VISUALSTYLE
  5
1AE
102
{ACAD_XDICTIONARY
360
1AF
102
}
102
{ACAD_REACTORS
330
99
102
}
330
99
100
AcDbVisualStyle
  2
Hidden
 70
     6
 71
     1
 72
     2
 73
     2
 90
        0
 40
-0.6
 41
-30.0
 62
     5
 63
     7
421
 16777215
 74
     2
 91
        2
 64
     7
 65
   257
 75
     2
175
     1
 42
40.0
 92
        0
 66
   257
 43
1.0
 76
     1
 77
     6
 78
     2
 67
     7
 79
     3
170
     0
171
     0
290
     0
174
     0
 93
        1
 44
0.0
173
     0
291
     0
 45
0.0
1001
ACAD
1000
AcDbSavedByObjectVersion
1070
     0
  0
VISUALSTYLE
  5
173
102
{ACAD_XDICTIONARY
360
2D22
102
}
102
{ACAD_REACTORS
330
99
102
}
330
99
100
AcDbVisualStyle
  2
JitterOff
 70
    20
 71
     2
 72
     2
 73
     0
 90
        0
 40
-0.6
 41
-30.0
 62
     5
 63
     7
421
 16777215
 74
     1
 91
        4
 64
     7
 65
   257
 75
     1
175
     1
 42
1.0
 92
       10
 66
     7
 43
1.0
 76
     1
 77
     6
 78
     2
 67
     7
 79
     5
170
     0
171
     0
290
     0
174
     0
 93
        1
 44
0.0
173
     0
291
     1
 45
0.0
1001
ACAD
1000
AcDbSavedByObjectVersion
1070
     0
  0
VISUALSTYLE
  5
A7
102
{ACAD_XDICTIONARY
360
2D1C
102
}
102
{ACAD_REACTORS
330
99
102
}
330
99
100
AcDbVisualStyle
  2
Linepattern
 70
    14
 71
     2
 72
     2
 73
     1
 90
        0
 40
-0.6
 41
-30.0
 62
     5
 63
     7
421
 16777215
 74
     1
 91
        4
 64
     7
 65
   257
 75
     7
175
     7
 42
1.0
 92
        8
 66
     7
 43
1.0
 76
     1
 77
     6
 78
     2
 67
     7
 79
     5
170
     0
171
     0
290
     0
174
     0
 93
        1
 44
0.0
173
     0
291
     1
 45
0.0
1001
ACAD
1000
AcDbSavedByObjectVersion
1070
     0
  0
VISUALSTYLE
  5
174
102
{ACAD_XDICTIONARY
360
2D24
102
}
102
{ACAD_REACTORS
330
99
102
}
330
99
100
AcDbVisualStyle
  2
OverhangOff
 70
    21
 71
     2
 72
     2
 73
     0
 90
        0
 40
-0.6
 41
-30.0
 62
     5
 63
     7
421
 16777215
 74
     1
 91
        4
 64
     7
 65
   257
 75
     1
175
     1
 42
1.0
 92
        9
 66
     7
 43
1.0
 76
     1
 77
     6
 78
     2
 67
     7
 79
     5
170
     0
171
     0
290
     0
174
     0
 93
        1
 44
0.0
173
     0
291
     1
 45
0.0
1001
ACAD
1000
AcDbSavedByObjectVersion
1070
     0
  0
VISUALSTYLE
  5
A3
102
{ACAD_XDICTIONARY
360
2D14
102
}
102
{ACAD_REACTORS
330
99
102
}
330
99
100
AcDbVisualStyle
  2
Realistic
 70
     8
 71
     2
 72
     2
 73
     1
 90
        0
 40
-0.6
 41
-30.0
 62
     5
 63
     7
421
 16777215
 74
     1
 91
        0
 64
     7
 65
   257
 75
     1
175
     1
 42
1.0
 92
        8
 66
     8
424
  7895160
 43
1.0
 76
     1
 77
     6
 78
     2
 67
     7
 79
     5
170
     0
171
     0
290
     0
174
     0
 93
       13
 44
0.0
173
     0
291
     0
 45
0.0
1001
ACAD
1000
AcDbSavedByObjectVersion
1070
     0
  0
VISUALSTYLE
  5
1B1
102
{ACAD_XDICTIONARY
360
1B2
102
}
102
{ACAD_REACTORS
330
99
102
}
330
99
100
AcDbVisualStyle
  2
Shaded
 70
    27
 71
     2
 72
     2
 73
     1
 90
        2
 40
-0.6
 41
30.0
 62
     5
 63
     7
421
 16777215
 74
     0
 91
        4
 64
     7
 65
   257
 75
     1
175
     1
 42
1.0
 92
        8
 66
   257
 43
1.0
 76
     1
 77
     6
 78
     2
 67
     8
425
  7895160
 79
     3
170
     0
171
     0
290
     0
174
     0
 93
        5
 44
0.0
173
     0
291
     0
 45
0.0
1001
ACAD
1000
AcDbSavedByObjectVersion
1070
     0
  0
VISUALSTYLE
  5
1B4
102
{ACAD_XDICTIONARY
360
1B5
102
}
102
{ACAD_REACTORS
330
99
102
}
330
99
100
AcDbVisualStyle
  2
Shaded with edges
 70
    26
 71
     2
 72
     2
 73
     1
 90
        2
 40
-0.6
 41
30.0
 62
     5
 63
     7
421
 16777215
 74
     1
 91
       10
 64
     7
 65
   257
 75
     2
175
     1
 42
1.0
 92
        8
 66
   257
 43
1.0
 76
     1
 77
     6
 78
     2
 67
     7
 79
     3
170
     0
171
     0
290
     0
174
     0
 93
        5
 44
0.0
173
     0
291
     0
 45
0.0
1001
ACAD
1000
AcDbSavedByObjectVersion
1070
     0
  0
VISUALSTYLE
  5
1B7
102
{ACAD_XDICTIONARY
360
1B8
102
}
102
{ACAD_REACTORS
330
99
102
}
330
99
100
AcDbVisualStyle
  2
Shades of Gray
 70
    23
 71
     2
 72
     2
 73
     3
 90
        0
 40
-0.6
 41
-30.0
 62
     5
 63
     7
421
 16777215
 74
     2
 91
        2
 64
     7
 65
     7
 75
     1
175
     1
 42
40.0
 92
        8
 66
     7
 43
1.0
 76
     1
 77
     6
 78
     2
 67
     7
 79
     3
170
     0
171
     0
290
     0
174
     0
 93
        1
 44
0.0
173
     0
291
     0
 45
0.0
1001
ACAD
1000
AcDbSavedByObjectVersion
1070
     0
  0
VISUALSTYLE
  5
1BA
102
{ACAD_XDICTIONARY
360
1BB
102
}
102
{ACAD_REACTORS
330
99
102
}
330
99
100
AcDbVisualStyle
  2
Sketchy
 70
    24
 71
     1
 72
     2
 73
     2
 90
        0
 40
-0.6
 41
-30.0
 62
     5
 63
     7
421
 16777215
 74
     2
 91
        2
 64
     7
 65
     7
 75
     1
175
     1
 42
40.0
 92
       11
 66
     7
 43
1.0
 76
     1
 77
     6
 78
     2
 67
     7
 79
     6
170
     0
171
     0
290
     0
174
     0
 93
        1
 44
0.0
173
     0
291
     0
 45
0.0
1001
ACAD
1000
AcDbSavedByObjectVersion
1070
     0
  0
VISUALSTYLE
  5
A6
102
{ACAD_XDICTIONARY
360
2D1A
102
}
102
{ACAD_REACTORS
330
99
102
}
330
99
100
AcDbVisualStyle
  2
Thicken
 70
    13
 71
     2
 72
     2
 73
     1
 90
        0
 40
-0.6
 41
-30.0
 62
     5
 63
     7
421
 16777215
 74
     1
 91
        4
 64
     7
 65
   257
 75
     1
175
     1
 42
1.0
 92
       12
 66
     7
 43
1.0
 76
     1
 77
     6
 78
     2
 67
     7
 79
     5
170
     0
171
     0
290
     0
174
     0
 93
        1
 44
0.0
173
     0
291
     1
 45
0.0
1001
ACAD
1000
AcDbSavedByObjectVersion
1070
     0
  0
VISUALSTYLE
  5
1BD
102
{ACAD_XDICTIONARY
360
1BE
102
}
102
{ACAD_REACTORS
330
99
102
}
330
99
100
AcDbVisualStyle
  2
Wireframe
 70
     5
 71
     0
 72
     2
 73
     0
 90
        0
 40
-0.6
 41
-30.0
 62
     5
 63
     7
421
 16777215
 74
     1
 91
        4
 64
     7
 65
   257
 75
     1
175
     1
 42
1.0
 92
        0
 66
   257
 43
1.0
 76
     1
 77
     6
 78
     2
 67
     7
 79
     3
170
     0
171
     0
290
     0
174
     0
 93
        1
 44
0.0
173
     0
291
     0
 45
0.0
1001
ACAD
1000
AcDbSavedByObjectVersion
1070
     0
  0
VISUALSTYLE
  5
1C0
102
{ACAD_XDICTIONARY
360
1C1
102
}
102
{ACAD_REACTORS
330
99
102
}
330
99
100
AcDbVisualStyle
  2
X-Ray
 70
    25
 71
     2
 72
     2
 73
     1
 90
        1
 40
0.5
 41
-30.0
 62
     5
 63
     7
421
 16777215
 74
     1
 91
        0
 64
     7
 65
   257
 75
     1
175
     1
 42
1.0
 92
        8
 66
     7
 43
1.0
 76
     1
 77
     6
 78
     2
 67
     7
 79
     3
170
     0
171
     0
290
     0
174
     0
 93
       13
 44
0.0
173
     0
291
     0
 45
0.0
1001
ACAD
1000
AcDbSavedByObjectVersion
1070
     0
  0
DICTIONARYVAR
  5
F0
102
{ACAD_REACTORS
330
66
102
}
330
66
100
DictionaryVariables
280
     0
  1
1:1
  0
DICTIONARYVAR
  5
EF
102
{ACAD_REACTORS
330
66
102
}
330
66
100
DictionaryVariables
280
     0
  1
STANDARD
  0
DICTIONARYVAR
  5
89
102
{ACAD_REACTORS
330
66
102
}
330
66
100
DictionaryVariables
280
     0
  1
STANDARD
  0
DICTIONARYVAR
  5
67
102
{ACAD_REACTORS
330
66
102
}
330
66
100
DictionaryVariables
280
     0
  1
2
  0
DICTIONARYVAR
  5
2C97
102
{ACAD_REACTORS
330
66
102
}
330
66
100
DictionaryVariables
280
     0
  1
1
  0
DICTIONARYVAR
  5
6B
102
{ACAD_REACTORS
330
66
102
}
330
66
100
DictionaryVariables
280
     0
  1
1
  0
DICTIONARYVAR
  5
14D
102
{ACAD_REACTORS
330
66
102
}
330
66
100
DictionaryVariables
280
     0
  1
0
  0
DICTIONARYVAR
  5
14E
102
{ACAD_REACTORS
330
66
102
}
330
66
100
DictionaryVariables
280
     0
  1
0
  0
DICTIONARYVAR
  5
BA3
102
{ACAD_REACTORS
330
66
102
}
330
66
100
DictionaryVariables
280
     0
  1
0
  0
DICTIONARYVAR
  5
2CEA
102
{ACAD_REACTORS
330
66
102
}
330
66
100
DictionaryVariables
280
     0
  1
1
  0
DICTIONARYVAR
  5
2CEB
102
{ACAD_REACTORS
330
66
102
}
330
66
100
DictionaryVariables
280
     0
  1
100.000000
  0
DICTIONARYVAR
  5
2CF8
102
{ACAD_REACTORS
330
66
102
}
330
66
100
DictionaryVariables
280
     0
  1
2
  0
XRECORD
  5
2CF7
102
{ACAD_REACTORS
330
18F
102
}
330
18F
100
AcDbXrecord
280
     1
1000
ADE02C001
1070
     1
1070
     0
1002
{
1002
}
1002
{
1002
}
1002
{
1002
}
1000

  0
XRECORD
  5
1FB
102
{ACAD_REACTORS
330
1FA
102
}
330
1FA
100
AcDbXrecord
280
     1
330
2C94
  0
DMSTYLIZEDENTITIESTABLE
  5
189
102
{ACAD_REACTORS
330
179
102
}
330
179
100
AcMapDMStylizedEntitiesTable
 70
     1
  0
DICTIONARY
  5
18A
102
{ACAD_REACTORS
330
179
102
}
330
179
100
AcDbDictionary
280
     1
281
     1
  0
DATATABLE
  5
17D
102
{ACAD_REACTORS
330
179
102
}
330
179
100
AcDbDataTable
 70
     2
 90
        4
 91
       15
  1

 92
        3
  2
OriginalClassName
  3
AcMapDMDefaultStyle
  3
AcMapDMEntityStyle
  3
AcMapDMRasterStyle
  3
AcMapDMSEAnnotationStyle
  3
AcMapDMSEHatchStyle
  3
AcMapDMSETextStyle
  3
AcMapDMThematicStyle
  3
AcMapDMBaseElement
  3
AcMapDMAttachedDwgsQueryElement
  3
AcMapDMFeatureElement
  3
AcMapDMLayerElement
  3
AcMapDMCurrentDwgQueryElement
  3
AcMapDMRasterElement
  3
AcMapDMTopoElement
  3
AcMapDMTopoQueryElement
 92
        3
  2
ProxyDisplayName
  3
Default
  3
Entity
  3
Raster
  3
Annotation
  3
Hatch
  3
Text
  3
Thematic
  3
Map Base
  3
Ade Query
  3
Feature Class
  3
Layer
  3
Ade Project Query
  3
Raster
  3
Topology
  3
Topology Query
 92
        1
  2
CustomObjectType
 93
        2
 93
        2
 93
        2
 93
        2
 93
        2
 93
        2
 93
        2
 93
        1
 93
        1
 93
        1
 93
        1
 93
        1
 93
        1
 93
        1
 93
        1
 92
        1
  2
StyleCoExistanceType
 93
        1
 93
        1
 93
        1
 93
        1
 93
        1
 93
        1
 93
        2
 93
        0
 93
        0
 93
        0
 93
        0
 93
        0
 93
        0
 93
        0
 93
        0
  0
DMMAPMANAGER
  5
17A
102
{ACAD_REACTORS
330
179
102
}
330
179
100
AcDbDictionary
281
     1
  3
DisplayMap1
350
17F
100
AcDbDictionaryWithDefault
340
17F
100
AcMapDMMapManager
 70
     1
340
17F
  0
DMSTYLELIBRARY
  5
17B
102
{ACAD_REACTORS
330
179
102
}
330
179
100
AcMapDMStyleLibrary
 70
     1
 70
     1
360
17C
  0
DICTIONARY
  5
17E
102
{ACAD_REACTORS
330
179
102
}
330
179
100
AcDbDictionary
281
     1
  0
DICTIONARY
  5
999
330
22
100
AcDbDictionary
280
     1
281
     1
  3
AcPublish_PlotSettingsOverride
360
2C9C
  3
ADSK_XREC_LAYOUTTHUMBNAIL
360
99A
  0
DICTIONARY
  5
2CFF
330
97
100
AcDbDictionary
280
     1
281
     1
  3
ACAD_XREC_ROUNDTRIP
360
2D00
  0
DICTIONARY
  5
2CFD
330
96
100
AcDbDictionary
280
     1
281
     1
  3
ACAD_XREC_ROUNDTRIP
360
2CFE
  0
DICTIONARY
  5
110
330
98
100
AcDbDictionary
280
     1
281
     1
  3
ACAD_XREC_ROUNDTRIP
360
2D01
  3
BUMPTILE
360
112
  3
DIFFUSETILE
360
111
  3
OPACITYTILE
360
113
  3
REFLECTIONTILE
360
114
  0
DICTIONARY
  5
2CB8
330
181
100
AcDbDictionary
280
     1
281
     1
  3
ACAD_ROUNDTRIP_2008_TABLESTYLE_CELLSTYLEMAP
360
2CFA
  3
ACAD_XREC_ROUNDTRIP
360
2D28
  0
DICTIONARY
  5
104
330
87
100
AcDbDictionary
280
     1
281
     1
  3
ACAD_ROUNDTRIP_2008_TABLESTYLE_CELLSTYLEMAP
360
2CF9
  3
ACAD_XREC_ROUNDTRIP
360
2CFC
  0
DICTIONARY
  5
2D0C
330
9F
100
AcDbDictionary
280
     1
281
     1
  3
ACAD_XREC_ROUNDTRIP
360
2D0D
  0
DICTIONARY
  5
2D10
330
A1
100
AcDbDictionary
280
     1
281
     1
  3
ACAD_XREC_ROUNDTRIP
360
2D11
  0
DICTIONARY
  5
2D0E
330
A0
100
AcDbDictionary
280
     1
281
     1
  3
ACAD_XREC_ROUNDTRIP
360
2D0F
  0
DICTIONARY
  5
2D0A
330
9E
100
AcDbDictionary
280
     1
281
     1
  3
ACAD_XREC_ROUNDTRIP
360
2D0B
  0
DICTIONARY
  5
2D18
330
A5
100
AcDbDictionary
280
     1
281
     1
  3
ACAD_XREC_ROUNDTRIP
360
2D19
  0
DICTIONARY
  5
2D20
330
A9
100
AcDbDictionary
280
     1
281
     1
  3
ACAD_XREC_ROUNDTRIP
360
2D21
  0
DICTIONARY
  5
2D12
330
A2
100
AcDbDictionary
280
     1
281
     1
  3
ACAD_XREC_ROUNDTRIP
360
2D13
  0
DICTIONARY
  5
2D16
330
A4
100
AcDbDictionary
280
     1
281
     1
  3
ACAD_XREC_ROUNDTRIP
360
2D17
  0
DICTIONARY
  5
2D26
330
175
100
AcDbDictionary
280
     1
281
     1
  3
ACAD_XREC_ROUNDTRIP
360
2D27
  0
DICTIONARY
  5
2D1E
330
A8
100
AcDbDictionary
280
     1
281
     1
  3
ACAD_XREC_ROUNDTRIP
360
2D1F
  0
DICTIONARY
  5
2D02
330
9A
100
AcDbDictionary
280
     1
281
     1
  3
ACAD_XREC_ROUNDTRIP
360
2D03
  0
DICTIONARY
  5
2D04
330
9B
100
AcDbDictionary
280
     1
281
     1
  3
ACAD_XREC_ROUNDTRIP
360
2D05
  0
DICTIONARY
  5
2D06
330
9C
100
AcDbDictionary
280
     1
281
     1
  3
ACAD_XREC_ROUNDTRIP
360
2D07
  0
DICTIONARY
  5
2D08
330
9D
100
AcDbDictionary
280
     1
281
     1
  3
ACAD_XREC_ROUNDTRIP
360
2D09
  0
DICTIONARY
  5
1AF
330
1AE
100
AcDbDictionary
280
     1
281
     1
  3
ACAD_XREC_ROUNDTRIP
360
1B0
  0
DICTIONARY
  5
2D22
330
173
100
AcDbDictionary
280
     1
281
     1
  3
ACAD_XREC_ROUNDTRIP
360
2D23
  0
DICTIONARY
  5
2D1C
330
A7
100
AcDbDictionary
280
     1
281
     1
  3
ACAD_XREC_ROUNDTRIP
360
2D1D
  0
DICTIONARY
  5
2D24
330
174
100
AcDbDictionary
280
     1
281
     1
  3
ACAD_XREC_ROUNDTRIP
360
2D25
  0
DICTIONARY
  5
2D14
330
A3
100
AcDbDictionary
280
     1
281
     1
  3
ACAD_XREC_ROUNDTRIP
360
2D15
  0
DICTIONARY
  5
1B2
330
1B1
100
AcDbDictionary
280
     1
281
     1
  3
ACAD_XREC_ROUNDTRIP
360
1B3
  0
DICTIONARY
  5
1B5
330
1B4
100
AcDbDictionary
280
     1
281
     1
  3
ACAD_XREC_ROUNDTRIP
360
1B6
  0
DICTIONARY
  5
1B8
330
1B7
100
AcDbDictionary
280
     1
281
     1
  3
ACAD_XREC_ROUNDTRIP
360
1B9
  0
DICTIONARY
  5
1BB
330
1BA
100
AcDbDictionary
280
     1
281
     1
  3
ACAD_XREC_ROUNDTRIP
360
1BC
  0
DICTIONARY
  5
2D1A
330
A6
100
AcDbDictionary
280
     1
281
     1
  3
ACAD_XREC_ROUNDTRIP
360
2D1B
  0
DICTIONARY
  5
1BE
330
1BD
100
AcDbDictionary
280
     1
281
     1
  3
ACAD_XREC_ROUNDTRIP
360
1BF
  0
DICTIONARY
  5
1C1
330
1C0
100
AcDbDictionary
280
     1
281
     1
  3
ACAD_XREC_ROUNDTRIP
360
1C2
  0
DMMAP
  5
17F
102
{ACAD_REACTORS
330
17A
330
182
102
}
330
17A
100
AcMapDMMap
 70
     1
  1
Default
 70
     1
330
0
100
AcMapDMMap
 70
     1
 90
        1
360
182
 90
        1
 40
1.797693134862314E+99
 70
     1
100
AcMapDMMap
 70
     2
 70
     0
 40
1.797693134862314E+99
290
     1
290
     1
 40
1.0
 40
3.0
  1
Legend
 90
        1
 40
1.797693134862314E+99
  1

 70
     0
 40
1.0
 70
     1
 90
        0
 90
        1
360
183
  0
DMSTYLECATEGORY
  5
17C
102
{ACAD_REACTORS
330
17B
102
}
330
17B
100
AcMapDMStyleCategory
 70
     1
  1
Display Styles
 70
     0
  0
PLOTSETTINGS
  5
2C9C
102
{ACAD_REACTORS
330
999
102
}
330
999
100
AcDbPlotSettings
  1

  2
Adobe PDF
  4
Letter
  6

 40
3.174999952316284
 41
3.174999952316284
 42
3.175003051757812
 43
3.17498779296875
 44
215.8999938964844
 45
279.3999938964844
 46
14.28204596374672
 47
2.678601355813753
 48
0.0
 49
0.0
140
0.0
141
0.0
142
1.0
143
1.0
 70
 11940
 72
     0
 73
     1
 74
     1
  7
NETAFIM.ctb
 75
     0
147
1.114792733391864
 76
     0
 77
     2
 78
   300
148
22.7588296404667
149
0.0104620291014946
1001
ACAD_PSEXT
1000
Adobe PDF
1000
Adobe PDF Converter
1000
Documents\*.pdf
1000

1070
     0
  0
XRECORD
  5
99A
102
{ACAD_REACTORS
330
999
102
}
330
999
100
AcDbXrecord
280
     1
310
28000000000100008F0000000100080000000000008F0000000000000000000000010000000000000000000000000000FFFFFF000000000000000000000000000000000000000000000000000000000000000000330000006600000099000000CC000000FF00000000330000333300006633000099330000CC330000FF3300
310
0000660000336600006666000099660000CC660000FF66000000990000339900006699000099990000CC990000FF99000000CC000033CC000066CC000099CC0000CCCC0000FFCC000000FF000033FF000066FF000099FF0000CCFF0000FFFF000000003300330033006600330099003300CC003300FF003300003333003333
310
33006633330099333300CC333300FF33330000663300336633006666330099663300CC663300FF66330000993300339933006699330099993300CC993300FF99330000CC330033CC330066CC330099CC3300CCCC3300FFCC330000FF330033FF330066FF330099FF3300CCFF3300FFFF330000006600330066006600660099
310
006600CC006600FF00660000336600333366006633660099336600CC336600FF33660000666600336666006666660099666600CC666600FF66660000996600339966006699660099996600CC996600FF99660000CC660033CC660066CC660099CC6600CCCC6600FFCC660000FF660033FF660066FF660099FF6600CCFF6600
310
FFFF660000009900330099006600990099009900CC009900FF00990000339900333399006633990099339900CC339900FF33990000669900336699006666990099669900CC669900FF66990000999900339999006699990099999900CC999900FF99990000CC990033CC990066CC990099CC9900CCCC9900FFCC990000FF99
310
0033FF990066FF990099FF9900CCFF9900FFFF99000000CC003300CC006600CC009900CC00CC00CC00FF00CC000033CC003333CC006633CC009933CC00CC33CC00FF33CC000066CC003366CC006666CC009966CC00CC66CC00FF66CC000099CC003399CC006699CC009999CC00CC99CC00FF99CC0000CCCC0033CCCC0066CC
310
CC0099CCCC00CCCCCC00FFCCCC0000FFCC0033FFCC0066FFCC0099FFCC00CCFFCC00FFFFCC000000FF003300FF006600FF009900FF00CC00FF00FF00FF000033FF003333FF006633FF009933FF00CC33FF00FF33FF000066FF003366FF006666FF009966FF00CC66FF00FF66FF000099FF003399FF006699FF009999FF00CC
310
99FF00FF99FF0000CCFF0033CCFF0066CCFF0099CCFF00CCCCFF00FFCCFF0000FFFF0033FFFF0066FFFF0099FFFF00CCFFFF00FFFFFF00000000000D0D0D001A1A1A00282828003535350043434300505050005D5D5D006B6B6B00787878008686860093939300A1A1A100AEAEAE00BBBBBB00C9C9C900D6D6D600E4E4E400
310
F1F1F100FFFFFF0000000000000000000000000000000000000000000000000000000000000000000000000000000000E2E2E2E2E2E2E2E2E2E2E2E2E2E2E2E2E2E2E2E2E2E2E2BEBEBEBEBEBEBEBEBEBEBEBEBEBEBEBEBEBEBEBEBEBEBEBEBEBEBEBEBEBEBEBEBEBEBEBEBEBEBEBEBEBEBEBEBEBEBEBEBEBEBEBEBEBEBEBE
310
BEBEBEBEBEBEBEBEBEBEBEBEBEBEBEBEBEBEBEBEBEBEBEBEBEBEBEBEBEBEBEBEBEBEBEBEBEBEBEBEBEBEBEBEBEBEBEBEBEBEBEBEBEBEBEBEBEBEBEBEBEBEBEBEBEBEBEBEBEBEBEBEBEBEBEBEBEBEBEBEBEBEBEBEBEBEBEBEBEBEBEBEBEBEBEBEBEBEBEBEBEBEBEBEBEBEBEBEBEBEBEBEBEBEBEBEBEBEBEBEBEBEBEBEBEBEBE
310
BEBEBEBEBEBEBEBEBEBEBEBEBEBEBEBEBEBEBEBEBEBEBEBEBEBEBEE2E2E2E2E2E2E2E2E2E2E2E2E2E2E2E2E2E2E2E2E2E2E2E2E2E2E2E2E2E2E2E2E2E2E2E2E2E2E2E2E2E2E2E2E2E2BEE2E2E2E2E2E2E2E2E2E2E2E2E2E2E2E2BEE2E2E2E2E2E2E2E2E2E2E2E2E2E2E2E2E2E2E2E2E2E2E2E2E2E2E2E2E2E2E2E2E2E2E2E2
310
E2E2E2E2E2E2E2E2E2E2E2E2E2E2E2E2E2E2E2E2E2E2E2E2E2E2E2E2E2E2E2E2E2E2E2E2E2E2E2E2E2E2E2E2E2E2E2E2E2E2E2E2E2E2E2E2E2E2E2E2E2E2E2E2E2E2E2E2E2E2E2E2E2E2E2E2E2E2E2E2E2E2E2E2E2E2E2E2E2E2E2E2E2E2E2E2E2E2E2E2E2E2E2E2E2E2E2E2E2E2E2E2E2E2E2E2E2E2E2E2E2E2E2E2E2E2E2
310
E2E2E2E2E2E2E2E2E2E2E2E2E2E2E2E2E2E2E2E2E2E2E2E2E2E2E2E2BEE2E2E2E2E2E2E2E2E2E2E2E2E2E2E2E2E2E2E2E2E2E2E2E2E2E2E2E2E2E2E2E2E2E2E2E2E2E2E2E2E2E2E2E2E2E2BEE2E2E2E2E2E2E2E2E2E2E2E2E2E2E2E2BEE2E2E2E2E2C3C3C3C3C3C3E2E2E2E2E2E2E2E2E2E2E2E2E2E2E2E2E2E2E2E2E2E2E2
310
E2E2E2E2E2E2E2E2E2E2E2E2E2E2E2E2E2E2E2E2E2E2E2E2E2E2E2E2E2E2E2E2E2E2E2E2E2E2E2E2E2E2E2E2E2E2E2E2E2E2E2E2E2E2E2E2E2E2E2E2E2E2E2E2E2E2E2E2E2E2E2E2E2E2E2E2E2E2E2E2E2E2E2E2E2E2E2E2E2E2E2E2E2E2E2E2E2E2E2E2E2E2E2E2E2E2E2E2E2E2E2E2E2E2E2E2E2E2E2E2E2E2E2E2E2E2E2
310
E2E2E2E2E2E2E2E2E2E2E2E2E2E2E2E2E2E2E2E2E2E2E2E2E2E2E2E2E2E2BEE2E2E2E2E2E2E2E2E2E2E2E2E2E2E2E2E2E2E2E2E2E2E2E2E2E2E2E2E2E2E2E2E2E2E2E2E2E2E2E2E2E2E2E2E2E2BEE2E2E2E2E2E2E2E2E2E2E2E2E2E2E2E2BEE2E2E2E2C3E2E2E2E2E2C3C3E2E2E2E2E2DCDCDCDCDCE2E2DCE2DCE2E2DCDCDC
310
DCE2DCDCDCDCE2E2E2E2E2E2E2E2E2E2E2E2E2E2E2E2E2E2E2E2E2E2E2E2E2E2E2E2E2E2E2E2E2E2E2E2E2E2E2E2E2E2E2E2E2E2E2E2E2E2E2E2E2E2E2E2E2E2E2E2E2E2E2E2E2E2E2E2E2E2E2E2E2E2E2E2E2E2E2E2E2E2E2E2E2E2E2E2E2E2E2E2E2E2E2E2E2E2E2E2E2E2E2E2E2E2E2E2E2E2E2E2E2E2E2E2E2E2E2DCDC
310
DCDCDCDCDCDCDCE2E2E2E2E2E2DCDCDCE2DCDCE2DCE2E2DCDCDCDCDCE2E2E2E2BEE2E2E2E2E2E2E2E2E2E2E2E2E2E2E2E2E2E2E2E2E2E2E2E2E2E2E2E2E2E2E2E2E2E2E2E2E2E2E2E2E2E2E2E2E2E2BEE2E2E2E2E2E2E2E2E2E2E2E2E2E2E2E2BEE2E2E2C3E2E2E2E2E2E2E2E2C3E2E2E2E2DCDCDCDCDCE2E2DCDCDCDCE2DC
310
DCDCDCDCDCDCDCE2E2E2E2E2E2E2E2E2E2E2E2E2E2E2E2E2E2E2E2E2E2E2E2E2E2E2E2E2E2E2E2E2E2E2E2E2E2E2E2E2E2E2E2E2E2E2E2E2E2E2E2E2E2E2E2E2E2E2E2E2E2E2E2E2E2E2E2E2E2E2E2E2E2E2E2E2E2E2E2E2E2E2E2E2E2E2E2E2E2E2E2E2E2E2E2E2E2E2E2E2E2E2E2E2E2E2E2E2E2E2E2E2E2E2E2E2E2E2E2
310
DCDCDCDCDCDCDCDCE2E2E2DCDCE2E2DCE2DCE2DCDCDCDCE2E2DCDCDCDCDCE2E2E2E2BEE2E2E2E2E2E2E2E2E2E2E2E2E2E2E2E2E2E2E2E2E2E2E2E2E2E2E2E2E2E2E2E2E2E2E2E2E2E2E2E2E2E2E2E2E2E2BEE2BEE2E2E2BEE2BEE2BEE2BEE2BEE2E2BEE2E2C3E2DCDCDCDCDCDCE2E2C3E2E2E2E2DCDCDCDCDCDCE2DCDCDCDC
310
E2DCDCDCDCDCDCDCDCDCE2E2E2E2E2E2E2E2E2E2E2E2E2E2E2E2E2E2E2E2E2E2E2E2E2E2E2E2E2E2E2E2E2E2E2E2E2E2E2E2E2E2E2E2E2E2E2E2E2E2E2E2E2E2E2E2E2E2E2E2E2E2E2E2E2E2E2E2E2E2E2E2E2E2E2E2E2E2E2E2E2E2E2E2E2E2E2E2E2E2E2E2E2E2E2E2E2E2E2E2E2E2E2E2E2E2E2E2E2E2E2E2E2E2E2E2E2
310
E2E2DCDCDCDCDCDCDCDCE2E2E2E2E2E2E2DCDCDCDCDCDCDCDCE2E2DCDCDCDCDCE2E2E2E2BEE2E2E2E2E2E2E2E2E2E2E2E2E2E2E2E2E2E2E2E2E2E2E2E2E2E2E2E2E2E2E2E2E2E2E2E2E2E2E2E2E2E2E2E2E2E2BEE2BEE2E2E2BEE2BEE2BEE2BEE2BEE2E2BEE2E2C3E2DCE2DCDCE2DCE2E2E2C3E2E2E2E2E2E2E2E2E2E2E2E2
310
E2E2E2E2E2E2E2E2E2E2E2E2E2E2E2E2E2E2E2E2E2E2E2E2E2E2E2E2E2E2E2E2E2E2E2E2E2E2E2E2E2E2E2E2E2E2E2E2E2E2E2E2E2E2E2E2E2E2E2E2E2E2E2E2E2E2E2E2E2E2E2E2E2E2E2E2E2E2E2E2E2E2E2E2E2E2E2E2E2E2E2E2E2E2E2E2E2E2E2E2E2E2E2E2E2E2E2E2E2E2E2E2E2E2E2E2E2E2E2E2E2E2E2E2E2E2E2
310
E2E2E2E2E2E2E2E2E2E2E2E2E2E2E2E2E2E2E2E2E2E2E2E2E2E2E2E2E2E2E2E2E2E2E2E2E2E2BEE2E2E2E2E2E2E2E2E2E2E2E2E2E2E2E2E2E2E2E2E2E2E2E2E2E2E2E2E2E2E2E2E2E2E2E2E2E2E2E2E2E2E2E2E2E2BEE2BEE2E2E2BEE2BEE2BEE2BEE2BEE2E2BEE2E2C3E2DCE2DCDCE2DCE2E2E2C3C3C3C3DCDCDCDCDCDCDC
310
DCDCDCDCDCDCDCDCDCDCDCDCDCDCDCDCDCC3C3DCDCDCDCDCDCC3DCDCDCDCDCDCDCDCDCDCDCDCC3DCDCDCDCDCDCDCDCDCDCDCDCDCDCDCDCDCC3C3DCDCDCDCDCDCDCDCDCDCDCDCDCDCDCDCC3C3DCDCDCDCDCDCDCDCDCDCDCDCDCDCDCDCDCDCDCC3C3DCC3DCDCDCDCDCDCDCDCDCDCDCDCC3DCDCDCDCDCDCDCDCDCDCDCDCDCDCC3
310
C3C3C3C3C3C3C3C3C3C3C3C3C3C3C3C3C3C3C3C3C3C3C3C3C3C3C3C3C3C3C3C3C3C3C3C3C3E2E2E2BEE2E2E2E2E2E2E2E2E2E2E2E2E2E2E2E2E2E2E2E2E2E2E2E2E2E2E2E2E2E2E2E2E2E2E2E2E2E2E2E2E2E2E2E2E2E2BEE2BEE2E2E2BEE2BEE2BEE2BEE2BEE2E2BEE2E2C3E2DCE2DCDCE2DCE2E2E2C3E2E2E2DCDCDCDCDC
310
DCDCDCDCDCDCDCDCDCDCDCDCDCDCDCDCDCDCDCE2E2DCDCDCDCDCDCE2DCDCDCDCDCDCDCDCDCDCDCDCE2DCDCDCDCDCDCDCDCDCDCDCDCDCDCDCDCDCE2E2DCDCDCDCDCDCDCDCDCDCDCDCDCDCDCDCE2E2DCDCDCDCDCDCDCDCDCDCDCDCDCDCDCDCDCDCDCE2E2DCE2DCDCDCDCDCDCDCDCDCDCDCDCE2DCDCDCDCDCDCDCDCDCDCDCDCDC
310
DCE2E2E2E2E2E2E2E2E2E2E2E2E2E2E2E2E2E2E2E2E2E2E2E2E2E2E2E2E2E2E2E2E2E2E2E2E2E2E2E2E2BEE2E2E2E2E2E2E2E2E2E2E2E2E2E2E2E2E2E2E2E2E2E2E2E2E2E2E2E2E2E2E2E2E2E2E2E2E2E2E2E2E2E2E2E2E2E2BEE2BEE2E2E2BEE2BEE2BEE2BEE2BEE2E2BEE2E2C3E2DCDCDCDCDCDCE2E2E2C3E2E2E2DCDCDC
310
DCDCDCDCDCDCDCDCDCDCDCDCDCDCDCDCDCDCDCDCDCE2E2DCDCDCDCDCDCE2DCDCDCDCDCDCDCDCDCDCDCDCE2DCDCDCDCDCDCDCDCDCDCDCDCDCDCDCDCDCE2E2DCDCDCDCDCDCDCDCDCDCDCDCDCDCDCDCE2E2DCDCDCDCDCDCDCDCDCDCDCDCDCDCDCDCDCDCDCE2E2DCE2DCDCDCDCDCDCDCDCDCDCDCDCE2DCDCDCDCDCDCDCDCDCDCDC
310
DCDCDCE2E2E2E2E2E2E2E2E2E2E2E2E2BEBEBEE2E2E2E2E2E2E2E2E2E2E2E2E2E2E2E2E2E2E2E2E2E2E2E2E2BEE2E2E2E2E2E2E2E2E2E2E2E2E2E2E2E2E2E2E2E2E2E2E2E2E2E2E2E2E2E2E2E2E2E2E2E2E2E2E2E2E2E2E2E2E2E2BEE2BEE2E2E2BEE2BEE2BEE2BEE2BEE2E2BEE2E2C3C3E2E2E2E2E2E2E2E2C3E2E2E2E2DC
310
DCDCDCDCDCDCDCDCDCDCDCDCDCDCDCDCDCDCDCDCDCDCDCE2E2DCDCDCDCDCDCE2DCDCDCDCDCDCDCDCDCDCDCDCE2DCDCDCDCDCDCDCDCDCDCDCDCDCDCDCDCDCE2E2DCDCDCDCDCDCDCDCDCDCDCDCDCDCDCDCE2E2DCDCDCDCDCDCDCDCDCDCDCDCDCDCDCDCDCDCDCE2E2DCE2DCDCDCDCDCDCDCDCDCDCDCDCE2DCDCDCDCDCDCDCDCDC
310
DCDCDCDCDCE2E2E2E2E2E2E2E2E2E2E2E2BEBEBEBEE2E2E2E2E2E2E2E2E2E2E2E2E2E2E2E2E2E2E2E2E2E2E2E2E2BEE2E2E2E2E2E2E2E2E2E2E2E2E2E2E2E2E2E2E2E2E2E2E2E2E2E2E2E2E2E2E2E2E2E2E2E2E2E2E2E2E2E2E2E2E2E2BEE2BEE2E2E2BEE2BEE2BEE2BEE2BEE2E2BEE2E2E2C3C3E2E2E2E2E2E2C3C3E2E2E2
310
E2DCDCDCDCDCDCDCDCDCDCDCDCDCDCDCDCDCDCDCDCDCDCDCDCE2E2DCDCDCDCDCDCE2DCDCDCDCDCDCDCDCDCDCDCDCE2DCDCDCDCDCDCDCDCDCDCDCDCDCDCDCDCDCE2E2DCDCDCDCDCDCDCDCDCDCDCDCDCDCDCDCE2E2DCDCDCDCDCDCDCDCDCDCDCDCDCDCDCDCDCDCDCE2E2DCE2DCDCDCDCDCDCDCDCDCDCDCDCE2DCDCDCDCDCDCDC
310
DCDCDCDCDCDCDCE2E2E2E2E2E2E2E2E2E2E2E2BEBEBEBEE2E2E2E2E2E2E2E2E2E2E2E2E2E2E2E2E2E2E2E2E2E2E2E2E2BEE2E2E2E2E2E2E2E2E2E2E2E2E2E2E2E2E2E2E2E2E2E2E2E2E2E2E2E2E2E2E2E2E2E2E2E2E2E2E2E2E2E2E2E2E2E2BEE2BEE2E2E2BEE2BEE2BEE2BEE2BEE2E2BEE2E2E2E2C3C3E2E2E2E2C3E2E2E2
310
E2E2E2DCDCDCDCDCDCDCDCDCDCDCDCDCDCDCDCDCDCDCDCDCDCDCDCE2E2DCDCDCDCDCDCE2DCDCDCDCDCDCDCDCDCDCDCDCE2DCDCDCDCDCDCDCDCDCDCDCDCDCDCDCDCDCE2E2DCDCDCDCDCDCDCDCDCDCDCDCDCDCDCDCE2E2DCDCDCDCDCDCDCDCDCDCDCDCDCDCDCDCDCDCDCE2E2DCE2DCDCDCDCDCDCDCDCDCDCDCDCE2DCDCDCDCDC
310
DCDCDCDCDCDCDCDCDCE2E2E2E2E2E2E2E2E2E2E2E2E2BEBEBEBEBEBEBEBEBEBEBEBEBEBEBEBEBEBEBEBEBEBEBEE2E2E2E2E2BEE2E2E2E2E2E2E2E2E2E2E2E2E2E2E2E2E2E2E2E2E2E2E2E2E2E2E2E2E2E2E2E2E2E2E2E2E2E2E2E2E2E2E2E2E2E2BEE2BEE2E2E2BEE2BEE2BEE2BEE2BEE2E2BEE2E2E2E2E2E2C3C3C3C3E2E2
310
E2E2E2E2E2E2E2E2E2E2E2E2E2E2E2E2E2E2E2E2E2E2E2E2E2E2E2E2E2E2E2E2E2E2E2E2E2E2E2E2E2E2E2E2E2E2E2E2E2E2E2E2E2E2E2E2E2E2E2E2E2E2E2E2E2E2E2E2E2E2E2E2E2E2E2E2E2E2E2E2E2E2E2E2E2E2E2E2E2E2E2E2E2E2E2E2E2E2E2E2E2E2E2E2E2E2E2E2E2E2E2E2E2E2E2E2E2E2E2E2E2E2E2E2E2E2E2
310
E2E2E2E2E2E2E2E2E2E2E2E2E2E2E2E2E2E2E2E2E2E2E2E2E2BEBEBEBEBEBEBEBEBEBEBEBEBEBEBEBEBEBEBEBEBEBEE2E2E2E2E2BEE2E2E2E2E2E2E2E2E2E2E2E2E2E2E2E2E2E2E2E2E2E2E2E2E2E2E2E2E2E2E2E2E2E2E2E2E2E2E2E2E2E2E2E2E2E2BEE2BEE2E2E2BEE2BEE2BEE2BEE2BEE2E2BEE2E2E2E2E2E2E2E2E2E2
310
E2E2E2E2E2E2E2E2E2E2E2E2E2E2E2E2E2E2E2E2E2E2E2E2E2E2E2E2E2E2E2E2E2E2E2E2E2E2E2E2E2E2E2E2E2E2E2E2E2E2E2E2E2E2E2E2E2E2E2E2E2E2E2E2E2E2E2E2E2E2E2E2E2E2E2E2E2E2E2E2E2E2E2E2E2E2E2E2E2E2E2E2E2E2E2E2E2E2E2E2E2E2E2E2E2E2E2E2E2E2E2E2E2E2E2E2E2E2E2E2E2E2E2E2E2E2E2
310
E2E2E2E2E2E2E2E2E2E2E2E2E2E2E2E2E2E2E2E2E2E2E2E2E2E2E2E2BEBEBEBEBEBEBEBEBEBEBEBEBEBEBEBEBEBEBEBEBEBEBEE2E2E2BEE2E2E2E2E2E2E2E2E2E2E2E2E2E2E2E2E2E2E2E2E2E2E2E2E2E2E2E2E2E2E2E2E2E2E2E2E2E2E2E2E2E2E2E2E2E2BEE2BEE2E2E2BEE2BEE2BEE2BEE2BEE2E2BEE2E2E2E2E2E2E2E2
310
E2E2E2E2E2E2E2E2E2E2E2E2E2E2E2E2E2E2E2E2E2E2E2E2E2E2E2E2E2E2E2E2E2E2E2E2E2E2E2E2E2E2E2E2E2E2E2E2E2E2E2E2E2E2E2E2E2E2E2E2E2E2E2E2E2E2E2E2E2E2E2E2E2E2E2E2E2E2E2E2E2E2E2E2E2E2E2E2E2E2E2E2E2E2E2E2E2E2E2E2E2E2E2E2E2E2E2E2E2E2E2E2E2E2E2E2E2E2E2E2E2E2E2E2E2E2E2
310
E2E2E2E2E2E2E2E2E2E2E2E2E2E2E2E2E2E2E2E2E2E2E2E2E2E2E2E2E2E2BEE2BEBEBEBEBEBEBEBEBEBEBEBEBEBEBEBEBEBEBEBEBEE2E2E2BEE2E2E2E2E2E2E2E2E2E2E2E2E2E2E2E2E2E2E2E2E2E2E2E2E2E2E2E2E2E2E2E2E2E2E2E2E2E2E2E2E2E2E2E2E2E2BEE2E2E2E2E2BEE2BEE2BEE2BEE2BEE2E2BEE2E2E2E2E2E2
310
E2E2E2E2E2E2E2E2E2E2E2E2E2E2E2E2E2E2E2E2E2E2E2E2E2E2E2E2E2E2E2E2E2E2E2E2E2E2E2E2E2E2E2E2E2E2E2E2E2E2E2E2E2E2E2E2E2E2E2E2E2E2E2E2E2E2E2E2E2E2E2E2E2E2E2E2E2E2E2E2E2E2E2E2E2E2E2E2E2E2E2E2E2E2E2E2E2E2E2E2E2E2E2E2E2E2E2E2E2E2E2E2E2E2E2E2E2E2E2E2E2E2E2E2E2E2E2
310
E2E2E2E2E2E2E2E2E2E2E2E2E2E2E2E2E2E2E2E2E2E2E2E2E2E2E2E2E2E2E2E2E2E2E2E2E2E2E2E2E2E2E2E2E2E2E2E2E2E2E2E2E2E2E2E2E2E2BEE2E2E2E2E2E2E2E2E2E2E2E2E2E2E2E2E2E2E2E2E2E2E2E2E2E2E2E2E2E2E2E2E2E2E2E2E2E2E2E2E2E2E2E2E2E2BEE2E2E2E2E2BEE2BEE2BEE2BEE2BEE2E2BEE2E2E2E2
310
E2E2E2E2E2E2E2E2E2E2E2E2E2E2E2E2E2E2E2E2E2E2E2E2E2E2E2E2E2E2E2E2E2E2E2E2E2E2E2E22D2D2DE2E2E2E2E2E2E2E2E2E2E2E2E2E2E2E2E2E2E2E2E2E2E2E2E2E2E2E2E2E2E2E2E2E2E2E2E2E2E2E2E2E2E2E2E2E2E2E2E2E2E2E2E2E2E2E2E2E2E2E2E2E2E2E2E2E2E2E2E2E2E2E2E2E2E2E2E2E2E2E2E2E2E2E2
310
E2E2E2E2E2E2E2E2E2E2E2E2E2E2E2E2E2E2E2E2E2E2E2E2E2E2E2E2E2E2E2E2E2E2E2E2E2E2E2E2E2E2E2E2E2E2E2E2E2E2E2E2E2E2E2E2E2E2E2E2BEE2E2E2E2E2E2E2E2E2E2E2E2E2E2E2E2E2E2E2E2E2E2E2E2E2E2E2E2E2E2E2E2E2E2E2E2E2E2E2E2E2E2E2E2E2E2BEE2E2E2E2E2BEE2BEE2BEE2BEE2BEE2E2BEE2E2
310
E2E2E2E2E2E2E2E2E2E2E2E2E2E2E2E2E2E2E2E2E2E2E2E2E2E2E2E2E2E2E2E2E2E2E2E2E2E2E2E2E22D2DE2E22DE2E2E2E2E2E2E2E2E2E2E2E2E2E2E2E2E2E2E2E2E2E2E2E2E2E2E2E2E2E2E2E2E2E2E2E2E2E2E2E2E2E2E2E2E2E2E2E2E2E2E2E2E2E2E2E2E2E2E2E2E2E2E2E2E2E2E2E2E2E2E2E2E2E2E2E2E2E2E2E2E2
310
E2E2E2E2E2E2E2E2E2E2E2E2E2E2E2E2E2E2E2E2E2E2E2E2E2E2E2E2E2E2E2E2E2E2E2E2E2E2E2E2E2E2E2E2E2E2E2E2E2E2E2E2E2E2E2E2E2E2E2E2E2E2BEE2E2E2E2E2E2E2E2E2E2E2E2E2E2E2E2E2E2E2E2E2E2E2E2E2E2E2E2E2E2E2E2E2E2E2E2E2E2E2E2E2E2E2E2E2E2BEE2E2E2E2E2BEE2BEE2BEE2BEE2BEE2E2BE
310
E2E2E2E2E2E2E2E2E2E2E2E2E2E2E2E2E2E2E2E2E2E2E2E2E2E2E2E2E2E2E2E2E2E2E2E2E2E2E2E2E2E2E22DDCDCDC2D2DE2E2E2E2E2E2E2E2E2E2E2E2E2E2E2E2E2E2E2E2E2E2E2E2E2E2E2E2E2E2E2E2E2E2E2E2E2E2E2E2E2E2E2E2E2E2E2E2E2E2E2E2E2E2E2E2E2E2E2E2E2E2E2E2E2E2E2E2E2E2E2E2E2E2E2E2E2E2
310
E2E2E2E2E2E2E2E2E2E2E2E2E2E2E2E2E2E2E2E2E2E2E2E2E2E2E2E2E2E2E2E2E2E2E2E2E2E2E2E2E2E2E2E2E2E2E2E2E2E2E2E2E2E2E2E2E2E2E2E2E2E2E2E2BEE2E2E2E2E2E2E2E2E2E2E2E2E2E2E2E2E2E2E2E2E2E2E2E2E2E2E2E2E2E2E2E2E2E2E2E2E2E2E2E2E2E2E2E2E2E2BEE2E2E2E2E2BEE2BEE2BEE2BEE2BEE2
310
E2BEE2E2E2E2E2E2E2E2E2E2E2E2E2E2E2E2E2E2E2E2E2E2E2E2E2E2E2E2E2E2E2E2E2E2E2E2E2E2E2E2E2E22DE2DCDCDCE22DE2E2E2E2E2E2E2E2E2E2E2E2E2E2E2E2E2E2E2E2E2E2E2E2E2E2E2E2E2E2E2E2E2E2E2E2E2E2E2E2E2E2E2E2E2E2E2E2E2E2E2E2E2E2E2E2E2E2E2E2E2E2E2E2E2E2E2E2E2E2E2E2E2E2E2E2
310
E2E2E2E2E2E2E2E2E2E2E2E2E2E2E2E2E2E2E2E2E2E2E2E2E2E2E2E2E2E2E2E2E2E2E2E2E2E2E2E2E2E2E2E2E2E2E2E2E2E2E2E2E2E2E2E2E2E2E2E2E2E2E2E2E2E2BEE2E2E2E2E2E2E2E2E2E2E2E2E2E2E2E2E2E2E2E2E2E2E2E2E2E2E2E2E2E2E2E2E2E2E2E2E2E2E2E2E2E2E2E2E2E2BEE2E2E2E2E2BEE2BEE2BEE2BEE2
310
BEE2E2BEE2E2E2E2E2E2E2E2E2E2E2E2E2E2E2E2E2E2E2E2E2E2E2E2E2E2E2E2E2E2E2E2E2E2E2E2E2E2E2E2E2E2E22DDCE2DCDC2DE2E2E2E2E2E2E2E2E2E2E2E2E2E2E2E2E2E2E2E2E2E2E2E2E2E2E2E2E2E2E2E2E2E2E2E2E2E2E2E2E2E2E2E2E2E2E2E2E2E2E2E2E2E2E2E2E2E2E2E2E2E2E2E2E2E2E2E2E2E2E2E2E2E2
310
E2E2E2E2E2E2E2E2E2E2E2E2E2E2E2E2E2E2E2E2E2E2E2E2E2E2E2E2E2E2E2E2E2E2E2E2E2E2E2E2E2E2E2E2E2E2E2E2E2E2E2E2E2E2E2E2E2E2E2E2E2E2E2E2E2E2E2E2BEE2E2E2E2E2E2E2E2E2E2E2E2E2E2E2E2E2E2E2E2E2E2E2E2E2E2E2E2E2E2E2E2E2E2E2E2E2E2E2E2E2E2E2E2E2E2BEE2E2E2E2E2BEE2BEE2BEE2
310
BEE2BEE2E2BEE2E2E2E2E2E2E2E2E2E2E2E2E2E2E2E2E2E2E2E2E2E2E2E2E2E2E2E2E2E2E2E2E2E2E2E2E2E2E2E2E2E2E22D2DE22D2DE2E2E2E2E2E2E2E2E2E2E2E2E2E2E2E2E2E2E2E2E2E2E2E2E2E2E2E2E2E2E2E2E2E2E2E2E22D2D2DE2E2E2E2E2E2E2E2E2E2E2E2E2E2E2E2E2E2E2E2E2E2E2E2E2E2E2E2E2E2E2E2E2
310
E2E2E2E2E2E2E2E2E2E2E2E2E2E2E2E2E2E2E2E2E2E2E2E2E2E2E2E2E2E2E2E2E2E2E2E2E2E2E2E2E2E2E2E2E2E2E2E2E2E2E2E2E2E2E2E2E2E2E2E2E2E2E2E2E2E2E2E2E2E2BEE2E2E2E2E2E2E2E2E2E2E2E2E2E2E2E2E2E2E2E2E2E2E2E2E2E2E2E2E2E2E2E2E2E2E2E2E2E2E2E2E2E2E2E2E2E2BEE2E2E2E2E2BEE2BEE2
310
BEE2BEE2BEE2E2BEE2E2E2E2E2E2E2E2E2E2E2E2E2E2E2E2E2E2E2E2E2E2E2E2E2E2E2E2E2E2E2E2E2E2E2E2E2E2E2E2E2E2E2E22D2D2DE2E2E2E2E2E2E2E2E2E2E2E2E2E2E2E2E2E2E2E2E2E2E2E2E2E2E2E2E2E2E2E2E2E2E2E2E22D2DE22D2DE2E2E2E2E2E2E2E2E2E2E2E2E2E2E2E2E2E2E2E2E2E2E2E2E2E2E2E2E2E2
310
E2E2E2E2E2E2E2E2E2E2E2E2E2E2E2E2E2E2E2E2E2E2E2E2E2E2E2E2E2E2E2E2E2E2E2E2E2E2E2E2E2E2E2E2E2E2E2E2E2E2E2E2E2E2E2E2E2E2E2E2E2E2E2E2E2E2E2E2E2E2E2E2BEE2E2E2E2E2E2E2E2E2E2E2E2E2E2E2E2E2E2E2E2E2E2E2E2E2E2E2E2E2E2E2E2E2E2E2E2E2E2E2E2E2E2E2E2E2E2BEE2E2E2E2E2BEE2
310
BEE2BEE2BEE2BEE2E2BEE2E2E2E2E2E2E2E2E2E2E2E2E2E2E2E2E2E2E2E2E2E2E2E2E2E2E2E2E2E2E2E2E2E2E2E2E2E2E2E2E2E2E2E22DDC2DE2E2E2E2E2E2E2E2E2E2E2E2E2E2E2E2E2E2E2E2E2E2E2E2E2E2E2E2E2E2E2E2E2E2E2E2E22DDCDCDCE22DE2E2E2E2E2E2E2E2E2E2E2E2E2E2E2E2E2E2E2E2E2E2E2E2E2E2E2
310
E2E2E2E2E2E2E2E2E2E2E2E2E2E2E2E2E2E2E2E2E2E2E2E2E2E2E2E2E2E2E2E2E2E2E2E2E2E2E2E2E2E2E2E2E2E2E2E2E2E2E2E2E2E2E2E2E2E2E2E2E2E2E2E2E2E2E2E2E2E2E2E2E2E2BEE2E2E2E2E2E2E2E2E2E2E2E2E2E2E2E2E2E2E2E2E2E2E2E2E2E2E2E2E2E2E2E2E2E2E2E2E2E2E2E2E2E2E2E2E2E2BEE2E2E2E2E2
310
BEE2BEE2BEE2BEE2BEE2E2BEE2E2E2E2E2E2E2E2E2E2E2E2E2E2E2E2E2E2E2E2E2E2E2E2E2E2E2E2E2E2E2E2E2E2E2E2E2E2E2E2E2E2E2E2DCDCDCE2E2E2E2E2E2E2E2E2E2E2E2E2E2E2E2E2E2E2E2E2E2E2E2E2E2E2E2E2E2E2E2E2E2E2E2E22DDCDCDCE2DCDCDCE2E2E2E2E2E2E2E2E2E2E2E2E2E2E2E2E2E2E2DCE2DCDC
310
DCDCDCDCDCDCDCDCE2E2E2DCDCE2E2DCE2DCE2DCE2E2E2DCDCDCE2E2DCE2DCDCDCDCE2E2DCDCDCDCDCE2DCE2E2E2E2E2E2E2E2E2E2E2E2E2E2E2E2E2E2E2E2E2E2E2E2E2E2E2E2E2E2E2E2E2BEE2E2E2E2E2E2E2E2E2E2E2E2E2E2E2E2E2E2E2E2E2E2E2E2E2E2E2E2E2E2E2E2E2E2E2E2E2E2E2E2E2E2E2E2E2E2BEE2E2E2
310
E2E2BEE2BEE2BEE2BEE2BEE2E2BEE2E2E2E2E2E2E2E2E2E2E2E2E2E2E2E2E2E2E2E2E2E2E2E2E2E2E2E2E2E2E2E2E2E2E2E2E2E2E2E2E2E2E2E2DCDCDCE2E2E2E2E2E2E2E2E2E2E2E2E2E2E2E2E2E2E2E2E2E2E2E2E2E2E2E2E2E2E2E2E2E2E2E2E22DDCE2DCDC2DDCDCDCE2E2E2E2E2E2E2E2E2E2E2E2E2E2E2E2E2E2DCDC
310
DCDCDCDCDCDCDCDCDCDCDCE2E2DCDCDCE2DCDCDCDCDCDCE2DCDCDCDCE2E2DCDCDCDCE2DCE2E2DCE2DCDCDCDCDCE2E2E2E2E2E2E2E2E2E2E2E2E2E2E2E2E2E2E2E2E2E2E2E2E2E2E2E2E2E2E2E2E2BEE2E2E2E2E2E2E2E2E2E2E2E2E2E2E2E2E2E2E2E2E2E2E2E2E2E2E2E2E2E2E2E2E2E2E2E2E2E2E2E2E2E2E2E2E2E2BEE2
310
E2E2E2E2BEE2BEE2BEE2BEE2BEE2E2BEE2E2E2E2E2E2E2E2E2E2E2E2E2E2E2E2E2E2E2E2E2E2E2E2E2E2E2E2E2E2E2E2E2E2E2E2E2E2E2E2E2E2E2E2DCDCDCE2E2E2E2E2E2E2E2E2E2E2E2E2E2E2E2E2E2E2E2E2E2E2E2E2E2E2E2E2E2E2E2E2E2E2E2E22D2DE22D2DE2E2E2E2DCDCDCDCE2E2E2E2E2E2E2E2E2E2E2E2E2E2
310
DCDCDCDCDCDCDCDCDCDCDCDCDCE2DCDCDCDCE2DCDCDCDCDCDCE2DCDCDCDCE2E2DCDCDCDCDCE2DCE2DCDCDCE2DCDCDCE2E2E2E2E2E2E2E2E2E2E2E2E2E2E2E2E2E2E2E2E2E2E2E2E2E2E2E2E2E2E2E2E2BEE2E2E2E2E2E2E2E2E2E2E2E2E2E2E2E2E2E2E2E2E2E2E2E2E2E2E2E2E2E2E2E2E2E2E2E2E2E2E2E2E2E2E2E2E2E2
310
BEE2E2E2E2E2BEE2BEE2BEE2BEE2BEE2E2BEE2E2E2E2E2E2E2E2E2E2E2E2E2E2E2E2E2E2E2E2E2E2E2E2E2E2E2E2E2E2E2E2E2E2E2E2E2E2E2E2E2E2E2E22DDC2DE2E2E2E2E2E2E2E2E2E2E2E2E2E2E2E2E2E2E2E2E2E2E2E2E2E2E2E2E2E2E2E2E2E2E2E2E2E22D2D2DE2E2E2E2E2E2E2E2E2DCDCDCDCE2E2E2E2E2E2E2E2
310
E2E2E2E2E2E2E2E2E2E2E2E2E2E2E2E2E2E2E2E2E2E2E2E2E2E2E2E2E2E2E2E2E2E2E2E2E2E2E2E2E2E2E2DCE2E2E2E2DCE2E2E2E2E2E2E2E2E2E2E2E2E2E2E2E2E2E2E2E2E2E2E2E2E2E2E2E2E2E2E2E2E2BEE2E2E2E2E2E2E2E2E2E2E2E2E2E2E2E2E2E2E2E2E2E2E2E2E2E2E2E2E2E2E2E2E2E2E2E2E2E2E2E2E2E2E2E2
310
E2E2BEE2E2E2E2E2BEE2BEE2BEE2BEE2BEE2E2BEE2E2E2E2E2E2E2E2E2E2E2E2E2E2E2E2E2E2E2E2E2E2E2E2E2E2E2E2E2E2E2E2E2E2E2E2E2E2E2E2E2E2E2E22DE22D2D2D2DE2E22D2D2D2D2D2DE22D2D2D2D2D2DE2E22D2D2D2D2D2DE22D2D2D2D2D2DE2E22D2D2D2DE22D2DE2E2E2E2E2E2E2E2E2E2E2E2DCDCDCDCDCDC
310
DCDCDCE2DCDCDCDCDCDCDCDCDCDCDCDCDCDCDCE2DCE2DCDCDCDCDCDCDCE2E2DCDCDCDCDCDCDCDCE2E2E2E2E2E2E2E2E2E2E2E2E2E2E2E2E2E2E2E2E2E2E2E2E2E2E2E2E2E2E2E2E2E2E2E2E2E2E2E2E2E2E2E2E2BEE2E2E2E2E2E2E2E2E2E2E2E2E2E2E2E2E2E2E2E2E2E2E2E2E2E2E2E2E2E2E2E2E2E2E2E2E2E2E2E2E2E2
310
E2E2E2E2BEE2E2E2E2E2BEE2BEE2BEE2BEE2BEE2E2BEE2E2E2E2E2E2E2E2E2E2E2E2E2E2E2E2E2E2E2E2E2E2E2E2E2E2E2E2E2E2E2E2E2E2E2E2E2E2E2E2E2E2E2E22DE22DE2E28383838383838383838383838383838383838383838383838383838383838383838383838383832DE2E2E2E2E2E2E2E2E2E2E2E2E2E2E2E2
310
E2E2E2E2E2E2E2DCDCDCDCDCDCDCDCDCDCDCDCDCDCE2DCDCDCDCDCDCDCDCDCE2E2DCDCDCE2DCDCDCE2E2E2E2E2E2E2E2E2E2E2E2E2E2E2E2E2E2E2E2E2E2E2E2E2E2E2E2E2E2E2E2E2E2E2E2E2E2E2E2E2E2E2E2E2E2BEE2E2E2E2E2E2E2E2E2E2E2E2E2E2E2E2E2E2E2E2E2E2E2E2E2E2E2E2E2E2E2E2E2E2E2E2E2E2E2E2
310
E2E2E2E2E2E2BEE2E2E2E2E2BEE2BEE2BEE2BEE2BEE2E2BEE2E2E2E2E2E2E2E2E2E2E2E2E2E2E2E2E2E2E2E2E2E2E2E2E2E2E2E2E2E2E2E2E2E2E2E2E2E2E2E2E2E2E2E22DE22DE28383838383838383838383838383838383838383838383838383838383838383838383838383832D2DE2E2E2E2E2E2E2E2E2E2E2E2E2E2
310
E2E2E2E2E2E2E2E2E2DCDCDCDCDCDCDCDCDCDCDCDCDCE2E2DCDCDCDCDCDCDCDCDCE2DCDCDCDCE2DCDCDCDCE2E2E2E2E2E2E2E2E2E2E2E2E2E2E2E2E2E2E2E2E2E2E2E2E2E2E2E2E2E2E2E2E2E2E2E2E2E2E2E2E2E2E2E2E2BEE2E2E2E2E2E2E2E2E2E2E2E2E2E2E2E2E2E2E2E2E2E2E2E2E2E2E2E2E2E2E2E2E2E2E2E2E2E2
310
E2E2E2E2E2E2E2E2BEE2E2E2E2E2BEE2BEE2BEE2BEE2BEE2E2BEE2E2E2E2E2E2E2E2E2E2E2E2E2E2E2E2E2E2E2E2E2E2E2E2E2E2E2E2E2E2E2E2E2E2E2E2E2E2E2E2E2E2E2E22DE22DE28383E2E2E2E2E2E2E2E2E2E2E2E2E2E2E2E2E2E2E2E2E2E2E2E2E2E2E2E2E2E2E2E2E2E2E22DE22DE2E2E2E2E2E2E2E2E2E2E2E2E2
310
E2E2E2E2E2E2E2E2E2E2E2E2E2E2E2E2E2E2E2E2E2E2E2E2E2E2E2E2E2E2E2E2E2E2E2E2E2E2E2E2E2E2E2E2E2E2E2E2E2E2E2E2E2E2E2E2E2E2E2E2E2E2E2E2E2E2E2E2E2E2E2E2E2E2E2E2E2E2E2E2E2E2E2E2E2E2E2E2E2E2BEE2E2E2E2E2E2E2E2E2E2E2E2E2E2E2E2E2E2E2E2E2E2E2E2E2E2E2E2E2E2E2E2E2E2E2E2
310
E2E2E2E2E2E2E2E2E2E2BEE2E2E2E2E2BEE2BEE2BEE2BEE2BEE2E2BEE2E2E2E2E2E2E2E2E2E2E2E2E2E2E2E2E2E2E2E2E2E2E2E2E2E2E2E2E2E2E2E2E2E2E2E2E2E2E2E2E2E2E2E22DE22DE28383E2E2E2E2E2E2E2E2E2E2E2E2E2E2E2E2E2E2E2E2E2E2E2E2E2E2E2E2E2E2E2E2E2E2E22DE22DE2E2E2E2E2E2E2E2E2E2E2
310
E2E2E2E2E2E2E2E2E2E2E2E2E2E2E2E2E2E2E2E2E2E2E2E2E2E2E2E2E2E2E2E2E2E2E2E2E2E2E2E2E2E2E2E2E2E2E2E2E2E2E2E2E2E2E2E2E2E2E2E2E2E2E2E2E2E2E2E2E2E2E2E2E2E2E2E2E2E2E2E2E2E2E2E2E2E2E2E2E2E2E2E2BEE2E2E2E2E2E2E2E2E2E2E2E2E2E2E2E2E2E2E2E2E2E2E2E2E2E2E2E2E2E2E2E2E2E2
310
E2E2E2E2E2E2E2E2E2E2E2E2BEE2E2E2E2E2BEE2BEE2BEE2BEE2BEE2E2BEE2E2E2E2E2E2E2E2E2E2E2E2E2E2E2E2E2E2E2E2E2E2E2E2E2E2E2E2E2E2E2E2E2E2E2E2E2E2E2E2E2E2E2E22DE22DE28383E2E2E2E2E2E2E2E2E2E2E2E2E2E2E2E2E2E2E2E2E2E2E2E2E2E2E2E2E2E2E2E2E2E2E22DE22D2DE2E2E2E2E2E2E2E2
310
E2E2E2E2E2E2E2E2E2E2E2E2E2E2E2E2E2E2E2E2E2E2E2E2E2E2E2E2E2E2E2E2E2E2E2E2E2E2E2E2E2E2E2E2E2E2E2E2E2E2E2E2E2E2E2E2E2E2E2E2E2E2E2E2E2E2E2E2E2E2E2E2E2E2E2E2E2E2E2E2E2E2E2E2E2E2E2E2E2E2E2E2E2E2BEE2E2E2E2E2E2E2E2E2E2E2E2E2E2E2E2E2E2E2E2E2E2E2E2E2E2E2E2E2E2E2E2
310
E2E2E2E2E2E2E2E2E2E2E2E2E2E2BEE2E2E2E2E2BEE2BEE2BEE2BEE2BEE2E2BEE2E2E2E2E2E2E2E2E2E2E2E2E2E2E2E2E2E2E2E2E2E2E2E2E2E2E2E2E2E2E2E2E2E2E2E2E2E2E2E2E2E2E2E22DE22DE283838383838383838383838383838383838383838383838383838383838383838383E2E2E22DE22D2DE2E2E2E2E2E2
310
E2E2E2E2E2E2E2E2E2E2E2E2E2E2E2E2E2E2E2E2E2E2E2E2E2E2E2E2E2E2E2E2E2E2E2E2E2E2E2E2E2E2E2E2E2E2E2E2E2E2E2E2E2E2E2E2E2E2E2E2E2E2E2E2E2E2E2E2E2E2E2E2E2E2E2E2E2E2E2E2E2E2E2E2E2E2E2E2E2E2E2E2E2E2E2E2BEE2E2E2E2E2E2E2E2E2E2E2E2E2E2E2E2E2E2E2E2E2E2E2E2E2E2E2E2E2E2
310
E2E2E2E2E2E2E2E2E2E2E2E2E2E2E2E2BEE2E2E2E2E2BEE2BEE2BEE2BEE2BEE2E2BEE2E2E2E2E2E2E2E2E2E2E2E2E2E2E2E2E2E2E2E2E2E2E2E2E2E2E2E2E2E2E2E2E2E2E2E2E2E2E2E2E2E2E2E22DE22DE2E283838383838383838383838383838383838383838383838383838383838383838383E2E22DE22D2DE2E2E2E2
310
E2E2E2E2E2E2E2E2E2E2E2E2E2E2E2E2E2E2DCE2DCDCDCDCDCDCE2DCDCDCDCDCDCDCE2E2DCDCDCE2E2DCDCDCDCDCDCDCDCDCDCDCDCDCDCDCE2E2E2E2E2E2E2E2E2E2E2E2E2E2E2E2E2E2E2E2E2E2E2E2E2E2E2E2E2E2E2E2E2E2E2E2E2E2E2E2E2E2BEE2E2E2E2E2E2E2E2E2E2E2E2E2E2E2E2E2E2E2E2E2E2E2E2E2E2E2E2
310
E2E2E2E2E2E2E2E2E2E2E2E2E2E2E2E2E2E2BEE2E2E2E2E2BEE2BEE2BEE2BEE2BEE2E2BEE2E2E2E2E2E2E2E2E2E2E2E2E2E2E2E2E2E2E2E2E2E2E2E2E2E2E2E2E2E2E2E2E2E2E2E2E2E2E2E2E2E2E2E22DE22DE2E2E2E2E2E2E2E2E2E2E2E2E2E2E2E2E2E2E2E2E2E2E2E2E2E2E2E2E2E2E2E2E2E283E283E22DE22D2DE2E2
310
E2E2E2E2E2E2E2E2E2E2E2E2E2E2E2E2E2E2E2E2DCDCDCDCDCDCDCDCE2DCDCDCDCDCDCDCE2E2DCDCDCE2E2DCE2DCDCDCDCDCDCDCDCDCDCDCDCDCE2E2E2E2E2E2E2E2E2E2E2E2E2E2E2E2E2E2E2E2E2E2E2E2E2E2E2E2E2E2E2E2E2E2E2E2E2E2E2E2E2E2BEE2E2E2E2E2E2E2E2E2E2E2E2E2E2E2E2E2E2E2E2E2E2E2E2E2E2
310
E2E2E2E2E2E2E2E2E2E2E2E2E2E2E2E2E2E2E2E2BEE2E2E2E2E2BEE2BEE2BEE2BEE2BEE2E2BEE2E2E2E2E2E2E2E2E2E2E2E2E2E2E2E2E2E2E2E2E2E2E2E2E2E2E2E2E2E2E2E2E2E2E2E2E2E2E2E2E2E2E2E22DE22DE2E2E2E2E2E2E2E2E2E2E2E2E2E2E2E2E2E2E2E2E2E2E2E2E2E2E2E2E2E2E2E2E2E2E28383E22DE22D2D
310
E2E2E2E2E2E2E2E2E2E2E2E2E2E2E2E2E2E2E2E2E2E2DCDCDCE2DCDCE2DCE2DCDCDCE2DCDCDCE2E2DCE2DCDCE2DCE2DCDCDCDCE2DCE2DCDCE2DCDCDCE2E2E2E2E2E2E2E2E2E2E2E2E2E2E2E2E2E2E2E2E2E2E2E2E2E2E2E2E2E2E2E2E2E2E2E2E2E2E2E2E2E2BEE2E2E2E2E2E2E2E2E2E2E2E2E2E2E2E2E2E2E2E2E2E2E2E2
310
E2E2E2E2E2E2E2E2E2E2E2E2E2E2E2E2E2E2E2E2E2E2BEE2E2E2E2E2BEE2BEE2BEE2BEE2BEE2E2BEE2E2E2E2E2E2E2E2E2E2E2E2E2E2E2E2E2E2E2E2E2E2E2E2E2E2E2E2E2E2E2E2E2E2E2E2E2E2E2E2E2E2E2E22DE22DE2E2E2E2E2E2E2E2E2E2E2E2E2E2E2E2E2E2E2E2E2E2E2E2E2E2E2E2E2E2E2E2E2E2E28383E22DE2
310
2D2DE2E2E2E2E2E2E2E2E2E2E2E2E2E2E2E2E2E2E2E2E2E2DCE2DCDCE2DCDCDCDCDCDCDCDCDCDCE2DCDCDCDCDCDCDCDCDCDCDCDCDCE2DCDCE2E2E2DCDCDCDCE2DCDCE2E2E2E2E2E2E2E2E2E2E2E2E2E2E2E2E2E2E2E2E2E2E2E2E2E2E2E2E2E2E2E2E2E2E2E2E2E2BEE2E2E2E2E2E2E2E2E2E2E2E2E2E2E2E2E2E2E2E2E2E2
310
E2E2E2E2E2E2E2E2E2E2E2E2E2E2E2E2E2E2E2E2E2E2E2E2BEE2E2E2E2E2BEE2BEE2BEE2BEE2BEE2E2BEE2E2E2E2E2E2E2E2E2E2E2E2E2E2E2E2E2E2E2E2E2E2E2E2E2E2E2E2E2E2E2E2E2E2E2E2E2E2E2E2E2E2E2E22DE22DE2E2E2E2E2E2E2E2E2E2E2E2E2E2E2E2E2E2E2E2E2E2E2E2E2E2E2E2E2E2E2E2E2E2838383E2
310
2DE22DE2E2E2E2DCDCDCDCDCDCDCDCDCDCDCDCDCDCDCDCDCDCE2DCDCDCDCDCDCDCDCDCDCDCDCDCDCDCE2DCE2DCDCDCDCDCDCDCDCE2DCDCE2DCDCDCDCE2DCDCDCDCE2E2DCDCE2E2E2E2E2E2E2E2E2E2E2E2E2E2E2E2E2E2E2E2E2E2E2E2E2E2E2E2E2E2E2E2E2E2E2E2E2BEE2E2E2E2E2E2E2E2E2E2E2E2E2E2E2E2E2E2E2E2
310
E2E2E2E2E2E2E2E2E2E2E2E2E2E2E2E2E2E2E2E2E2E2E2E2E2E2BEE2E2E2E2E2BEE2BEE2BEE2BEE2BEE2E2BEE2E2E2E2E2E2E2E2E2E2E2E2E2E2E2E2E2E2E2E2E2E2E2E2E2E2E2E2E2E2E2E2E2E2E2E2E2E2E2E2E2E2E2E22DE22DE2E2E2838383838383838383838383838383838383838383838383838383838383838383
310
E2E22DE22D2DE2E2DCE2E2E2E2E2E2E2E2E2E2E2E2E2E2E2E2E2E2E2DCDCDCDCDCDCDCDCDCDCDCDCDCDCE2E2DCE2DCDCDCDCDCDCDCDCE2DCDCE2E2DCDCDCE2DCDCDCE2E2E2DCDCE2E2E2E2E2E2E2E2E2E2E2E2E2E2E2E2E2E2E2E2E2E2E2E2E2E2E2E2E2E2E2E2E2E2E2E2E2BEE2E2E2E2E2E2E2E2E2E2E2E2E2E2E2E2E2E2
310
E2E2E2E2E2E2E2E2E2E2E2E2E2E2E2E2E2E2E2E2E2E2E2E2E2E2E2E2BEE2E2E2E2E2BEE2BEE2BEE2BEE2BEE2E2BEE2E2E2E2E2E2E2E2E2E2E2E2E2E2E2E2E2E2E2E2E2E2E2E2E2E2E2E2E2E2E2E2E2E2E2E2E2E2E2E2E2E2E2E22DE22DE2E28383838383838383838383838383838383838383838383838383838383838383
310
83E2E2E22DE22D2DE2DCE2E2E2E2E2E2E2E2E2E2E2E2E2E2E2E2E2E2E2E2E2E2E2E2E2E2E2E2E2E2E2E2E2E2E2E2E2E2E2E2E2E2E2E2E2E2E2E2E2E2E2E2E2E2E2E2E2E2E2E2E2E2E2E2E2E2E2E2E2E2E2E2E2E2E2E2E2E2E2E2E2E2E2E2E2E2E2E2E2E2E2E2E2E2E2E2E2E2E2E2BEE2E2E2E2E2E2E2E2E2E2E2E2E2E2E2E2
310
E2E2E2E2E2E2E2E2E2E2E2E2E2E2E2E2E2E2E2E2E2E2E2E2E2E2E2E2E2E2BEE2E2E2E2E2BEE2BEE2BEE2BEE2BEE2E2BEE2E2E2E2E2E2E2E2E2E2E2E2E2E2E2E2E2E2E2E2E2E2E2E2E2E2E2E2E2E2E2E2E2E2E2E2E2E2E2E2E2E2E2E22DE22DE2838383E2E2E2E2E2E2E2E2E2E2E2E2E2E2E2E2E2E2E2E2E2E2E2E2E2E2E2E2
310
E2E2E2E2E2E22DE22D2DDCE2E2E2E2E2E2E2E2E2E2E2E2E2E2E2E2E2E2E2E2E2E2E2E2E2E2E2E2E2E2E2E2E2E2E2E2E2E2E2E2E2E2E2E2E2E2E2E2E2E2E2E2E2E2E2E2E2E2E2E2E2E2E2E2E2E2E2E2E2E2E2E2E2E2E2E2E2E2E2E2E2E2E2E2E2E2E2E2E2E2E2E2E2E2E2E2E2E2E2E2E2BEE2E2E2E2E2E2E2E2E2E2E2E2E2E2
310
E2E2E2E2E2E2E2E2E2E2E2E2E2E2E2E2E2E2E2E2E2E2E2E2E2E2E2E2E2E2E2E2BEE2E2E2E2E2BEE2BEE2BEE2BEE2BEE2E2BEE2E2E2E2E2E2E2E2E2E2E2E2E2E2E2E2E2E2E2E2E2E2E2E2E2E2E2E2E2E2E2E2E2E2E2E2E2E2E2E2E2E2E2E22DE22DE28383E2E2E2E2E2E2E2E2E2E2E2E2E2E2E2E2E2E2E2E2E2E2E2E2E2E2E2
310
E2E2E2E2E2E2E2DCDCE22D2DDCDCDCE2E2E2E2E2E2E2E2E2E2E2E2E2E2E2E2E2E2E2E2E2E2E2E2E2E2E2E2E2E2E2E2E2E2E2E2E2E2E2E2E2E2E2E2E2E2E2E2E2E2E2E2E2E2E2E2E2E2E2E2E2E2E2E2E2E2E2E2E2E2E2E2E2E2E2E2E2E2E2E2E2E2E2E2E2E2E2E2E2E2E2E2E2E2E2E2E2E2E2BEE2E2E2E2E2E2E2E2E2E2E2E2
310
E2E2E2E2E2E2E2E2E2E2E2E2E2E2E2E2E2E2E2E2E2E2E2E2E2E2E2E2E2E2E2E2E2E2BEE2E2E2E2E2BEE2BEE2BEE2BEE2BEE2E2BEE2E2E2E2E2E2E2E2E2E2E2E2E2E2E2E2E2E2E2E2E2E2E2E2E2E2E2E2E2E2E2E2E2E2E2E2E2E2E2E2E2E2E2E22DE22DE28383E2E2E2E2E2E2E2E2E2E2E2E2E2E2E2E2E2E2E2E2E2E2E2E2E2
310
E2E2E2E2DCDCDCDCDCDCDCDCDCDCDCDCDCDCDCDCDCDCE2E2E2E2E2E2E2E2E2E2E2E2E2E2E2E2E2E2E2E2E2E2E2E2E2E2E2E2E2E2E2E2E2E2E2E2E2E2E2E2E2E2E2E2E2E2E2E2E2E2E2E2E2E2E2E2E2E2E2E2E2E2E2E2E2E2E2E2E2E2E2E2E2E2E2E2E2E2E2E2E2E2E2E2E2E2E2E2E2E2E2E2E2E2BEE2E2E2E2E2E2E2E2E2E2
310
E2E2E2E2E2E2E2E2E2E2E2E2E2E2E2E2E2E2E2E2E2E2E2E2E2E2E2E2E2E2E2E2E2E2E2E2BEE2E2E2E2E2BEE2BEE2BEE2BEE2BEE2E2BEE2E2E2E2E2E2E2E2E2E2E2E2E2E2E2E2E2E2E2E2E2E2E2E2E2E2E2E2E2E2E2E2E2E2E2E2E2E2E2E2E2E2E2E22DE22DE2838383E2E2E2E2E2E2E2E2E2E2E2E2E2E2E2E2E2E2E2E2E2E2
310
E2E2E2E2E2E2E2E2E2E2E2E22DE22D2DE2E2E2E2E2E2E2E2E2E2E2E2E2E2E2E2E2E2E2E2E2E2E2E2E2E2E2E2E2E2E2E2E2E2E2E2E2E2E2E2E2E2E2E2E2E2E2E2E2E2E2E2E2E2E2E2E2E2E2E2E2E2E2E2E2E2E2E2E2E2E2E2E2E2E2E2E2E2E2E2E2E2E2E2E2E2E2E2E2E2E2E2E2E2E2E2E2E2E2E2E2E2BEE2E2E2E2E2E2E2E2
310
E2E2E2E2E2E2E2E2E2E2E2E2E2E2E2E2E2E2E2E2E2E2E2E2E2E2E2E2E2E2E2E2E2E2E2E2E2E2BEE2E2E2E2E2BEE2BEE2BEE2BEE2BEE2E2BEE2E2E2E2E2E2E2E2E2E2E2E2E2E2E2E2E2E2E2E2E2E2E2E2E2E2E2E2E2E2E2E2E2E2E2E2E2E2E2E2E2E2E2E22DE22DE2E283838383838383838383838383838383838383838383
310
8383838383838383838383E2E2E22DE22DE2E2E2E2E2E2E2E2E2E2E2E2E2E2E2E2E2E2E2E2E2E2E2E2E2E2E2E2E2E2E2E2E2E2E2E2E2E2E2E2E2E2E2E2E2E2E2E2E2E2E2E2E2E2E2E2E2E2E2E2E2E2E2E2E2E2E2E2E2E2E2E2E2E2E2E2E2E2E2E2E2E2E2E2E2E2E2E2E2E2E2E2E2E2E2E2E2E2E2E2E2E2E2BEE2E2E2E2E2E2
310
E2E2E2E2E2E2E2E2E2E2E2E2E2E2E2E2E2E2E2E2E2E2E2E2E2E2E2E2E2E2E2E2E2E2E2E2E2E2E2E2BEE2E2E2E2E2BEE2BEE2BEE2BEE2BEE2E2BEE2E2E2E2E2E2E2E2E2E2E2E2E2E2E2E2E2E2E2E2E2E2E2E2E2E2E2E2E2E2E2E2E2E2E2E2E2E2E2E2E2E2E2E22DE22DE2E2E2E2838383838383838383838383838383838383
310
8383838383838383838383838383E2E22DE22DE2E2E2E2E2E2E2E2E2E2E2E2E2E2E2E2E2E2E2E2E2E2E2E2E2E2E2E2E2E2E2E2E2E2E2E2E2E2E2E2E2E2E2E2E2E2E2E2E2E2E2E2E2E2E2E2E2E2E2E2E2E2E2E2E2E2E2E2E2E2E2E2E2E2E2E2E2E2E2E2E2E2E2E2E2E2E2E2E2E2E2E2E2E2E2E2E2E2E2E2E2E2E2BEE2E2E2E2
310
E2E2E2E2E2E2E2E2E2E2E2E2E2E2E2E2E2E2E2E2E2E2E2E2E2E2E2E2E2E2E2E2E2E2E2E2E2E2E2E2E2E2BEE2E2E2E2E2BEE2BEE2BEE2BEE2BEE2E2BEE2E2E2E2E2E2E2E2E2E2E2E2E2E2E2E2E2E2E2E2E2E2E2E2E2E2E2E2E2E2E2E2E2E2E2E2E2E2E2E2E2E2E2E22DE22DE2E2E2E2E2E2E2E2E2E2E2E2E2E2E2E2E2E2E2E2
310
E2E2E2E2E2E2E2E2E2E2E2E2E2E2838383E22DE22D2DE2E2E2E2E2E2E2E2E2E2E2E2E2E2E2E2E2E2E2E2E2E2E2E2E2E2E2E2E2E2E2E2DCDCDCE2E2E2E2E2E2E2E2E2E2E2E2E2E2E2E2E2E2E2E2E2E2E2E2E2E2E2E2E2E2E2E2E2E2E2E2E2E2E2E2E2E2E2E2E2E2E2E2E2E2E2E2E2E2E2E2E2E2E2E2E2E2E2E2E2E2E2BEE2E2
310
E2E2E2E2E2E2E2E2E2E2E2E2E2E2E2E2E2E2E2E2E2E2E2E2E2E2E2E2E2E2E2E2E2E2E2E2E2E2E2E2E2E2E2E2BEE2E2E2E2E2BEE2BEE2BEE2BEE2BEE2E2BEE2E2E2E2E2E2E2E2E2E2E2E2E2E2E2E2E2E2E2E2E2E2E2E2E2E2E2E2E2E2E2E2E2E2E2E2E2E2E2E2E2E2E2E22DE22DE2E2E2E2E2E2E2E2E2E2E2E2E2E2E2E2E2E2
310
E2E2E2E2E2E2E2E2E2E2E2E2E2E2E2E2E28383E22DE22D2DE2E2E2E2E2E2E2E2E2E2E2E2E2E2E2E2E2E2E2E2E2E2E2DCDCDCDCDCDCDCDCDCDCDCDCE2DCDCDCDCE2E2DCDCDCDCDCDCDCDCDCDCDCE2DCDCDCDCDCE2DCDCDCE2DCDCE2E2E2E2E2E2E2E2E2E2E2E2E2E2E2E2E2E2E2E2E2E2E2E2E2E2E2E2E2E2E2E2E2E2E2E2BE
310
E2E2E2E2E2E2E2E2E2E2E2E2E2E2E2E2E2E2E2E2E2E2E2E2E2E2E2E2E2E2E2E2E2E2E2E2E2E2E2E2E2E2E2E2E2E2BEE2E2E2E2E2BEE2BEE2BEE2BEE2BEE2E2BEE2E2E2E2E2E2E2E2E2E2E2E2E2E2E2E2E2E2E2E2E2E2E2E2E2E2E2E2E2E2E2E2E2E2E2E2E2E2E2E2E2E2E2E22DE22DE2E2E2E2E2E2E2E2E2E2E2E2E2E2E2E2
310
E2E2E2E2E2E2E2E2E2E2E2E2DCDCDCDCDCDCDCDCDCDCDCDCDCDCDCDCDCDCDCDCDCDCDCDCDCDCDCDCDCDCDCDCDCDCDCE2E2DCDCDCDCDCDCDCDCDCDCDCDCE2DCDCE2DCE2E2DCDCDCDCDCDCDCDCDCDCE2E2DCDCDCDCDCDCDCE2DCDCDCDCE2E2E2E2E2E2E2E2E2E2E2E2E2E2E2E2E2E2E2E2E2E2E2E2E2E2E2E2E2E2E2E2E2E2E2
310
E2BEE2E2E2E2E2E2E2E2E2E2E2E2E2E2E2E2E2E2E2E2E2E2E2E2E2E2E2E2E2E2E2E2E2E2E2E2E2E2E2E2E2E2E2E2E2E2BEE2E2E2E2E2BEE2BEE2BEE2BEE2BEE2E2BEE2E2E2E2E2E2E2E2E2E2E2E2E2E2E2E2E2E2E2E2E2E2E2E2E2E2E2E2E2E2E2E2E2E2E2E2E2E2E2E2E2E2E2E22D83838383838383838383838383838383
310
8383838383838383838383838383DC83838383838383E2E22DE22D2DE2E2E2E2E2E2E2E2E2E2E2E2E2E2E2E2E2E2E2E2E2E2DCDCE2E2E2DCDCDCE2E2E2E2E2E2DCDCDCDCE2E2DCDCDCDCDCDCDCDCDCDCE2E2DCDCDCDCDCDCDCE2DCE2DCDCE2E2E2E2E2E2E2E2E2E2E2E2E2E2E2E2E2E2E2E2E2E2E2E2E2E2E2E2E2E2E2E2E2
310
E2E2E2BEE2E2E2E2E2E2E2E2E2E2E2E2E2E2E2E2E2E2E2E2E2E2E2E2E2E2E2E2E2E2E2E2E2E2E2E2E2E2E2E2E2E2E2E2E2E2BEE2E2E2E2E2BEE2BEE2BEE2BEE2BEE2E2BEE2E2E2E2E2E2E2E2E2E2E2E2E2E2E2E2E2E2E2E2E2E2E2E2E2E2E2E2E2E2E2E2E2E2E2E2E2E2E2E2E2E2E2E22D8383838383838383838383838383
310
838383838383838383838383838383DC83838383838383E2E2E22DE22D2DE2E2E2E2E2E2E2E2E2E2E2E2E2E2E2E2E2E2E2E2E2E2E2E2E2E2E2E2E2E2E2E2E2E2E2E2E2E2E2E2E2E2E2E2E2E2E2E2E2E2E2E2E2E2E2E2E2E2E2E2E2E2E2E2E2E2E2E2E2E2E2E2E2E2E2E2E2E2E2E2E2E2E2E2E2E2E2E2E2E2E2E2E2E2E2E2E2
310
E2E2E2E2E2BEE2E2E2E2E2E2E2E2E2E2E2E2E2E2E2E2E2E2E2E2E2E2E2E2E2E2E2E2E2E2E2E2E2E2E2E2E2E2E2E2E2E2E2E2E2E2BEE2E2E2E2E2BEE2BEE2BEE2BEE2BEE2E2BEE2E2E2E2E2E2E2E2E2E2E2E2E2E2E2E2E2E2E2E2E2E2E2E2E2E2E2E2E2E2E2E2E2E2E2E2E2E2E2E2E2E2E2E22DE22DE2E2E2E2E2E2E2E2E2E2
310
E2E2E2E2E2E2E2E2E2E2E2E2E2E2E2E2E2DCE2E2E2E2E2E2E2E2E2E22DE22D2DE2E2E2E2E2E2E2E2E2E2E2E2E2E2E2E2E2E2E2E2E2E2E2E2E2E2E2E2E2E2E2E2E2E2E2E2E2E2E2E2E2E2E2E2E2E2E2E2E2E2E2E2E2E2E2E2E2E2E2E2E2E2E2E2E2E2E2E2E2E2E2E2E2E2E2E2E2E2E2E2E2E2E2E2E2E2E2E2E2E2E2E2E2E2E2
310
E2E2E2E2E2E2E2BEE2E2E2E2E2E2E2E2E2E2E2E2E2E2E2E2E2E2E2E2E2E2E2E2E2E2E2E2E2E2E2E2E2E2E2E2E2E2E2E2E2E2E2E2E2E2BEE2E2E2E2E2BEE2BEE2BEE2BEE2BEE2E2BEE2E2E2E2E2E2E2E2E2E2E2E2E2E2E2E2E2E2E2E2E2E2E2E2E2E2E2E2E2E2E2E2E2E2E2E2E2E2E2E2E2E2E2E22DE22DE2E2E2E2E2E2E2E2
310
E2E2E2E2E2E2E2E2E2E2E2E2E2E2E2E2E2E2DCE2E2E2E2E2E2E2E2E2E2E22DE22DE2E2E2E2E2E2E2E2E2E2E2E2E2E2E2E2E2E2E2E2E2E2E2E2E2E2E2E2E2E2E2E2E2E2E2E2E2E2E2E2E2E2E2E2E2E2E2E2E2E2E2E2E2E2E2E2E2E2E2E2E2E2E2E2E2E2E2E2E2E2E2E2E2E2E2E2E2E2E2E2E2E2E2E2E2E2E2E2E2E2E2E2E2E2
310
E2E2E2E2E2E2E2E2E2BEE2E2E2E2E2E2E2E2E2E2E2E2E2E2E2E2E2E2E2E2E2E2E2E2E2E2E2E2E2E2E2E2E2E2E2E2E2E2E2E2E2E2E2E2E2E2BEE2E2E2E2E2BEE2BEE2BEE2BEE2BEE2E2BEE2E2E2E2E2E2E2E2E2E2E2E2E2E2E2E2E2E2E2E2E2E2E2E2E2E2E2E2E2E2E2E2E2E2E2E2E2E2E2E2E2E2E2E22DE22DE2E2E2E2E2E2
310
E2E2E2E2E2E2E2E2E2E2E2E2E2E2E2E2E2E2E2E2DCE2E2E2E2E2E2E2E2E2E2E22DE22D2DE2E2E2E2E2E2E2E2E2E2E2E2E2E2E2E2E2E2E2E2E2E2E2E2E2E2E2E2E2E2E2E2E2E2E2E2E2E2E2E2E2E2E2E2E2E2E2E2E2E2E2E2E2E2E2E2E2E2E2E2E2E2E2E2E2E2E2E2E2E2E2E2E2E2E2E2E2E2E2E2E2E2E2E2E2E2E2E2E2E2E2
310
E2E2E2E2E2E2E2E2E2E2E2BEE2E2E2E2E2E2E2E2E2E2E2E2E2E2E2E2E2E2E2E2E2E2E2E2E2E2E2E2E2E2E2E2E2E2E2E2E2E2E2E2E2E2E2E2E2E2BEE2E2E2E2E2BEE2BEE2BEE2BEE2BEE2E2BEE2E2E2E2E2E2E2E2E2E2E2E2E2E2E2E2E2E2E2E2E2E2E2E2E2E2E2E2E2E2E2E2E2E2E2E2E2E2E2E2E2E2E2E22DE22DE2E2E2E2
310
E2E2E2E2E2E2E2E2E2E2E2E2E2E2E2E2E2E2E2E2DCDCE2E2E2E2E2E2E2E2E2E2E2E22DE22D2DE2E2E2E2E2E2E2E2E2E2E2E2E2E2E2E2E2E2E2E2E2E2E2E2E2E2E2E2E2E2E2E2E2E2E2E2E2E2E2E2E2E2E2E2E2E2E2E2E2E2E2E2E2E2E2E2E2E2E2E2E2E2E2E2E2E2E2E2E2E2E2E2E2E2E2E2E2E2E2E2E2E2E2E2E2E2E2E2E2
310
E2E2E2E2E2E2E2E2E2E2E2E2E2BEE2E2E2E2E2E2E2E2E2E2E2E2E2E2E2E2E2E2E2E2E2E2E2E2E2E2E2E2E2E2E2E2E2E2E2E2E2E2E2E2E2E2E2E2E2E2BEE2E2E2E2E2BEE2BEE2BEE2BEE2BEE2E2BEE2E2E2E2E2E2E2E2E2E2E2E2E2E2E2E2E2E2E2E2E2E2E2E2E2E2E2E2E2E2E2E2E2E2E2E2E2E2E2E2E2E2E2E22DE22DE2E2
310
E2E2E2E2E2E2E2E2E2E2E2E2E2E2E2E2E2E2E2E2E2E2DCE2E2E2E2E2E2E2E2E2E2E2E2E22DE22D2DE2E2E2E2E2E2E2E2E2E2E2E2E2E2E2E2E2E2E2E2E2E2E2E2E2E2E2E2E2E2E2E2E2E2E2E2E2E2E2E2E2E2E2E2E2E2E2E2E2E2E2E2E2E2E2E2E2E2E2E2E2E2E2E2E2E2E2E2E2E2E2E2E2E2E2E2E2E2E2E2E2E2E2E2E2E2E2
310
E2E2E2E2E2E2E2E2E2E2E2E2E2E2E2BEE2E2E2E2E2E2E2E2E2E2E2E2E2E2E2E2E2E2E2E2E2E2E2E2E2E2E2E2E2E2E2E2E2E2E2E2E2E2E2E2E2E2E2E2E2E2BEE2E2E2E2E2BEE2BEE2BEE2BEE2BEE2E2BEE2E2E2E2E2E2E2E2E2E2E2E2E2E2E2E2E2E2E2E2E2E2E2E2E2E2E2E2E2E2E2E2E2E2E2E2E2E2E2E2E2E2E2E22DE22D
310
E2E2E28383838383838383838383838383838383838383DC83838383838383838383838383838383832DE2E2E2E2E2E2E2E2E2E2E2E2E2E2E2E2E2E2E2E2E2E2E2E2E2E2E2E2E2E2E2E2E2E2E2E2E2E2E2E2E2E2E2E2E2E2E2E2E2E2E2E2E2E2E2E2E2E2E2E2E2E2E2E2E2E2E2E2E2E2E2E2E2E2E2E2E2E2E2E2E2E2E2E2E2
310
E2E2E2E2E2E2E2E2E2E2E2E2E2E2E2E2E2BEE2E2E2E2E2E2E2E2E2E2E2E2E2E2E2E2E2E2E2E2E2E2E2E2E2E2E2E2E2E2E2E2E2E2E2E2E2E2E2E2E2E2E2E2E2E2BEE2E2E2E2E2BEE2BEE2BEE2BEE2BEE2E2BEE2E2E2E2E2E2E2E2E2E2E2E2E2E2E2E2E2E2E2E2E2E2E2E2E2E2E2E2E2E2E2E2E2E2E2E2E2E2E2E2E2E2E2E22D
310
DC2DE2838383838383838383838383838383838383838383838383838383838383838383838383838383832DE2E2E2E2E2E2E2E2E2E2E2E2E2E2E2E2E2E2E2E2E2E2E2E2E2E2E2E2E2E2E2E2E2E2E2E2E2E2E2E2E2E2E2E2E2E2E2E2E2E2E2E2E2E2E2E2E2E2E2E2E2E2E2E2E2E2E2E2E2E2E2E2E2E2E2E2E2E2E2E2E2E2E2
310
E2E2E2E2E2E2E2E2E2E2E2E2E2E2E2E2E2E2E2BEE2E2E2E2E2E2E2E2E2E2E2E2E2E2E2E2E2E2E2E2E2E2E2E2E2E2E2E2E2E2E2E2E2E2E2E2E2E2E2E2E2E2E2E2E2E2BEE2E2E2E2E2BEE2BEE2BEE2BEE2BEE2E2BEE2E2E2E2E2E2E2E2E2E2E2E2E2E2E2E2E2E2E2E2E2E2E2E2E2E2E2E2E2E2E2E2E2E2E2E2E2E2E2E2E2E2E2
310
E22DDCDCE28383E2E2E2E2E2E2E2E2E2E2E2E2E2E2E2E2E2E2E2E2E2E2E2E2E2E2E2E2E2E2E2E2E2E2E2DCDCDC2DE2E2E2E2E2E2E2E2E2E2E2E2E2E2E2E2E2E2E2E2E2E2E2E2E2E2E2E2E2E2E2E2E2E2E2E2E2E2E2E2E2E2E2E2E2E2E2E2E2E2E2E2E2E2E2E2E2E2E2E2E2E2E2E2E2E2E2E2E2E2E2E2E2E2E2E2E2E2E2E2E2
310
E2E2E2E2E2E2E2E2E2E2E2E2E2E2E2E2E2E2E2E2E2BEE2E2E2E2E2E2E2E2E2E2E2E2E2E2E2E2E2E2E2E2E2E2E2E2E2E2E2E2E2E2E2E2E2E2E2E2E2E2E2E2E2E2E2E2E2E2BEE2E2E2E2E2BEE2BEE2BEE2BEE2BEE2E2BEE2E2E2E2E2E2E2E2E2E2E2E2E2E2E2E2E2E2E2E2E2E2E2E2E2E2E2E2E2E2E2E2E2E2E2E2E2E2E2E2E2
310
E2E2E2DCDCDCE28383E2E2E2E2E2E2E2E2E2E2E2E2E2E2E2E2E2E2E2E2E2E2E2E2E2E2E2E2E2E2E2E2E2E2E2DCDCDCE2E2E2E2E2E2E2E2E2E2E2E2E2E2E2E2E2E2E2E2E2E2E2E2E2E2E2E2E2E2E2E2E2E2E2E2E2E2E2E2E2E2E2E2E2E2E2E2E2E2E2E2E2E2E2E2E2E2E2E2E2E2E2E2E2E2E2E2E2E2E2E2E2E2E2E2E2E2E2E2
310
E2E2E2E2E2E2E2E2E2E2E2E2E2E2E2E2E2E2E2E2E2E2E2BEE2E2E2E2E2E2E2E2E2E2E2E2E2E2E2E2E2E2E2E2E2E2E2E2E2E2E2E2E2E2E2E2E2E2E2E2E2E2E2E2E2E2E2E2E2E2BEE2E2E2E2E2BEE2BEE2BEE2BEE2BEE2E2BEE2E2E2E2E2E2E2E2E2E2E2E2E2E2E2E2E2E2E2E2E2E2E2E2E2E2E2E2E2E2E2E2E2E2E2E2E2E2E2
310
E2E2E2E2E2DCDCDCE28383E2E2E2E2E2E2E2E2E2E2E2E2E2E2E2E2E2E2E2E2E2E2E2E2E2E2E2E2E2E2E2E2E2E2E2DCDCDCE2E2E2E2E2E2E2E2E2E2E2E2E2E2E2E2E2E2E2E2E2E2E2E2E2E2E2E2E2E2E2E2E2E2E2E2E2E2E2E2E2E2E2E2E2E2E2E2E2E2E2E2E2E2E2E2E2E2E2E2E2E2E2E2E2E2E2E2E2E2E2E2E2E2E2E2E2E2
310
E2E2E2E2E2E2E2E2E2E2E2E2E2E2E2E2E2E2E2E2E2E2E2E2E2BEE2E2E2E2E2E2E2E2E2E2E2E2E2E2E2E2E2E2E2E2E2E2E2E2E2E2E2E2E2E2E2E2E2E2E2E2E2E2E2E2E2E2E2E2E2E2BEE2E2E2E2E2BEE2BEE2BEE2BEE2BEE2E2BEE2E2E2E2E2E2E2E2E2E2E2E2E2E2E2E2E2E2E2E2E2E2E2E2E2E2E2E2E2E2E2E2E2E2E2E2E2
310
E2E2E2E2E2E2E22DDC2DE2838383E2E2E2E2E2E2E2E2E2E2E2E2E2E2E2E2E2E2E2E2E2E2E2E2E2E2E2E2E2E2E2E2E2E22DDC2D2DE2E2E2E2E2E2E2E2E2E2E2E2E2E2E2E2E2E2E2E2E2E2E2E2E2E2E2E2E2E2E2E2E2E2E2E2E2E2E2E2E2E2E2E2E2E2E2E2E2E2E2E2E2E2E2E2E2E2E2E2E2E2E2E2E2E2E2E2E2E2E2E2E2E2E2
310
E2E2E2E2E2E2E2E2E2E2E2E2E2E2E2E2E2E2E2E2E2E2E2E2E2E2E2BEE2E2E2E2E2E2E2E2E2E2E2E2E2E2E2E2E2E2E2E2E2E2E2E2E2E2E2E2E2E2E2E2E2E2E2E2E2E2E2E2E2E2E2E2E2E2BEE2E2E2E2E2BEE2BEE2BEE2BEE2BEE2E2BEE2E2E2E2E2E2E2E2E2E2E2E2E2E2E2E2E2E2E2E2E2E2E2E2E2E2E2E2E2E2E2E2E2E2E2
310
E2E2E2E2E2E2E2E2E22DE22DE2E2838383838383838383838383838383838383838383838383838383838383838383E2E2E22DE22D2DE2E2E2E2E2E2E2E2E2E2E2E2E2E2E2E2E2E2E2E2E2E2E2E2E2E2E2E2E2E2E2E2E2E2E2E2E2E2E2E2E2E2E2E2E2E2E2E2E2E2E2E2E2E2E2E2E2E2E2E2E2E2E2E2E2E2E2E2E2E2E2E2E2
310
E2E2E2E2E2E2E2E2E2E2E2E2E2E2E2E2E2E2E2E2E2E2E2E2E2E2E2E2E2BEE2E2E2E2E2E2E2E2E2E2E2E2E2E2E2E2E2E2E2E2E2E2E2E2E2E2E2E2E2E2E2E2E2E2E2E2E2E2E2E2E2E2E2E2E2E2BEE2E2E2E2E2BEE2BEE2BEE2BEE2BEE2E2BEE2E2E2E2E2E2E2E2E2E2E2E2E2E2E2E2E2E2E2E2E2E2E2E2E2E2E2E2E2E2E2E2E2
310
E2E2E2E2E2E2E2E2E2E2E22DE22DE2E2E2E28383838383838383838383838383838383838383838383838383838383838383E2E22DE22DDCDCE2E2E2E2E2E2E2E2E2E2E2E2E2E2E2E2E2E2E2E2E2E2E2E2E2E2E2E2E2E2E2E2E2E2E2E2E2E2E2E2E2E2E2E2E2E2E2E2E2E2E2E2E2E2E2E2E2E2E2E2E2E2E2E2E2E2E2E2E2E2
310
E2E2E2E2E2E2E2E2E2E2E2E2E2E2E2E2E2E2E2E2E2E2E2E2E2E2E2E2E2E2E2BEE2E2E2E2E2E2E2E2E2E2E2E2E2E2E2E2E2E2E2E2E2E2E2E2E2E2E2E2E2E2E2E2E2E2E2E2E2E2E2E2E2E2E2E2E2E2BEE2E2E2E2E2BEE2BEE2BEE2BEE2BEE2E2BEE2E2E2E2E2E2E2E2E2E2E2E2E2E2E2E2E2E2E2E2E2E2E2E2E2E2E2E2E2E2E2
310
E2E2E2E2E2E2E2E2E2E2E2E2E22DE22DE2E2E2E2E2E2E2E2E2E2E2E2E2E2E2E2E2E2E2E2E2E2E2E2E2E2E2E2E2E2E2E2E2E2838383E22DE22D2DDCDCDCE2E2E2E2E2E2E2E2E2E2E2E2E2E2E2E2E2E2E2E2E2E2E2E2E2E2E2E2E2E2E2E2E2E2E2E2E2E2E2E2E2E2E2E2E2E2E2E2E2E2E2E2E2E2E2E2E2E2E2E2E2E2E2E2E2E2
310
E2E2E2E2E2E2E2E2E2E2E2E2E2E2E2E2E2E2E2E2E2E2E2E2E2E2E2E2E2E2E2E2E2BEE2E2E2E2E2E2E2E2E2E2E2E2E2E2E2E2E2E2E2E2E2E2E2E2E2E2E2E2E2E2E2E2E2E2E2E2E2E2E2E2E2E2E2E2E2E2BEE2E2E2E2E2BEE2BEE2BEE2BEE2BEE2E2BEE2E2E2E2E2E2E2E2E2E2E2E2E2E2E2E2E2E2E2E2E2E2E2E2E2E2E2E2E2
310
E2E2E2E2E2E2E2E2E2E2E2E2E2E2E22DE22DE2E2E2E2E2E2E2E2E2E2E2E2E2E2E2E2E2E2E2E2E2E2E2E2E2E2E2E2E2E2E2E2E2E2E28383E22DE22D2DE2DCE2DCDCDCE2E2E2E2E2E2E2E2E2E2E2E2E2E2E2E2E2E2E2E2E2E2E2E2E2E2E2E2E2E2E2E2E2E2E2E2E2E2E2E2E2E2E2E2E2E2E2E2E2E2E2E2E2E2E2E2E2E2E2E2E2
310
E2E2E2E2E2E2E2E2E2E2E2E2E2E2E2E2E2E2E2E2E2E2E2E2E2E2E2E2E2E2E2E2E2E2E2BEE2E2E2E2E2E2E2E2E2E2E2E2E2E2E2E2E2E2E2E2E2E2E2E2E2E2E2E2E2E2E2E2E2E2E2E2E2E2E2E2E2E2E2E2E2E2BEE2E2E2E2E2BEE2BEE2BEE2BEE2BEE2E2BEE2E2E2E2E2E2E2E2E2E2E2E2E2E2E2E2E2E2E2E2E2E2E2E2E2E2E2
310
E2E2E2E2E2E2E2E2E2E2E2E2E2E2E2E2E22DE22DE2E2E2E2E2E2E2E2E2E2E2E2E2E2E2E2E2E2E2E2E2E2E2E2E2E2E2E2E2E2E2E2E2E2E28383E22DE22DE2E2E2E2E2E2E2DCDCE2E2E2E2E2E2E2E2E2E2E2E2E2E2E2E2E2E2E2E2E2E2E2E2E2E2E2E2E2E2E2E2E2E2E2E2E2E2E2E2E2E2E2E2E2E2E2E2E2E2E2E2E2E2E2E2E2
310
E2E2E2E2E2E2E2E2E2E2E2E2E2E2E2E2E2E2E2E2E2E2E2E2E2E2E2E2E2E2E2E2E2E2E2E2E2BEE2E2E2E2E2E2E2E2E2E2E2E2E2E2E2E2E2E2E2E2E2E2E2E2E2E2E2E2E2E2E2E2E2E2E2E2E2E2E2E2E2E2E2E2E2E2BEE2E2E2E2E2BEE2BEE2BEE2BEE2BEE2E2BEE2E2E2E2E2E2E2E2E2E2E2E2E2E2E2E2E2E2E2E2E2E2E2E2E2
310
E2E2E2E2E2E2E2E2E2E2DCE2E2E2E2E2E2E2E22DE2DCDCDCE2E28383838383838383838383838383838383838383838383838383838383838383E2E22DE22DE2E2E2E2E2E2E2E2E2DCDCDCE2E2E2E2E2E2E2E2E2E2E2E2E2E2E2E2E2E2E2E2E2E2E2E2E2E2E2E2E2E2E2E2E2E2E2E2E2E2E2E2E2E2E2E2E2E2E2E2E2E2E2E2
310
E2E2E2E2E2E2E2E2E2E2E2E2E2E2E2E2E2E2E2E2E2E2E2E2E2E2E2E2E2E2E2E2E2E2E2E2E2E2E2BEE2E2E2E2E2E2E2E2E2E2E2E2E2E2E2E2E2E2E2E2E2E2E2E2E2E2E2E2E2E2E2E2E2E2E2E2E2E2E2E2E2E2E2E2E2E2BEE2E2E2E2E2BEE2BEE2BEE2BEE2BEE2E2BEE2E2E2E2E2E2E2E2E2E2E2E2E2E2E2E2E2E2E2E2E2E2E2
310
E2E2E2E2E2E2E2E2E2E2E2E2DCE2E2E2E2E2E2E2E22DE22DDCDCDCDCDC838383838383838383838383838383838383838383838383838383838383E2E2E22DE22D2DE2E2E2E2E2E2E2E2E2E2E2DCDCDCE2E2E2E2E2E2E2E2DCDCDCDCDCDCDCE2E2DCDCDCDCDCDCDCDCDCDCDCDCDCDCE2E2E2E2E2E2E2E2E2E2E2E2E2E2E2E2
310
E2E2E2E2E2E2E2E2E2E2E2E2E2E2E2E2E2E2E2E2E2E2E2E2E2E2E2E2E2E2E2E2E2E2E2E2E2E2E2E2E2BEE2E2E2E2E2E2E2E2E2E2E2E2E2E2E2E2E2E2E2E2E2E2E2E2E2E2E2E2E2E2E2E2E2E2E2E2E2E2E2E2E2E2E2E2E2E2BEE2E2E2E2E2BEE2BEE2BEE2BEE2BEE2E2BEE2E2E2E2E2E2E2E2E2E2E2E2E2E2E2E2E2E2E2E2E2
310
E2E2E2E2E2E2E2E2E2E2E2E2E2E2DCDCE2E2E2E2E2E2E22DE22DE2838383E2DCDCDCDCDCDCDCE2E2E2E2E2E2E2E2E2E2E2E2E2E2E2E2E2E2E2E2E2E2E2E2E2E22DE22D2DE2E2E2E2E2E2E2E2E2E2E2E2E2E2DCDCDCDCDCDCDCE2DCDCDCDCDCDCDCE2E2DCDCDCDCDCDCDCDCDCE2DCDCDCDCE2E2E2E2E2E2E2E2E2E2E2E2E2E2
310
E2E2E2E2E2E2E2E2E2E2E2E2E2E2E2E2E2E2E2E2E2E2E2E2E2E2E2E2E2E2E2E2E2E2E2E2E2E2E2E2E2E2E2BEE2E2E2E2E2E2E2E2E2E2E2E2E2E2E2E2E2E2E2E2E2E2E2E2E2E2E2E2E2E2E2E2E2E2E2E2E2E2E2E2E2E2E2E2E2E2BEE2E2E2E2E2BEE2BEE2BEE2BEE2BEE2E2BEE2E2E2E2E2E2E2E2E2E2E2E2E2E2E2E2E2E2E2
310
E2E2E2E2E2E2E2E2E2E2E2E2E2E2E2E2DCDCE2E2E2E2E2E2E22DE22DE28383E2E2E2E2E2E2E2E2E2DCDCDCDCDCDCDCDCE2E2E2E2E2E2E2E2E2E2E2E2E2E2E2E2E2E22DE22D2DE2E2E2E2E2E2E2E2E2E2E2E2E2E2E2E2E2E2E2E2E2E2E2DCDCDCDCDCDCE2E2DCDCDCDCDCDCDCDCDCDCDCDCDCDCE2E2E2E2E2E2E2E2E2E2E2E2
310
E2E2E2E2E2E2E2E2E2E2E2E2E2E2E2E2E2E2E2E2E2E2E2E2E2E2E2E2E2E2E2E2E2E2E2E2E2E2E2E2E2E2E2E2E2BEE2E2E2E2E2E2E2E2E2E2E2E2E2E2E2E2E2E2E2E2E2E2E2E2E2E2E2E2E2E2E2E2E2E2E2E2E2E2E2E2E2E2E2E2E2E2BEE2E2E2E2E2BEE2BEE2BEE2BEE2BEE2E2BEE2E2E2E2E2E2E2E2E2E2E2E2E2E2E2E2E2
310
E2E2E2E2E2E2E2E2E2E2E2E2E2E2E2E2E2E2DCE2E2E2E2E2E2E2E22DE22DE28383E2E2E2E2E2E2E2E2E2E2E2E2E2E2E2E2E2DCDCDCDCDCDCDCE2E2E2E2E2E2E2E2E2E2E22DE22D2DE2E2E2E2E2E2E2E2E2E2E2E2E2E2E2E2E2E2E2E2E2E2E2E2E2E2E2E2E2E2E2E2E2E2E2E2E2E2E2E2E2E2E2E2E2E2E2E2E2E2E2E2E2E2E2
310
E2E2E2E2E2E2E2E2E2E2E2E2E2E2E2E2E2E2E2E2E2E2E2E2E2E2E2E2E2E2E2E2E2E2E2E2E2E2E2E2E2E2E2E2E2E2E2BEE2E2E2E2E2E2E2E2E2E2E2E2E2E2E2E2E2E2E2E2E2E2E2E2E2E2E2E2E2E2E2E2E2E2E2E2E2E2E2E2E2E2E2E2E2E2BEE2E2E2E2E2BEE2BEE2BEE2BEE2BEE2E2BEE2E2E2E2E2E2E2E2E2E2E2E2E2E2E2
310
E2E2E2E2E2E2E2E2E2E2E2E2E2E2E2E2E2E2E2E2DCE2E2E2E2E2E2E2E22DE22DE28383E2E2E2E2E2E2E2E2E2E2E2E2E2E2E2E2E2E2E2E2E2E2E2E2DCDCDCDCDCDCDCE2E2E2E22DE22D2DE2E2E2E2E2E2E2E2E2E2E2E2E2E2E2E2E2E2E2E2E2E2E2E2E2E2E2E2E2E2E2E2E2E2E2E2E2E2E2E2E2E2E2E2E2E2E2E2E2E2E2E2E2
310
E2E2E2E2E2E2E2E2E2E2E2E2E2E2E2E2E2E2E2E2E2E2E2E2E2E2E2E2E2E2E2E2E2E2E2E2E2E2E2E2E2E2E2E2E2E2E2E2E2BEE2E2E2E2E2E2E2E2E2E2E2E2E2E2E2E2E2E2E2E2E2E2E2E2E2E2E2E2E2E2E2E2E2E2E2E2E2E2E2E2E2E2E2E2E2E2BEE2E2E2E2E2BEE2BEE2BEE2BEE2BEE2E2BEE2E2E2E2E2E2E2E2E2E2E2E2E2
310
E2E2E2E2E2E2E2E2E2E2E2E2E2E2E2E2E2E2E2E2E2E2DCE2E2E2E2E2E2E2E22DE22DE2838383838383838383838383838383838383838383838383838383838383838383DCDCDCDCDCDCDCDCE2E2E2E2E2E2E2E2E2E2E2E2E2E2E2E2E2E2E2E2E2E2E2E2E2E2E2E2E2E2E2E2E2E2E2E2E2E2E2E2E2E2E2E2E2E2E2E2E2E2E2
310
E2E2E2E2E2E2E2E2E2E2E2E2E2E2E2E2E2E2E2E2E2E2E2E2E2E2E2E2E2E2E2E2E2E2E2E2E2E2E2E2E2E2E2E2E2E2E2E2E2E2E2BEE2E2E2E2E2E2E2E2E2E2E2E2E2E2E2E2E2E2E2E2E2E2E2E2E2E2E2E2E2E2E2E2E2E2E2E2E2E2E2E2E2E2E2E2E2E2BEE2E2E2E2E2BEE2BEE2BEE2BEE2BEE2E2BEE2E2E2E2E2E2E2E2E2E2E2
310
E2E2E2E2E2E2E2E2E2E2E2E2E2E2E2E2E2E2E2E2E2E2E2E2DCE2E2E2E2E2E2E2E22DE22DE2E283838383838383838383838383838383838383838383838383838383838383838383E2E22DE22DE2DCDCDCDCDCDCDCE2E2E2E2E2E2E2E2E2E2E2E2E2E2E2DCE2DCE2DCE2E2DCDCDCDCE2DCE2DCDCDCDCDCE2E2DCDCE2DCDCDC
310
DCDCE2DCDCE2E2DCDCDCDCDCDCDCDCDCDCDCE2E2E2E2E2E2E2E2E2E2E2E2E2E2E2E2E2E2E2E2E2E2E2E2E2E2E2E2E2E2E2E2E2E2E2BEE2E2E2E2E2E2E2E2E2E2E2E2E2E2E2E2E2E2E2E2E2E2E2E2E2E2E2E2E2E2E2E2E2E2E2E2E2E2E2E2E2E2E2E2E2E2BEE2E2E2E2E2BEE2BEE2BEE2BEE2BEE2E2BEE2E2E2E2E2E2E2E2E2
310
E2E2E2E2E2E2E2E2E2E2E2E2E2E2E2E2E2E2E2E2E2E2E2E2E2E2DCE2E2E2E2E2E2E2E22DE22DE2E2E2E2E2E2E2E2E2E2E2E2E2E2E2E2E2E2E2E2E2E2E2E2E2E2E2E2E2E2E2E2E2E2838383E22DE22D2DE2E2E2E2E2E2E2DCDCDCDCDCDCDCDCDCDCDCDCDCDCE2DCDCDCDCDCDCE2DCDCDCDCE2DCDCDCDCDCE2DCE2E2DCE2DCDC
310
DCDCDCDCDCDCDCE2E2DCDCDCDCDCDCDCDCDCDCDCE2E2E2E2E2E2E2E2E2E2E2E2E2E2E2E2E2E2E2E2E2E2E2E2E2E2E2E2E2E2E2E2E2E2E2BEE2E2E2E2E2E2E2E2E2E2E2E2E2E2E2E2E2E2E2E2E2E2E2E2E2E2E2E2E2E2E2E2E2E2E2E2E2E2E2E2E2E2E2E2E2E2BEE2E2E2E2E2BEE2BEE2BEE2BEE2BEE2E2BEE2E2E2E2E2E2E2
310
E2E2E2E2E2E2E2E2E2E2E2E2E2E2E2E2E2E2E2E2E2E2E2E2DCE2E2E2E2E2E2E2E2DCE2E2E22DE22DE2E2E2E2E2E2E2E2E2E2E2E2E2E2E2E2E2E2E2E2E2E2E2E2E2E2E2E2E2E2E2E2E2E2E28383E22DE22D2DE2E2E2E2E2E2E2E2E2E2E2E2E2E2E2E2E2E2E2E2E2E2DCDCDCDCDCDCE2DCDCDCDCE2DCDCDCDCDCDCE2DCE2DCDC
310
E2DCDCDCE2DCDCDCDCDCE2DCDCDCDCDCDCDCDCDCDCDCE2E2E2E2E2E2E2E2E2E2E2E2E2E2E2E2E2E2E2E2E2E2E2E2E2E2E2E2E2E2E2E2E2E2E2BEE2E2E2E2E2E2E2E2E2E2E2E2E2E2E2E2E2E2E2E2E2E2E2E2E2E2E2E2E2E2E2E2E2E2E2E2E2E2E2E2E2E2E2E2E2E2BEE2E2E2E2E2BEE2BEE2BEE2BEE2BEE2E2BEE2E2E2E2E2
310
E2E2E2E2E2E2E2E2E2E2E2E2E2E2E2E2E2E2E2E2E2E2E2E2E2E2DCDCDCDCDCE2E2DCE2DCE2E2E22DE22DE2E2E2E2E2E2E2E2E2E2E2E2E2E2E2E2E2E2E2E2E2E2E2E2E2E2E2E2E2E2E2E2E2E2E28383E22DE22D2DE2E2E2E2E2E2E2E2E2E2E2E2E2E2E2E2E2E2E2E2E2E2E2E2E2E2E2E2E2E2E2E2E2E2E2E2E2E2E2E2E2E2E2
310
E2E2E2E2E2E2E2E2E2E2E2E2E2E2E2E2E2E2E2E2E2E2E2E2E2E2E2E2E2E2E2E2E2E2E2E2E2E2E2E2E2E2E2E2E2E2E2E2E2E2E2E2E2E2E2E2E2E2E2BEE2E2E2E2E2E2E2E2E2E2E2E2E2E2E2E2E2E2E2E2E2E2E2E2E2E2E2E2E2E2E2E2E2E2E2E2E2E2E2E2E2E2E2E2E2E2BEE2E2E2E2E2BEE2BEE2BEE2BEE2BEE2E2BEE2E2E2
310
E2E2E2E2E2E2E2E2E2E2E2E2E2E2E2E2E2E2E2E2E2E2E2E2E2E2E2E2DCDCDCDCDCE2DCDCDCDCE2E2E22DE22DE2E2E2E2E2E2E2E2E2E2E2E2E2E2E2E2E2E2E2E2E2E2E2E2E2E2E2E2E2E2E2E2E2E2838383E22DE22D2DE2E2E2E2E2E2E2E2E2E2E2E2E2E2E2E2E2E2E2E2E2E2E2E2E2E2E2E2E2E2E2E2E2E2E2E2E2E2E2E2E2
310
E2E2E2E2E2E2E2E2E2E2E2E2E2E2E2E2E2E2E2E2E2E2E2E2E2E2E2E2E2E2E2E2E2E2E2E2E2E2E2E2E2E2E2E2E2E2E2E2E2E2E2E2E2E2E2E2E2E2E2E2E2BEE2E2E2E2E2E2E2E2E2E2E2E2E2E2E2E2E2E2E2E2E2E2E2E2E2E2E2E2E2E2E2E2E2E2E2E2E2E2E2E2E2E2E2E2E2E2BEE2E2E2E2E2BEE2BEE2BEE2BEE2BEE2E2BEE2
310
E2E2E2E2E2E2E2E2E2E2E2E2E2E2E2E2E2E2E2E2E2E2E2E2E2E2E2E2E2E2DCDCDCDCDCE2E2E2E2DCE2E2E22DE22DE2E283838383838383838383838383838383838383838383838383838383838383838383E2E22DE22D2DE2E2E2E2E2E2E2E2E2E2E2E2E2E2E2E2E2E2E2E2E2E2E2E2E2E2E2E2E2E2E2E2E2E2E2E2E2E2E2
310
E2E2E2E2E2E2E2E2E2E2E2E2E2E2E2E2E2E2E2E2E2E2E2E2E2E2E2E2E2E2E2E2E2E2E2E2E2E2E2E2E2E2E2E2E2E2E2E2E2E2E2E2E2E2E2E2E2E2E2E2E2E2E2BEE2E2E2E2E2E2E2E2E2E2E2E2E2E2E2E2E2E2E2E2E2E2E2E2E2E2E2E2E2E2E2E2E2E2E2E2E2E2E2E2E2E2E2E2E2E2BEE2E2E2E2E2BEE2BEE2BEE2BEE2BEE2E2
310
BEE2E2E2E2E2E2E2E2E2E2E2E2E2E2E2E2E2E2E2E2E2E2E2E2E2E2E2E2E2E2E2DCDCDCDCDCDCE2DCDCE2E2E2E22DE22DE283838383838383838383838383838383838383838383838383838383838383838383E2E2E22DE22D2DE2E2E2E2E2E2E2E2E2E2E2E2E2E2E2E2E2E2E2E2E2E2E2E2E2E2E2E2E2E2E2E2E2E2E2E2E2
310
E2E2E2E2E2E2E2E2E2E2E2E2E2E2E2E2E2E2E2E2E2E2E2E2E2E2E2E2E2E2E2E2E2E2E2E2E2E2E2E2E2E2E2E2E2E2E2E2E2E2E2E2E2E2E2E2E2E2E2E2E2E2E2E2E2BEE2E2E2E2E2E2E2E2E2E2E2E2E2E2E2E2E2E2E2E2E2E2E2E2E2E2E2E2E2E2E2E2E2E2E2E2E2E2E2E2E2E2E2E2E2E2BEE2E2E2E2E2BEE2BEE2BEE2BEE2BE
310
E2E2BEE2E2E2E2E2E2E2E2E2E2E2E2E2E2E2E2E2E2E2E2E2E2E2E2E2E2E2E2E2E2E2DCDCDCDCDCDCDCDCE2E2E2E2E22DE22DE28383E2E2E2E2E2E2E2E2E2E2E2E2E2E2E2E2E2E2E2E2E2E2E2E2E2E2E2E2E2E2E2E2E2E2E22DE22DE2E2E2E2E2E2E2E2E2E2E2E2E2E2E2E2E2E2E2E2E2E2E2E2E2E2E2E2E2E2E2E2E2E2E2E2
310
E2E2E2E2E2E2E2E2E2E2E2E2E2E2E2E2E2E2E2E2E2E2E2E2E2E2E2E2E2E2E2E2E2E2E2E2E2E2E2E2E2E2E2E2E2E2E2E2E2E2E2E2E2E2E2E2E2E2E2E2E2E2E2E2E2E2E2BEE2E2E2E2E2E2E2E2E2E2E2E2E2E2E2E2E2E2E2E2E2E2E2E2E2E2E2E2E2E2E2E2E2E2E2E2E2E2E2E2E2E2E2E2E2E2BEE2E2E2E2E2BEE2BEE2BEE2BE
310
E2BEE2E2BEE2E2E2E2E2E2E2E2E2E2E2E2E2E2E2E2E2E2E2E2E2E2E2E2E2E2E2E2E2E2E2DCDCDCDCDCDCDCDCDCE2E2E2E22DE22DE28383E2E2E2E2E2E2E2E2E2E2E2E2E2E2E2E2E2E2E2E2E2E2E2E2E2E2E2E2E2E2E2E2E2E2E22DE22DE2E2E2E2E2E2E2E2E2E2E2E2E2E2E2E2E2E2E2E2E2E2E2DCDCDCE2DCE2E2E2DCDCDC
310
DCDCE2DCDCDCDCE2E2DCE2DCDCE2DCDCDCE2DCDCDCDCE2E2DCDCDCDCE2DCE2E2E2E2E2E2E2E2E2E2E2E2E2E2E2E2E2E2E2E2E2E2E2E2E2E2E2E2E2E2E2E2E2E2E2E2E2E2E2BEE2E2E2E2E2E2E2E2E2E2E2E2E2E2E2E2E2E2E2E2E2E2E2E2E2E2E2E2E2E2E2E2E2E2E2E2E2E2E2E2E2E2E2E2E2E2BEE2E2E2E2E2BEE2BEE2BE
310
E2BEE2BEE2E2BEE2E2E2E2E2E2E2E2E2E2E2E2E2E2E2E2E2E2E2E2E2E2E2E2E2E2E2E2E2E2E2E2E2E2E2E2E2E2E2E2E2E2E2E22DE22DE28383E2E2E2E2E2E2E2E2E2E2E2E2E2E2E2E2E2E2E2E2E2E2E2E2E2E2E2E2E2E2E2E2E2E2E22DE22D2DE2E2E2E2E2E2E2E2E2E2E2E2E2E2E2E2E2E2E2E2E2E2DCDCDCDCDCDCDCDCDC
310
DCDCDCDCE2DCDCDCDCE2E2DCDCDCDCDCDCDCDCDCDCDCDCDCE2DCE2DCDCDCDCE2DCE2E2E2E2E2E2E2E2E2E2E2E2E2E2E2E2E2E2E2E2E2E2E2E2E2E2E2E2E2E2E2E2E2E2E2E2E2E2BEE2E2E2E2E2E2E2E2E2E2E2E2E2E2E2E2E2E2E2E2E2E2E2E2E2E2E2E2E2E2E2E2E2E2E2E2E2E2E2E2E2E2E2E2E2E2BEE2E2E2E2E2BEE2BE
310
E2BEE2BEE2BEE2E2BEE2E2E2E2E2E2E2E2E2E2E2E2E2E2E2E2E2E2E2E2E2E2E2E2E2E2E2E2E2E2E2E2E2E2E2E2E2E2E2E2E2E2E2E22DE22DE2838383E2E2E2E2E2E2E2E2E2E2E2E2E2E2E2E2E2E2E2E2E2E2E2E2E2E2E2E2E2E2E2E2E2E22DE22D2DE2E2E2E2E2E2E2E2E2E2E2E2E2E2E2E2E2E2E2E2E2E2DCDCDCDCDCDCE2
310
E2DCDCE2DCDCDCDCDCDCDCE2E2DCDCDCDCDCDCDCDCDCDCDCDCDCE2DCDCDCDCDCDCDCDCE2E2E2E2E2E2E2E2E2E2E2E2E2E2E2E2E2E2E2E2E2E2E2E2E2E2E2E2E2E2E2E2E2E2E2E2E2E2BEE2E2E2E2E2E2E2E2E2E2E2E2E2E2E2E2E2E2E2E2E2E2E2E2E2E2E2E2E2E2E2E2E2E2E2E2E2E2E2E2E2E2E2E2E2E2BEE2E2E2E2E2BE
310
E2BEE2BEE2BEE2BEE2E2BEE2E2E2E2E2E2E2E2E2E2E2E2E2E2E2E2E2E2E2E2E2E2E2E2E2E2E2E2E2E2E2E2E2E2E2E2E2E2E2E2E2E2E2E22DE22DE2E283838383838383838383838383838383838383838383838383838383838383838383E2E22DE22D2DE2E2E2E2E2E2E2E2E2E2E2E2E2E2E2E2E2E2E2E2E2E2E2E2E2E2E2
310
E2E2E2E2E2E2E2E2E2E2E2E2E2E2E2E2E2E2E2E2E2E2E2E2E2E2E2E2E2E2DCE2E2E2E2DCE2E2E2E2E2E2E2E2E2E2E2E2E2E2E2E2E2E2E2E2E2E2E2E2E2E2E2E2E2E2E2E2E2E2E2E2E2E2E2BEE2E2E2E2E2E2E2E2E2E2E2E2E2E2E2E2E2E2E2E2E2E2E2E2E2E2E2E2E2E2E2E2E2E2E2E2E2E2E2E2E2E2E2E2E2E2BEE2E2E2E2
310
E2BEE2BEE2BEE2BEE2BEE2E2BEE2E2E2E2E2E2E2E2E2E2E2E2E2E2E2E2E2E2E2E2E2E2E2E2E2E2E2E2E2E2E2E2E2E2E2E2E2E2E2E2E2E2E2E22DE22DE2E2E2E2838383838383838383838383838383838383838383838383838383838383838383E22DE22D2DE2E2E2E2E2E2E2E2E2E2E2E2E2E2E2E2E2E2E2E2E2E2E2DCDC
310
DCDCDCDCDCE2E2DCDCDCE2E2DCDCDCDCDCDCDCDCDCDCE2DCDCDCDCDCDCE2E2E2E2E2E2E2E2E2E2E2E2E2E2E2E2E2E2E2E2E2E2E2E2E2E2E2E2E2E2E2E2E2E2E2E2E2E2E2E2E2E2E2E2E2E2E2E2BEE2E2E2E2E2E2E2E2E2E2E2E2E2E2E2E2E2E2E2E2E2E2E2E2E2E2E2E2E2E2E2E2E2E2E2E2E2E2E2E2E2E2E2E2E2E2BEE2E2
310
E2E2E2BEE2BEE2BEE2BEE2BEE2E2BEE2E2E2E2E2E2E2E2E2E2E2E2E2E2E2E2E2E2E2E2E2E2E2E2E2E2E2E2E2E2E2E2E2E2E2E2E2E2E2E2E2E2E2E22DE22DE2E2E2E2E2E2E2E2E2E2E2E2E2E2E2E2E2E2E2E2E2E2E2E2E2E2E2E2E2E2E2E2E2E2E28383E22DE22D2DE2E2E2E2E2E2E2E2E2E2E2E2E2E2E2E2E2E2E2E2E2E2E2
310
DCDCDCE2DCDCDCE2E2DCDCDCE2E2DCDCDCDCDCDCDCDCDCDCDCDCDCDCDCDCE2E2E2E2E2E2E2E2E2E2E2E2E2E2E2E2E2E2E2E2E2E2E2E2E2E2E2E2E2E2E2E2E2E2E2E2E2E2E2E2E2E2E2E2E2E2E2E2E2BEE2E2E2E2E2E2E2E2E2E2E2E2E2E2E2E2E2E2E2E2E2E2E2E2E2E2E2E2E2E2E2E2E2E2E2E2E2E2E2E2E2E2E2E2E2E2BE
310
E2E2E2E2E2BEE2BEE2BEE2BEE2BEE2E2BEE2E2E2E2E2E2E2E2E2E2E2E2E2E2E2E2E2E2E2E2E2E2E2E2E2E2E2E2E2E2E2E2E2E2E2E2E2E2E2E2E2E2E2E22DE22DE2E2E2E2E2E2E2E2E2E2E2E2E2E2E2E2E2E2E2E2E2E2E2E2E2E2E2E2E2E2E2E2E2E2E28383E22DE22D2DE2E2E2E2E2E2E2E2E2E2E2E2E2E2E2E2E2E2E2E2E2
310
E2DCDCDCDCE2DCDCDCE2DCDCDCDCE2E2DCE2DCDCDCDCDCE2DCDCDCE2DCDCDCDCDCE2E2E2E2E2E2E2E2E2E2E2E2E2E2E2E2E2E2E2E2E2E2E2E2E2E2E2E2E2E2E2E2E2E2E2E2E2E2E2E2E2E2E2E2E2E2E2E2BEE2E2E2E2E2E2E2E2E2E2E2E2E2E2E2E2E2E2E2E2E2E2E2E2E2E2E2E2E2E2E2E2E2E2E2E2E2E2E2E2E2E2E2E2E2
310
E2BEE2E2E2E2E2BEE2BEE2BEE2BEE2BEE2E2BEE2E2E2E2E2E2E2E2E2E2E2E2E2E2E2E2E2E2E2E2E2E2E2E2E2E2E2E2E2E2E2E2E2E2E2E2E2E2E2E2E2E2E2E22DE22DE2E2E2E2E2E2E2E2E2E2E2E2E2E2E2E2E2E2E2E2E2E2E2E2E2E2E2E2E2E2E2E2E2E2E28383E22DE22DE2E2E2E2E2E2E2E2E2E2E2E2E2E2DCDCDCDCDCDC
310
DCDCE2DCDCDCE2E2DCDCDCDCDCDCE2DCDCDCE2DCDCDCDCDCDCE2E2DCDCE2DCDCDCDCDCDCE2E2E2E2E2E2E2E2E2E2E2E2E2E2E2E2E2E2E2E2E2E2E2E2E2E2E2E2E2E2E2E2E2E2E2E2E2E2E2E2E2E2E2E2E2E2E2BEE2E2E2E2E2E2E2E2E2E2E2E2E2E2E2E2E2E2E2E2E2E2E2E2E2E2E2E2E2E2E2E2E2E2E2E2E2E2E2E2E2E2E2
310
E2E2E2BEE2E2E2E2E2BEE2BEE2BEE2BEE2BEE2E2BEE2E2E2E2E2E2E2E2E2E2E2E2E2E2E2E2E2E2E2E2E2E2E2E2E2E2E2E2E2E2E2E2E2E2E2E2E2E2E2E2E2E2E2E22D838383838383838383838383838383838383838383838383838383838383838383838383838383E22DE22D2DE2E2E2E2E2E2E2E2E2E2DCDCDCE2E2E2E2
310
E2E2E2E2E2DCDCDCDCDCDCDCDCDCDCE2E2DCDCDCDCDCDCDCDCDCDCE2E2DCDCDCDCDCDCDCDCDCE2E2E2E2E2E2E2E2E2E2E2E2E2E2E2E2E2E2E2E2E2E2E2E2E2E2E2E2E2E2E2E2E2E2E2E2E2E2E2E2E2E2E2E2E2E2E2BEE2E2E2E2E2E2E2E2E2E2E2E2E2E2E2E2E2E2E2E2E2E2E2E2E2E2E2E2E2E2E2E2E2E2E2E2E2E2E2E2E2
310
E2E2E2E2E2BEE2E2E2E2E2BEE2BEE2BEE2BEE2BEE2E2BEE2E2E2E2E2E2E2E2E2E2E2E2E2E2E2E2E2E2E2E2E2E2E2E2E2E2E2E2E2E2E2E2E2E2E2E2E2E2E2E2E2E2E2E22D8383838383838383838383838383838383838383838383838383838383838383838383838383E2E22DE22D2DE2E2E2E2E2E2DCDCDCDCE2E2E2E2E2
310
E2E2E2E2E2E2E2DCDCDCE2E2DCDCDCDCDCDCE2E2DCDCDCDCDCDCDCDCDCE2E2DCDCE2DCDCDCDCDCDCE2E2E2E2E2E2E2E2E2E2E2E2E2E2E2E2E2E2E2E2E2E2E2E2E2E2E2E2E2E2E2E2E2E2E2E2E2E2E2E2E2E2E2E2E2E2E2BEE2E2E2E2E2E2E2E2E2E2E2E2E2E2E2E2E2E2E2E2E2E2E2E2E2E2E2E2E2E2E2E2E2E2E2E2E2E2E2
310
E2E2E2E2E2E2E2BEE2E2E2E2E2BEE2BEE2BEE2BEE2BEE2E2BEE2E2E2E2E2E2E2E2E2E2E2E2E2E2E2E2E2E2E2E2E2E2E2E2E2E2E2E2E2E2E2E2E2E2E2E2E2E2E2E2E2E2E2E22DDC2DE2E2E2E2E2E2E2E2E2E2E2E2E2E2E2E2E2E2E2E2E2E2E2E2E2E2E2E2E2E2E2E2E2E2E2E2E2E22DDC2D2DE2E2E2DCDCDCE2E2E2E2E2E2E2
310
E2E2E2E2E2E2E2E2E2E2E2E2E2E2E2E2E2E2E2E2E2E2E2E2E2E2E2E2E2E2E2E2E2E2E2E2E2E2E2E2E2E2E2E2E2E2E2E2E2E2E2E2E2E2E2E2E2E2E2E2E2E2E2E2E2E2E2E2E2E2E2E2E2E2E2E2E2E2E2E2E2E2E2E2E2E2E2E2E2BEE2E2E2E2E2E2E2E2E2E2E2E2E2E2E2E2E2E2E2E2E2E2E2E2E2E2E2E2E2E2E2E2E2E2E2E2E2
310
E2E2E2E2E2E2E2E2E2BEE2E2E2E2E2BEE2BEE2BEE2BEE2BEE2E2BEE2E2E2E2E2E2E2E2E2E2E2E2E2E2E2E2E2E2E2E2E2E2E2E2E2E2E2E2E2E2E2E2E2E2E2E2E2E2E2E2E2E2E2E22DDCDCE2E2E2E2E2E2E2E2E2E2E2E2E2E2E2E2E2E2E2E2E2E2E2E2E2E2E2E2E2E2E2E2E2E2E2E2E2E2DCDCDC2DDCDCDCE2E2E2E2E2E2E2E2
310
E2E2E2E2E2E2E2E2E2E2E2E2E2E2E2E2E2E2E2E2E2E2E2E2E2E2E2E2E2E2E2E2E2E2E2E2E2E2E2E2E2E2E2E2E2E2E2E2E2E2E2E2E2E2E2E2E2E2E2E2E2E2E2E2E2E2E2E2E2E2E2E2E2E2E2E2E2E2E2E2E2E2E2E2E2E2E2E2E2E2E2BEE2E2E2E2E2E2E2E2E2E2E2E2E2E2E2E2E2E2E2E2E2E2E2E2E2E2E2E2E2E2E2E2E2E2E2
310
E2E2E2E2E2E2E2E2E2E2E2BEE2E2E2E2E2BEE2BEE2BEE2BEE2BEE2E2BEE2E2E2E2E2E2E2E2E2E2E2E2E2E2E2E2E2E2E2E2E2E2E2E2E2E2E2E2E2E2E2E2E2E2E2E2E2E2E2E2E2E2E2E22DDCDCE2E2E2E2E2E2E2E2E2E2E2E2E2E2E2E2E2E2E2E2E2E2E2E2E2E2E2E2E2E2E2E2E2E2E2E2E2E2DCDCDCDCE2E2E2E2E2E2E2E2E2
310
E2E2E2E2E2E2E2E2E2E2E2E2E2E2E2E2E2E2E2E2E2E2E2E2E2E2E2E2E2E2E2E2E2E2E2E2E2E2E2E2E2E2E2E2E2E2E2E2E2E2E2E2E2E2E2E2E2E2E2E2E2E2E2E2E2E2E2E2E2E2E2E2E2E2E2E2E2E2E2E2E2E2E2E2E2E2E2E2E2E2E2E2E2BEE2E2E2E2E2E2E2E2E2E2E2E2E2E2E2E2E2E2E2E2E2E2E2E2E2E2E2E2E2E2E2E2E2
310
E2E2E2E2E2E2E2E2E2E2E2E2E2BEE2E2E2E2E2BEE2BEE2BEE2BEE2BEE2E2BEE2E2E2E2E2E2E2E2E2E2E2E2E2E2E2E2E2E2E2E2E2E2E2E2E2E2E2E2E2E2E2E2E2E2E2E2E2E2E2E2E2E2E2E22DDCDCE2E2E2E2E2E2E2E2E2E2E2E2E2E2E2E2E2E2E2E2E2E2E2E2E2E2E2E2E2E2E2E2E2E2E2E2E2E2DCDCDC2DE2E2E2E2E2E2E2
310
E2E2E2E2E2E2E2E2E2E2E2E2E2E2E2E2E2E2E2E2E2E2E2E2E2E2E2E2E2E2E2E2E2E2E2E2E2E2E2E2E2E2E2E2E2E2E2E2E2E2E2E2E2E2E2E2E2E2E2E2E2E2E2E2E2E2E2E2E2E2E2E2E2E2E2E2E2E2E2E2E2E2E2E2E2E2E2E2E2E2E2E2E2E2E2BEE2E2E2E2E2E2E2E2E2E2E2E2E2E2E2E2E2E2E2E2E2E2E2E2E2E2E2E2E2E2E2
310
E2E2E2E2E2E2E2E2E2E2E2E2E2E2E2BEE2E2E2E2E2BEE2BEE2BEE2BEE2BEE2E2BEE2E2E2E2E2E2E2E2E2E2E2E2E2E2E2E2E2E2E2E2E2E2E2E2E2E2E2E2E2E2E2E2E2E2E2E2E2E2E2E2E2E2E2E22DDC2DE2E2E2E2E2E2E2E2E2E2E2E2E2E2E2E2E2E2E2E2E2E2E2E2E2E2E2E2E2E2E2E2E2E2E2E2E2E22DDC2DE2E2E2E2E2E2
310
E2E2E2E2E2E2E2E2E2E2E2E2E2E2E2E2E2E2E2E2E2E2E2E2E2E2E2DCDCDCE2E2E2E2E2E2E2E2E2E2E2E2E2E2E2E2E2E2E2E2E2E2E2E2E2E2E2E2E2E2E2E2E2E2E2E2E2E2E2E2E2E2E2E2E2E2E2E2E2E2E2E2E2E2E2E2E2E2E2E2E2E2E2E2E2E2E2BEE2E2E2E2E2E2E2E2E2E2E2E2E2E2E2E2E2E2E2E2E2E2E2E2E2E2E2E2E2
310
E2E2E2E2E2E2E2E2E2E2E2E2E2E2E2E2E2BEE2E2E2E2E2BEE2BEE2BEE2BEE2BEE2E2BEE2E2E2E2E2E2E2E2E2E2E2E2E2E2E2E2E2E2E2E2E2E2E2E2E2E2E2E2E2E2E2E2E2E2E2E2E2E2E2E2E2E2E2E22DE22DE2E2E2E2E2E2E2E2E2E2E2E2E2E2E2E2E2E2E2E2E2E2E2E2E2E2E2E2E2E2E2E2E2E2E2E2E2E22DE22DE2E2E2E2
310
E2E2E2E2E2E2E2E2E2E2E2E2E2E2E2E2E2E2E2E2DCDCDCDCDCDCDCDCDCDCDCDCE2E2DCE2DCE2DCDCDCE2E2DCDCDCDCDCDCDCDCDCDCDCDCDCDCDCDCDCE2E2E2E2E2E2E2E2E2E2E2E2E2E2E2E2E2E2E2E2E2E2E2E2E2E2E2E2E2E2E2E2E2E2E2E2E2E2E2BEE2E2E2E2E2E2E2E2E2E2E2E2E2E2E2E2E2E2E2E2E2E2E2E2E2E2E2
310
E2E2E2E2E2E2E2E2E2E2E2E2E2E2E2E2E2E2E2BEE2E2E2E2E2BEE2BEE2BEE2BEE2BEE2E2BEE2E2E2E2E2E2E2E2E2E2E2E2E2E2E2E2E2E2E2E2E2E2E2E2E2E2E2E2E2E2E2E2E2E2E2E2E2E2E2E2E2E2E2E22DE22DE2E28383838383838383838383838383838383838383838383838383838383838383838383838383DCDCDC
310
DCDCDCDCDCDCDCDCDCDCDCDCDCDCDCDCDCDCDCDCE2E2DCDCDCDCDCDCDCDCDCDCDCDCE2DCDCDCDCDCDCDCDCE2E2DCDCDCDCDCDCDCDCDCDCDCDCDCDCDCDCDCE2E2E2E2E2E2E2E2E2E2E2E2E2E2E2E2E2E2E2E2E2E2E2E2E2E2E2E2E2E2E2E2E2E2E2E2E2E2E2BEE2E2E2E2E2E2E2E2E2E2E2E2E2E2E2E2E2E2E2E2E2E2E2E2E2
310
E2E2E2E2E2E2E2E2E2E2E2E2E2E2E2E2E2E2E2E2E2BEE2E2E2E2E2BEE2BEE2BEE2BEE2BEE2E2BEE2E2E2E2E2E2E2E2E2E2E2E2E2E2E2E2E2E2E2E2E2E2E2E2E2E2E2E2E2E2E2E2E2E2E2E2E2E2E2E2E2E2E2E22DE22DE283838383838383838383838383838383838383838383838383838383838383838383838383838383
310
DCDCE2E2E2E2E2E2E2E2E2E2E2E2E2E2E2E2E2E2E2E2E2DCDCDCDCDCDCDCDCDCE2DCE2E2E2DCDCDCDCDCDCDCDCDCE2DCDCDCDCDCDCDCDCDCDCDCDCDCDCDCDCDCE2E2E2E2E2E2E2E2E2E2E2E2E2E2E2E2E2E2E2E2E2E2E2E2E2E2E2E2E2E2E2E2E2E2E2E2E2E2E2BEE2E2E2E2E2E2E2E2E2E2E2E2E2E2E2E2E2E2E2E2E2E2E2
310
E2E2E2E2E2E2E2E2E2E2E2E2E2E2E2E2E2E2E2E2E2E2E2BEE2E2E2E2E2BEE2BEE2BEE2BEE2BEE2E2BEE2E2E2E2E2E2E2E2E2E2E2E2E2E2E2E2E2E2E2E2E2E2E2E2E2E2E2E2E2E2E2E2E2E2E2E2E2E2E2E2E2E2E2E22DE22DE28383E2E2E2E2E2E2E2E2E2E2E2E2E2E2E2E2E2E2E2E2E2E2E2E2E2E2E2E2E2E2E2E2E2E2E22D
310
E22D2DE2E2E2E2E2E2E2E2E2E2E2E2E2E2E2E2E2E2E2E2E2E2E2E2E2E2E2E2E2E2E2E2E2E2E2E2E2E2E2E2E2E2E2E2E2E2E2E2E2E2E2E2E2E2E2E2E2E2E2E2E2E2E2E2E2E2E2E2E2E2E2E2E2E2E2E2E2E2E2E2E2E2E2E2E2E2E2E2E2E2E2E2E2E2E2E2E2E2E2E2E2E2BEE2E2E2E2E2E2E2E2E2E2E2E2E2E2E2E2E2E2E2E2E2
310
E2E2E2E2E2E2E2E2E2E2E2E2E2E2E2E2E2E2E2E2E2E2E2E2E2BEE2E2E2E2E2BEE2BEE2BEE2BEE2BEE2E2BEE2E2E2E2E2E2E2E2E2E2E2E2E2E2E2E2E2E2E2E2E2E2E2E2E2E2E2E2E2E2E2E2E2E2E2E2E2E2E2E2E2E2E2E22DE22DE28383E2E2E2E2E2E2E2E2E2E2E2E2E2E2E2E2E2E2E2E2E2E2E2E2E2E2E2E2E2E2E2E2E2E2
310
E22DE22D2DE2E2E2E2E2E2E2E2E2E2E2E2E2E2E2E2E2E2E2E2E2E2E2E2E2E2E2E2E2E2E2E2E2E2E2E2E2E2E2E2E2E2E2E2E2E2E2E2E2E2E2E2E2E2E2E2E2E2E2E2E2E2E2E2E2E2E2E2E2E2E2E2E2E2E2E2E2E2E2E2E2E2E2E2E2E2E2E2E2E2E2E2E2E2E2E2E2E2E2E2E2E2BEE2E2E2E2E2E2E2E2E2E2E2E2E2E2E2E2E2E2E2
310
E2E2E2E2E2E2E2E2E2E2E2E2E2E2E2E2E2E2E2E2E2E2E2E2E2E2E2BEE2E2E2E2E2BEE2BEE2BEE2BEE2BEE2E2BEE2E2E2E2E2E2E2E2E2E2E2E2E2E2E2E2E2E2E2E2E2E2E2E2E2E2E2E2E2E2E2E2E2E2E2E2E2E2E2E2E2E2E2E22DE22DE28383E2E2E2E2E2E2E2E2E2E2E2E2E2E2E2E2E2E2E2E2E2E2E2E2E2E2E2E2E2E2E2E2
310
E2E2E22DE22D2DE2E2E2E2E2E2E2E2E2E2E2E2E2E2E2E2E2E2E2E2E2E2E2E2E2E2E2E2E2E2E2E2E2E2E2E2E2E2E2E2E2E2E2E2E2E2E2E2E2E2E2E2E2E2E2E2E2E2E2E2E2E2E2E2E2E2E2E2E2E2E2E2E2E2E2E2E2E2E2E2E2E2E2E2E2E2E2E2E2E2E2E2E2E2E2E2E2E2E2E2E2E2BEE2E2E2E2E2E2E2E2E2E2E2E2E2E2E2E2E2
310
E2E2E2E2E2E2E2E2E2E2E2E2E2E2E2E2E2E2E2E2E2E2E2E2E2E2E2E2E2BEE2E2E2E2E2BEE2BEE2BEE2BEE2BEE2E2BEE2E2E2E2E2E2E2E2E2E2E2E2E2E2E2E2E2E2E2E2E2E2E2E2E2E2E2E2E2E2E2E2E2E2E2E2E2E2E2E2E2E2E2E22DE22DE28383838383838383838383838383838383838383838383838383838383838383
310
83E2E2E2E22DE22D2DE2E2E2E2E2E2E2E2E2E2E2E2E2E2E2E2E2E2E2E2E2E2E2E2E2E2E2E2E2E2E2E2E2E2E2E2E2E2E2E2E2E2E2E2E2E2E2E2E2E2E2E2E2E2E2E2E2E2E2E2E2E2E2E2E2E2E2E2E2E2E2E2E2E2E2E2E2E2E2E2E2E2E2E2E2E2E2E2E2E2E2E2E2E2E2E2E2E2E2E2E2E2BEE2E2E2E2E2E2E2E2E2E2E2E2E2E2E2
310
E2E2E2E2E2E2E2E2E2E2E2E2E2E2E2E2E2E2E2E2E2E2E2E2E2E2E2E2E2E2E2BEE2E2E2E2E2BEE2BEE2BEE2BEE2BEE2E2BEE2E2E2E2E2E2E2E2E2E2E2E2E2E2E2E2E2E2E2E2E2E2E2E2E2E2E2E2E2E2E2E2E2E2E2E2E2E2E2E2E2E2E2E22DE22DE2E28383838383838383838383838383838383838383838383838383838383
310
8383838383E2E22DE2DCE2E2E2E2E2E2E2E2E2E2E2E2E2E2E2E2E2E2E2E2E2E2E2E2E2E2E2E2E2E2E2E2E2E2E2E2E2E2E2E2E2E2E2E2E2E2E2E2E2E2E2E2E2E2E2E2E2E2E2E2E2E2E2E2E2E2E2E2E2E2E2E2E2E2E2E2E2E2E2E2E2E2E2E2E2E2E2E2E2E2E2E2E2E2E2E2E2E2E2E2E2E2E2BEE2E2E2E2E2E2E2E2E2E2E2E2E2
310
E2E2E2E2E2E2E2E2E2E2E2E2E2E2E2E2E2E2E2E2E2E2E2E2E2E2E2E2E2E2E2E2E2BEE2E2E2E2E2BEE2BEE2BEE2BEE2BEE2E2BEE2E2E2E2E2E2E2E2E2E2E2E2E2E2E2E2E2E2E2E2E2E2E2E2E2E2E2E2E2E2E2E2E2E2E2E2E2E2E2E2E2E2E2E22DE22DE2E2E2E2E2E2E2E2E2E2E2E2E2E2E2E2E2E2E2E2E2E2E2E2E2E2E2E2E2
310
E2E2E2E2E2838383E22DE22DDCDCDCE2E2E2E2E2E2E2E2E2E2E2E2E2E2E2E2E2E2E2E2E2E2E2E2E2E2E2E2E2E2E2E2E2E2E2E2E2E2E2E2E2E2E2E2E2E2E2E2E2E2E2E2E2E2E2E2E2E2E2E2E2E2E2E2E2E2E2E2E2E2E2E2E2E2E2E2E2E2E2E2E2E2E2E2E2E2E2E2E2E2E2E2E2E2E2E2E2E2E2E2BEE2E2E2E2E2E2E2E2E2E2E2
310
E2E2E2E2E2E2E2E2E2E2E2E2E2E2E2E2E2E2E2E2E2E2E2E2E2E2E2E2E2E2E2E2E2E2E2BEE2E2E2E2E2BEE2BEE2BEE2BEE2BEE2E2BEE2E2E2E2E2E2E2E2E2E2E2E2E2E2E2E2E2E2E2E2E2E2E2E2E2E2E2E2E2E2E2E2E2E2E2E2E2E2E2E2E2E2E2E22DE22DE2E2E2E2E2E2E2E2E2E2E2E2E2E2E2E2E2E2E2E2E2E2E2E2E2E2E2
310
E2E2E2E2E2E2E2E28383E22DE22D2DE2E2DCDCDCE2E2E2E2E2E2E2E2E2E2E2E2E2E2E2E2E2E2E2E2E2E2E2E2E2E2E2E2E2E2E2E2E2E2E2E2E2E2E2E2E2E2E2E2E2E2E2E2E2E2E2E2E2E2E2E2E2E2E2E2E2E2E2E2E2E2E2E2E2E2E2E2E2E2E2E2E2E2E2E2E2E2E2E2E2E2E2E2E2E2E2E2E2E2E2E2E2BEE2E2E2E2E2E2E2E2E2
310
E2E2E2E2E2E2E2E2E2E2E2E2E2E2E2E2E2E2E2E2E2E2E2E2E2E2E2E2E2E2E2E2E2E2E2E2E2BEE2E2E2E2E2BEE2BEE2BEE2BEE2BEE2E2BEE2E2E2E2E2E2E2E2E2E2E2E2E2E2E2E2E2E2E2E2E2E2E2E2E2E2E2E2E2E2E2E2E2E2E2E2E2E2E2E2E2E2E2E22DE22DE2E2E2E2E2E2E2E2E2E2E2E2E2E2E2E2E2E2E2E2E2E2E2E2E2
310
E2E2E2E2E2E2E2E2E2E28383E22DE22D2DE2E2E2E2E2DCDCDCE2E2E2E2E2E2E2E2E2E2E2E2E2E2E2E2E2E2E2E2E2E2E2E2E2E2E2E2E2E2E2E2E2E2E2E2E2E2E2E2E2E2E2E2E2E2E2E2E2E2E2E2E2E2E2E2E2E2E2E2E2E2E2E2E2E2E2E2E2E2E2E2E2E2E2E2E2E2E2E2E2E2E2E2E2E2E2E2E2E2E2E2E2E2BEE2E2E2E2E2E2E2
310
E2E2E2E2E2E2E2E2E2E2E2E2E2E2E2E2E2E2E2E2E2E2E2E2E2E2E2E2E2E2E2E2E2E2E2E2E2E2E2BEE2E2E2E2E2BEE2BEE2BEE2BEE2BEE2E2BEE2E2E2E2E2E2E2E2E2E2E2E2E2E2E2E2E2E2E2E2E2E2E2E2E2E2E2E2E2E2E2E2E2E2E2E2E2E2E2E2E2E2E2E22DE22DE2E2E2E2E2E2E2E2E2E2E2E2E2E2E2E2E2E2E2E2E2E2E2
310
E2E2E2E2E2E2E2E2E2E2E2838383E22DE22D2DE2E2E2E2E2E2E2E2DCDCDCE2E2E2E2E2E2E2E2E2E2E2E2E2E2E2E2E2E2E2E2E2E2E2E2E2E2E2E2E2E2E2E2E2E2E2E2E2E2E2E2E2E2E2E2E2E2E2E2E2E2E2E2E2E2E2E2E2E2E2E2E2E2E2E2E2E2E2E2E2E2E2E2E2E2E2E2E2E2E2E2E2E2E2E2E2E2E2E2E2E2E2BEE2E2E2E2E2
310
E2E2E2E2E2E2E2E2E2E2E2E2E2E2E2E2E2E2E2E2E2E2E2E2E2E2E2E2E2E2E2E2E2E2E2E2E2E2E2E2E2BEE2E2E2E2E2BEE2BEE2BEE2BEE2BEE2E2BEE2E2E2E2E2E2E2E2E2E2E2E2E2E2E2E2E2E2E2E2E2E2E2E2E2E2E2E2E2E2E2E2E2E2E2E2E2E2E2E2E2E2E2E22D8383838383838383838383838383838383838383838383
310
838383838383838383838383838383E2E22DE22D2DE2E2E2E2E2E2E2E2E2E2E2DCDCDCE2E2E2E2E2E2E2E2E2E2E2E2E2E2E2E2E2E2E2E2E2E2E2E2E2E2E2E2E2E2E2E2E2E2E2E2E2E2E2E2E2E2E2E2E2E2E2E2E2E2E2E2E2E2E2E2E2E2E2E2E2E2E2E2E2E2E2E2E2E2E2E2E2E2E2E2E2E2E2E2E2E2E2E2E2E2E2E2BEE2E2E2
310
E2E2E2E2E2E2E2E2E2E2E2E2E2E2E2E2E2E2E2E2E2E2E2E2E2E2E2E2E2E2E2E2E2E2E2E2E2E2E2E2E2E2E2BEE2E2E2E2E2BEE2BEE2BEE2BEE2BEE2E2BEE2E2E2E2E2E2E2E2E2E2E2E2E2E2E2E2E2E2E2E2E2E2E2E2E2E2E2E2E2E2E2E2E2E2E2E2E2E2E2E2E2E2E2E22D838383838383838383838383838383838383838383
310
83838383838383838383838383838383E2E2E22DE22D2DE2E2E2E2E2E2E2E2E2E2E2E2E2E2DCDCDCDCDCDCDCE2DCDCDCDCDCDCE2DCDCDCDCE2DCDCDCDCDCDCDCE2E2DCDCDCDCDCDCDCDCDCDCE2E2DCDCDCDCDCDCDCDCDCDCE2E2E2E2E2E2E2E2E2E2E2E2E2E2E2E2E2E2E2E2E2E2E2E2E2E2E2E2E2E2E2E2E2E2E2E2E2BEE2
310
E2E2E2E2E2E2E2E2E2E2E2E2E2E2E2E2E2E2E2E2E2E2E2E2E2E2E2E2E2E2E2E2E2E2E2E2E2E2E2E2E2E2E2E2E2BEE2E2E2E2E2BEE2BEE2BEE2BEE2BEE2E2BEE2E2E2E2E2E2E2E2E2E2E2E2E2E2E2E2E2E2E2E2E2E2E2E2E2E2E2E2E2E2E2E2E2E2E2E2E2E2E2E2E2E2E2E22DE22DE2E2E2E2E2E2E2E2E2E2E2E2E2E2E2E2E2
310
E2E2E2E2E2E2E2E2E2E2E2E2E2E2E2E2E2E2E2E2E22DE22DE2E2E2E2E2E2E2E2E2E2E2E2E2E2E2E2E2E2E2E2E2E2E2DCDCDCDCDCDCE2DCDCDCDCE2DCDCDCDCDCDCE2DCE2DCDCDCDCDCDCDCDCDCE2DCE2DCDCDCDCDCDCDCDCDCDCE2E2E2E2E2E2E2E2E2E2E2E2E2E2E2E2E2E2E2E2E2E2E2E2E2E2E2E2E2E2E2E2E2E2E2E2E2
310
BEE2E2E2E2E2E2E2E2E2E2E2E2E2E2E2E2E2E2E2E2E2E2E2E2E2E2E2E2E2E2E2E2E2E2E2E2E2E2E2E2E2E2E2E2E2E2BEE2E2E2E2E2BEE2BEE2BEE2BEE2BEE2E2BEE2E2E2E2E2E2E2E2E2E2E2E2E2E2E2E2E2E2E2E2E2E2E2E2E2E2E2E2E2E2E2E2E2E2E2E2E2E2E2E2E2E2E2E22DE22DE2E2E2E2E2E2E2E2E2E2E2E2E2E2E2
310
E2E2E2E2E2E2E2E2E2E2E2E2E2E2E2E2E2E2E2E2E2E2E22DE22DE2E2E2E2E2E2E2E2E2E2E2E2E2E2E2E2E2E2E2E2E2E2E2E2E2E2E2E2E2E2E2E2E2E2E2E2E2E2E2E2E2E2E2E2E2E2E2E2E2E2E2E2E2E2E2E2E2E2E2E2E2E2E2E2E2E2E2E2E2E2E2E2E2E2E2E2E2E2E2E2E2E2E2E2E2E2E2E2E2E2E2E2E2E2E2E2E2E2E2E2E2
310
E2E2BEE2E2E2E2E2E2E2E2E2E2E2E2E2E2E2E2E2E2E2E2E2E2E2E2E2E2E2E2E2E2E2E2E2E2E2E2E2E2E2E2E2E2E2E2E2E2BEE2E2E2E2E2BEE2BEE2BEE2BEE2BEE2E2BEE2E2E2E2E2E2E2E2E2E2E2E2E2E2E2E2E2E2E2E2E2E2E2E2E2E2E2E2E2E2E2E2E2E2E2E2E2E2E2E2E2E2E2E22D838383838383838383838383838383
310
838383838383838383838383838383838383838383838383838383832DE2E2E2E2E2E2E2E2E2E2E2E2E2E2E2E2E2E2E2E2E2E2E2E2E2E2E2E2E2E2E2E2E2E2E2E2E2E2E2E2E2E2E2E2E2E2E2E2E2E2E2E2E2E2E2E2E2E2E2E2E2E2E2E2E2E2E2E2E2E2E2E2E2E2E2E2E2E2E2E2E2E2E2E2E2E2E2E2E2E2E2E2E2E2E2E2E2E2
310
E2E2E2E2BEE2E2E2E2E2E2E2E2E2E2E2E2E2E2E2E2E2E2E2E2E2E2E2E2E2E2E2E2E2E2E2E2E2E2E2E2E2E2E2E2E2E2E2E2E2E2BEE2E2E2E2E2BEE2BEE2BEE2BEE2BEE2E2BEE2E2E2E2E2E2E2E2E2E2E2E2E2E2E2E2E2E2E2E2E2E2E2E2E2E2E2E2E2E2E2E2E2E2E2E2E2E2E2E2E2E2E2E22D83838383838383838383838383
310
8383838383838383838383838383838383838383838383838383838383832DE2E2E2E2E2E2E2E2E2E2E2E2E2E2E2E2E2E2E2E2E2E2E2E2E2E2E2E2E2E2E2E2E2E2E2E2E2E2E2E2E2E2E2E2E2E2E2E2E2E2E2E2E2E2E2E2E2E2E2E2E2E2E2E2E2E2E2E2E2E2E2E2E2E2E2E2E2E2E2E2E2E2E2E2E2E2E2E2E2E2E2E2E2E2E2E2
310
E2E2E2E2E2E2BEE2E2E2E2E2E2E2E2E2E2E2E2E2E2E2E2E2E2E2E2E2E2E2E2E2E2E2E2E2E2E2E2E2E2E2E2E2E2E2E2E2E2E2E2E2E2BEE2E2E2E2E2BEE2BEE2BEE2BEE2BEE2E2BEE2E2E2E2E2E2E2E2E2E2E2E2E2E2E2E2E2E2E2E2E2E2E2E2E2E2E2E2E2E2E2E2E2E2E2E2E2E2E2E2E2E2E2E22DE22D2D2D2DE2E22D2D2D2D
310
2D2DE22D2D2D2D2D2DE2E22D2D2D2D2D2DE22D2D2D2D2D2DE2E22D2D2D2DE22D2DE2E2E2E2E2E2E2E2E2E2E2E2E2E2E2E2E2E2E2E2E2E2E2E2E2E2E2E2E2E2E2E2E2E2E2E2E2E2E2E2E2E2E2E2E2E2E2E2E2E2E2E2E2E2E2E2E2E2E2E2E2E2E2E2E2E2E2E2E2E2E2E2E2E2E2E2E2E2E2E2E2E2E2E2E2E2E2E2E2E2E2E2E2E2
310
E2E2E2E2E2E2E2E2BEE2E2E2E2E2E2E2E2E2E2E2E2E2E2E2E2E2E2E2E2E2E2E2E2E2E2E2E2E2E2E2E2E2E2E2E2E2E2E2E2E2E2E2E2E2E2BEE2E2E2E2E2BEE2BEE2BEE2BEE2BEE2E2BEE2E2E2E2E2E2E2E2E2E2E2E2E2E2E2E2E2E2E2E2E2E2E2E2E2E2E2E2E2E2E2E2E2E2E2E2E2E2E2E2E2E2E2E22D2D2DE2E2E2E2E2E2E2
310
E2E2E2E2E2E2E2E2E2E2E2E2E2E2E2E2E2E2E2E2E2E2E2E2E2E2E2E2E2E2E22DE22DE2E2E2E2E2E2E2E2E2E2E2E2E2E2E2E2E2E2E2E2E2E2E2E2E2E2E2E2E2E2E2E2E2E2E2E2E2E2E2E2E2E2E2E2E2E2E2E2E2E2E2E2E2E2E2E2E2E2E2E2E2E2E2E2E2E2E2E2E2E2E2E2E2E2E2E2E2E2E2E2E2E2E2E2E2E2E2E2E2E2E2E2E2
310
E2E2E2E2E2E2E2E2E2E2BEE2E2E2E2E2E2E2E2E2E2E2E2E2E2E2E2E2E2E2E2E2E2E2E2E2E2E2E2E2E2E2E2E2E2E2E2E2E2E2E2E2E2E2E2E2E2BEE2E2E2E2E2BEE2BEE2BEE2BEE2BEE2E2BEE2E2E2E2E2E2E2E2E2E2E2E2E2E2E2E2E2E2E2E2E2E2E2E2E2E2E2E2E2E2E2E2E2E2E2E2E2E2E2E2E2E2E22D2DE22D2DE2E2E2E2
310
E2E2E2E2E2E2E2E2E2E2E2E2E2E2E2E2E2E2E2E2E2E2E2E2E2E2E2E2E2E22D2D2D2D2D2D2D2D2DE2E2E2E2E2E2E2E2E2E2E2E2E2E2E2E2E2E2E2E2DCDCDCDCDCDCE2E2DCDCDCDCDCDCE2E2DCDCDCDCDCDCDCDCDCE2DCDCE2DCDCDCE2DCDCDCDCDCE2E2E2E2E2E2E2E2E2E2E2E2E2E2E2E2E2E2E2E2E2E2E2E2E2E2E2E2E2E2
310
E2E2E2E2E2E2E2E2E2E2E2E2BEE2E2E2E2E2E2E2E2E2E2E2E2E2E2E2E2E2E2E2E2E2E2E2E2E2E2E2E2E2E2E2E2E2E2E2E2E2E2E2E2E2E2E2E2E2E2BEE2E2E2E2E2BEE2BEE2BEE2BEE2BEE2E2BEE2E2E2E2E2E2E2E2E2E2E2E2E2E2E2E2E2E2E2E2E2E2E2E2E2E2E2E2E2E2E2E2E2E2E2E2E2E2E2E2E2E22DDCE2DCE2DC2DE2
310
E2E2E2E2E2E2E2E2E2E2E2E2E2E2E2E2E2E2E2E2E2E2E2E2E2E2E2E2E2E2E2E22D2DE2E2E2E2E22D2D2DE2E2E2E2E2E2E2E2E2E2E2E2E2E2E2E2E2E2E2DCDCDCDCDCDCE2E2DCDCDCDCDCDCE2E2DCDCDCDCDCDCDCDCDCE2DCDCDCDCDCDCE2DCDCDCDCE2DCE2E2E2E2E2E2E2E2E2E2E2E2E2E2E2E2E2E2E2E2E2E2E2E2E2E2E2
310
E2E2E2E2E2E2E2E2E2E2E2E2E2E2BEE2E2E2E2E2E2E2E2E2E2E2E2E2E2E2E2E2E2E2E2E2E2E2E2E2E2E2E2E2E2E2E2E2E2E2E2E2E2E2E2E2E2E2E2E2E2BEE2E2E2E2E2BEE2BEE2BEE2BEE2BEE2E2BEE2E2E2E2E2E2E2E2E2E2E2E2E2E2E2E2E2E2E2E2E2E2E2E2E2E2E2E2E2E2E2E2E2E2E2E2E2E2E2E2E2E22DE2DCDCDCDC
310
2DE2E2E2E2E2E2E2E2E2E2E2E2E2E2E2E2E2E2E2E2E2E2E2E2E2E2E2E2E2E2E2E2E22D2DE2E2E2E2E2E22D2DE2E2E2E2E2E2E2E2E2E2E2E2E2E2E2E2E2E2E2DCDCDCDCDCDCDCE2DCDCDCE2E2DCDCDCDCDCDCDCDCDCDCDCDCE2DCDCE2DCDCDCDCDCE2E2E2E2E2E2E2E2E2E2E2E2E2E2E2E2E2E2E2E2E2E2E2E2E2E2E2E2E2E2
310
E2E2E2E2E2E2E2E2E2E2E2E2E2E2E2E2BEE2E2E2E2E2E2E2E2E2E2E2E2E2E2E2E2E2E2E2E2E2E2E2E2E2E2E2E2E2E2E2E2E2E2E2E2E2E2E2E2E2E2E2E2E2E2BEE2E2E2E2E2BEE2BEE2BEE2BEE2BEE2E2BEE2E2E2E2E2E2E2E2E2E2E2E2E2E2E2E2E2E2E2E2E2E2E2E2E2E2E2E2E2E2E2E2E2E2E2E2E2E2E2E2E2E22D2DDCDC
310
DCDC2DE2E2E2E2E2E2E2E2E2E2E2E2E2E2E2E2E2E2E2E2E2E2E2E2E2E2E2E2E2E2E2E2E22DE2E2E2E2E2E2E22D2DE2E2E2E2E2E2E2E2E2E2E2E2DCDCDCDCDCDCE2DCDCDCDCDCDCDCDCDCDCE2E2DCDCDCDCDCDCDCDCDCDCDCDCE2E2DCDCDCDCE2DCDCDCE2E2E2E2E2E2E2E2E2E2E2E2E2E2E2E2E2E2E2E2E2E2E2E2E2E2E2E2
310
E2E2E2E2E2E2E2E2E2E2E2E2E2E2E2E2E2E2BEE2E2E2E2E2E2E2E2E2E2E2E2E2E2E2E2E2E2E2E2E2E2E2E2E2E2E2E2E2E2E2E2E2E2E2E2E2E2E2E2E2E2E2E2E2E2BEE2E2E2E2E2BEE2BEE2BEE2BEE2BEE2E2BEE2E2E2E2E2E2E2E2E2E2E2E2E2E2E2E2E2E2E2E2E2E2E2E2E2E2E2E2E2E2E2E2E2E2E2E2E2E2E2E2E2E2E22D
310
2DE2DC2DE2E2E2E2E2E2E2E2E2E2E2E2E2E2E2E2E2E2E2E2E2E2E2E2E2E2E2E2E2E2E2E2E2E22DE2E2E2E2E2E2E22D2DE2E2E2E2E2E2E2E2E2E2DCDCE2E2E2E2E2E2E2DCDCDCDCE2DCDCDCDCDCDCE2DCDCDCDCDCDCDCDCDCDCDCDCE2E2DCDCDCDCDCE2DCDCE2E2E2E2E2E2E2E2E2E2E2E2E2E2E2E2E2E2E2E2E2E2E2E2E2E2
310
E2E2E2E2E2E2E2E2E2E2E2E2E2E2E2E2E2E2E2E2BEE2E2E2E2E2E2E2E2E2E2E2E2E2E2E2E2E2E2E2E2E2E2E2E2E2E2E2E2E2E2E2E2E2E2E2E2E2E2E2E2E2E2E2E2E2E2BEE2E2E2E2E2BEE2BEE2BEE2BEE2BEE2E2BEE2E2E2E2E2E2E2E2E2E2E2E2E2E2E2E2E2E2E2E2E2E2E2E2E2E2E2E2E2E2E2E2E2E2E2E2E2E2E2E2E2E2
310
E2E22D2DE2DCE2E2E2E2E2E2E2E2E2E2E2E2E2E2E2E2E2E2E2E2E2E2E2E2E2E2E2E2E2E2E2E2E2E22DE2E2E2E2E2E2E22D2DE2E2E2E2E2E2E2DCDCDCE2E2E2E2E2E2E2E2E2E2E2E2E2E2E2E2E2E2E2E2E2E2E2E2E2E2E2E2E2E2E2E2E2E2E2E2E2E2E2E2E2E2E2E2E2E2E2E2E2E2E2E2E2E2E2E2E2E2E2E2E2E2E2E2E2E2E2
310
E2E2E2E2E2E2E2E2E2E2E2E2E2E2E2E2E2E2E2E2E2E2BEE2E2E2E2E2E2E2E2E2E2E2E2E2E2E2E2E2E2E2E2E2E2E2E2E2E2E2E2E2E2E2E2E2E2E2E2E2E2E2E2E2E2E2E2E2E2BEE2E2E2E2E2BEE2BEE2BEE2BEE2BEE2E2BEE2E2E2E2E2E2E2E2E2E2E2E2E2E2E2E2E2E2E2E2E2E2E2E2E2E2E2E2E2E2E2E2E2E2E2E2E2E2E2E2
310
E2E2E2E2E2E2E2E2DCE2E2E2E2E2E2E2E2E2E2E2E2E2E2E2E2E2E2E2E2E2E2E2E2E2E2E2E2E2E2E2E2E22DE2E2E2E2E2E2E22D2DE2E2E2E2DCDCDCE2E2E2E2E2E2E2E2E2E2E2E2E2E2E2E2E2E2E2E2E2E2E2E2E2E2E2E2E2E2E2E2E2E2E2E2E2E2E2E2E2E2E2E2E2E2E2E2E2E2E2E2E2E2E2E2E2E2E2E2E2E2E2E2E2E2E2E2
310
E2E2E2E2E2E2E2E2E2E2E2E2E2E2E2E2E2E2E2E2E2E2E2E2BEE2E2E2E2E2E2E2E2E2E2E2E2E2E2E2E2E2E2E2E2E2E2E2E2E2E2E2E2E2E2E2E2E2E2E2E2E2E2E2E2E2E2E2E2E2E2BEE2E2E2E2E2BEE2BEE2BEE2BEE2BEE2E2BEE2E2E2E2E2E2E2E2E2E2E2E2E2E2E2E2E2E2E2E2E2E2E2E2E2E2E2E2E2E2E2E2E2E2E2E2E2E2
310
E2E2E2E2E2E2E2E2E2E2E2DCE2E2E2E2E2E2E2E2E2E2E2E2E2E2E2E2E2E2E2E2E2E2E2E2E2E2E2E2E2E2E2E22DE2E2E2E2E2E2E22D2DE2E2DCDCE2E2E2E2E2E2E2E2E2E2E2E2E2E2E2E2E2E2E2E2E2E2E2E2E2E2E2E2E2E2E2E2E2E2E2E2E2E2E2E2E2E2E2E2E2E2E2E2E2E2E2E2E2E2E2E2E2E2E2E2E2E2E2E2E2E2E2E2E2
310
E2E2E2E2E2E2E2E2E2E2E2E2E2E2E2E2E2E2E2E2E2E2E2E2E2E2BEE2E2E2E2E2E2E2E2E2E2E2E2E2E2E2E2E2E2E2E2E2E2E2E2E2E2E2E2E2E2E2E2E2E2E2E2E2E2E2E2E2E2E2E2E2E2BEE2E2E2E2E2BEE2BEE2BEE2BEE2BEE2E2BEE2E2E2E2E2E2E2E2E2E2E2E2E2E2E2E2E2E2E2E2E2E2E2E2E2E2E2E2E2E2E2E2E2E2E2E2
310
E2E2E2E2E2E2E2E2E2E2E2E2E2E2DCE2E2E2E2E2E2E2E2E2E2E2E2E2E2E2E2E2E2E2E2E2E2E2E2E2E2E2E2E2E2E22DE2E2E2E2E2E2E22D2DDCDCE2E2E2E2E2E2E2E2E2E2E2E2E2E2E2E2E2E2E2E2E2E2E2E2E2E2E2E2E2E2E2E2E2E2E2E2E2E2E2E2E2E2E2E2E2E2E2E2E2E2E2E2E2E2E2E2E2E2E2E2E2E2E2E2E2E2E2E2E2
310
E2E2E2E2E2E2E2E2E2E2E2E2E2E2E2E2E2E2E2E2E2E2E2E2E2E2E2E2BEE2E2E2E2E2E2E2E2E2E2E2E2E2E2E2E2E2E2E2E2E2E2E2E2E2E2E2E2E2E2E2E2E2E2E2E2E2E2E2E2E2E2E2E2E2E2BEE2E2E2E2E2BEE2BEE2BEE2BEE2BEE2E2BEE2E2E2E2E2E2E2E2E2E2E2E2E2E2E2E2E2E2E2E2E2E2E2E2E2E2E2E2E2E2E2E2E2E2
310
E2E2E2E2E2E2E2E2E2E2E2E2E2E2E2E2E2DCE2E2E2E2E2E2E2E2E2E2E2E2E2E2E2E2E2E2E2E2E2E2E2E2E2E2E2E2E2E22DE2E2E2E2E2E2E2DCDCE2E2E2E2E2E2E2E2E2E2E2E2E2E2E2E2E2E2E2E2E2E2E2E2E2E2E2E2E2E2E2E2E2E2E2E2E2E2E2E2E2E2E2E2E2E2E2E2E2E2E2E2E2E2E2E2E2E2E2E2E2E2E2E2E2E2E2E2E2
310
E2E2E2E2E2E2E2E2E2E2E2E2E2E2E2E2E2E2E2E2E2E2E2E2E2E2E2E2E2E2BEE2E2E2E2E2E2E2E2E2E2E2E2E2E2E2E2E2E2E2E2E2E2E2E2E2E2E2E2E2E2E2E2E2E2E2E2E2E2E2E2E2E2E2E2E2E2BEE2E2E2E2E2BEE2BEE2BEE2BEE2BEE2E2BEE2E2E2E2E2E2E2E2E2E2E2E2E2E2E2E2E2E2E2E2E2E2E2E2E2E2E2E2E2E2E2E2
310
E2E2E2E2E2E2E2E2E2E2E2E2E2E2E2E2E2E2E2E2DCE2E2E2E2E2E2E2E2E2E2E2E2E2E2E2E2E2E2E2E2E2E2E2E2E2E2E2E2E22DE2E2E2E2E2E2E22D2DE2E2E2E2E2E2E2E2E2E2E2E2E2E2E2E2E2E2E2E2E2E2E2E2E2E2E2E2E2E2E2E2E2E2E2E2E2E2E2E2E2E2E2E2E2E2E2E2E2E2E2E2E2E2E2E2E2E2E2E2E2E2E2E2E2E2E2
310
E2E2E2E2E2E2E2E2E2E2E2E2E2E2E2E2E2E2E2E2E2E2E2E2E2E2E2E2E2E2E2E2BEE2E2E2E2E2E2E2E2E2E2E2E2E2E2E2E2E2E2E2E2E2E2E2E2E2E2E2E2E2E2E2E2E2E2E2E2E2E2E2E2E2E2E2E2E2E2BEE2E2E2E2E2BEE2BEE2BEE2BEE2BEE2E2BEE2E2E2E2E2E2E2E2E2E2E2E2E2E2E2E2E2E2E2E2E2E2E2E2E2E2E2E2E2E2
310
E2E2E2E2E2E2E2E2E2E2E2E2E2E2E2E2E2E2E2E2E2E2E2DCE2E2E2E2E2E2E2E2E2E2E2E2E2E2E2E2E2E2E2E2E2E2E2E2E2E2E2E22D2DE2E2E2E2E22D2D2DE2E2E2E2E2E2E2E2E2E2E2E2E2E2E2E2E2E2E2E2E2E2E2E2E2E2E2E2E2E2E2E2E2E2E2E2E2E2E2E2E2E2E2E2E2E2E2E2E2E2E2E2E2E2E2E2E2E2E2E2E2E2E2E2E2
310
E2E2E2E2E2E2E2E2E2E2E2E2E2E2E2E2E2E2E2E2E2E2E2E2E2E2E2E2E2E2E2E2E2E2BEE2E2E2E2E2E2E2E2E2E2E2E2E2E2E2E2E2E2E2E2E2E2E2E2E2E2E2E2E2E2E2E2E2E2E2E2E2E2E2E2E2E2E2E2E2E2BEE2E2E2E2E2BEE2BEE2BEE2BEE2BEE2E2BEE2E2E2E2E2E2E2E2E2E2E2E2E2E2E2E2E2E2E2E2E2E2E2E2E2E2E2E2
310
E2E2E2E2E2E2E2E2E2E2E2E2E2E2E2E2E2E2E2E2E2E2E2E2E2E2DCE2E2E2E2E2E2E2E2E2E2E2E2E2E2E2E2E2E2E2E2E2E2E2E2E2E2E22D2D2D2D2D2D2D2D2DE2E2E2E2E2E2E2E2E2E2E2E2E2E2E2E2E2E2E2E2E2E2E2E2E2E2E2E2E2E2E2E2E2E2E2E2E2E2E2E2E2E2E2E2E2E2E2E2E2E2E2E2E2E2E2E2E2E2E2E2E2E2E2E2
310
E2E2E2E2E2E2E2E2E2E2E2E2E2E2E2E2E2E2E2E2E2E2E2E2E2E2E2E2E2E2E2E2E2E2E2E2BEE2E2E2E2E2E2E2E2E2E2E2E2E2E2E2E2E2E2E2E2E2E2E2E2E2E2E2E2E2E2E2E2E2E2E2E2E2E2E2E2E2E2E2E2E2E2BEE2E2E2E2E2BEE2BEE2BEE2BEE2BEE2E2BEE2E2E2E2E2E2E2E2E2E2E2E2E2E2E2E2E2E2E2E2E2E2E2E2E2E2
310
E2E2E2E2E2E2E2E2E2E2E2E2E2E2E2E2E2E2E2E2E2E2E2E2E2E2E2E2E2DCE2E2E2E2E2E2E2E2E2E2E2E2E2E2E2E2E2E2E2E2E2E2E2E2E2E2E22D2D2D2D2D2D2DE2E2E2E2E2E2E2E2E2E2E2E2E2E2E2E2E2E2E2E2E2E2E2E2E2DCE2E2E2E2E2E2E2E2E2E2E2E2E2E2E2E2E2E2E2E2E2E2E2E2E2E2E2E2E2E2E2E2E2E2E2E2E2
310
E2E2E2E2E2E2E2E2E2E2E2E2E2E2E2E2E2E2E2E2E2E2E2E2E2E2E2E2E2E2E2E2E2E2E2E2E2E2BEE2E2E2E2E2E2E2E2E2E2E2E2E2E2E2E2E2E2E2E2E2E2E2E2E2E2E2E2E2E2E2E2E2E2E2E2E2E2E2E2E2E2E2E2E2E2BEE2E2E2E2E2BEE2BEE2BEE2BEE2BEE2E2BEE2E2E2E2E2E2E2E2E2E2E2E2E2E2E2E2E2E2E2E2E2E2E2E2
310
E2E2E2E2E2E2E2E2E2E2E2E2E2E2E2E2E2E2E2E2E2E2E2E2E2E2E2E2E2E2E2E2DCE2E2E2E2E2E2E2E2E2E2E2E2E2E2E2E2E2E2E2E2E2E2E2E2E2E2E2E2E2E2E2E2E2E2E2E2E2E2E2E2E2E2E2E2E2E2E2E2E2E2E2E2E2E2DCDCDCE2DCDCE2DCDCDCDCDCDCDCDCDCDCE2E2DCDCDCDCDCDCDCDCE2E2E2DCDCDCDCDCDCDCE2E2E2
310
E2E2E2E2E2E2E2E2E2E2E2E2E2E2E2E2E2E2E2E2E2E2E2E2E2E2E2E2E2E2E2E2E2E2E2E2E2E2E2E2BEE2E2E2E2E2E2E2E2E2E2E2E2E2E2E2E2E2E2E2E2E2E2E2E2E2E2E2E2E2E2E2E2E2E2E2E2E2E2E2E2E2E2E2E2E2E2BEE2E2E2E2E2BEE2BEE2BEE2BEE2BEE2E2BEE2E2E2E2E2E2E2E2E2E2E2E2E2E2E2E2E2E2E2E2E2E2
310
E2E2E2E2E2E2E2E2E2E2E2E2E2E2E2E2E2E2E2E2E2E2E2E2E2E2E2E2E2E2E2E2E2E2E2DCDCDCDCDCDCDCDCDCDCDCDCDCDCDCDCDCDCDCDCDCDCDCDCDCDCDCDCDCDCDCDCDCDCDCDCDCDCDCDCDCDCDCDCDCDCDCDCDCDCDCDCDCE2E2DCDCDCDCDCDCDCDCDCDCDCDCDCDCDCDCE2E2DCDCDCDCDCDCDCDCDCE2DCDCDCDCDCE2DCDCE2
310
E2E2E2E2E2E2E2E2E2E2E2E2E2E2E2E2E2E2E2E2E2E2E2E2E2E2E2E2E2E2E2E2E2E2E2E2E2E2E2E2E2E2BEE2E2E2E2E2E2E2E2E2E2E2E2E2E2E2E2E2E2E2E2E2E2E2E2E2E2E2E2E2E2E2E2E2E2E2E2E2E2E2E2E2E2E2E2E2E2BEE2E2E2E2E2BEE2BEE2E2E2BEE2BEE2E2BEE2E2E2E2E2E2E2E2E2E2E2E2E2E2E2E2E2E2E2E2
310
E2E2E2E2E2E2E2E2E2E2E2E2E2E2E2E2E2E2E2E2E2E2E2E2E2E2E2E2E2E2E2E2E2E2E2E2E2E2E2E2E2E2E2E2E2E2E2E2E2E2E2E2E2E2E2E2E2E2E2E2E2E2E2E2E2E2E2E2E2E2E2E2E2E2E2E2E2E2E2E2E2E2E2E2E2E2E2E2E2E2E2E2E2E2E2E2E2DCE2E2E2E2E2E2E2E2E2E2E2E2E2E2E2E2E2E2E2E2E2E2E2E2E2E2E2E2E2
310
E2E2E2E2E2E2E2E2E2E2E2E2E2E2E2E2E2E2E2E2E2E2E2E2E2E2E2E2E2E2E2E2E2E2E2E2E2E2E2E2E2E2E2E2BEE2E2E2E2E2E2E2E2E2E2E2E2E2E2E2E2E2E2E2E2E2E2E2E2E2E2E2E2E2E2E2E2E2E2E2E2E2E2E2E2E2E2E2E2E2E2BEE2E2E2E2E2BEE2BEE2E2E2BEE2E2E2E2BEE2E2E2E2E2E2E2E2E2E2E2E2E2E2E2E2E2E2
310
E2E2E2E2E2E2E2E2E2E2E2E2E2E2E2E2E2E2E2E2E2E2E2E2E2E2E2E2E2E2E2E2E2E2E2E2E2E2E2E2E2E2E2E2E2E2E2E2E2E2E2E2E2E2E2E2E2E2E2E2E2E2E2E2E2E2E2E2E2E2E2E2E2E2E2E2E2E2E2E2E2E2E2E2E2E2E2E2E2E2E2E2E2E2E2E2E2E2E2E2E2E2E2E2E2E2E2E2E2E2E2E2E2E2E2E2E2E2E2E2E2E2E2E2E2E2E2
310
E2E2E2E2E2E2E2E2E2E2E2E2E2E2E2E2E2E2E2E2E2E2E2E2E2E2E2E2E2E2E2E2E2E2E2E2E2E2E2E2E2E2E2E2E2E2BEE2E2E2E2E2E2E2E2E2E2E2E2E2E2E2E2E2E2E2E2E2E2E2E2E2E2E2E2E2E2E2E2E2E2E2E2E2E2E2E2E2E2E2E2E2E2BEE2E2E2E2E2E2E2BEE2E2E2E2E2E2E2E2BEE2E2E2E2E2E2E2E2E2E2E2E2E2E2E2E2
310
E2E2E2E2E2E2E2E2E2E2E2E2E2E2E2E2E2E2E2E2E2E2E2E2E2E2E2E2E2E2E2E2E2E2E2E2E2E2E2E2E2E2E2E2E2E2E2E2E2E2E2E2E2E2E2E2E2E2E2E2E2E2E2E2E2E2E2E2E2E2E2E2E2E2E2E2E2E2E2E2E2E2E2E2E2E2E2E2E2E2E2E2E2E2E2E2E2E2E2E2E2E2E2E2E2E2E2E2E2E2E2E2E2E2E2E2E2E2E2E2E2E2E2E2E2E2E2
310
E2E2E2E2E2E2E2E2E2E2E2E2E2E2E2E2E2E2E2E2E2E2E2E2E2E2E2E2E2E2E2E2E2E2E2E2E2E2E2E2E2E2E2E2E2E2E2E2BEE2E2E2E2E2E2E2E2E2E2E2E2E2E2E2E2E2E2E2E2E2E2E2E2E2E2E2E2E2E2E2E2E2E2E2E2E2E2E2E2E2E2E2E2E2E2BEE2E2E2E2E2E2E2E2E2E2E2E2E2E2E2E2BEE2E2E2E2E2E2E2E2E2E2E2E2E2E2
310
E2E2E2E2E2E2E2E2E2E2E2E2E2E2E2E2E2E2E2E2E2E2E2E2E2E2E2E2E2E2E2E2E2E2E2E2E2E2E2E2E2E2E2E2E2E2E2E2E2E2E2E2E2E2E2E2E2E2E2E2E2E2E2E2E2E2E2E2E2E2E2E2E2E2E2E2E2E2E2E2E2E2E2E2E2E2E2E2E2E2E2E2E2E2E2E2E2E2E2E2E2E2E2E2E2E2E2E2E2E2E2E2E2E2E2E2E2E2E2E2E2E2E2E2E2E2E2
310
E2E2E2E2E2E2E2E2E2E2E2E2E2E2E2E2E2E2E2E2E2E2E2E2E2E2E2E2E2E2E2E2E2E2E2E2E2E2E2E2E2E2E2E2E2E2E2E2E2E2BEE2E2E2E2E2E2E2E2E2E2E2E2E2E2E2E2E2E2E2E2E2E2E2E2E2E2E2E2E2E2E2E2E2E2E2E2E2E2E2E2E2E2E2E2E2E2BEE2E2E2E2E2E2E2E2E2E2E2E2E2E2E2E2BEE2E2E2E2E2E2E2E2E2E2E2E2
310
E2E2E2E2E2E2E2E2E2E2E2E2E2E2E2E2E2E2E2E2E2E2E2E2E2E2E2E2E2E2E2E2E2E2E2E2E2E2E2E2E2E2E2E2E2E2E2E2E2E2E2E2E2E2E2E2E2E2E2E2E2E2E2E2E2E2E2E2E2E2E2E2E2E2E2E2E2E2E2E2E2E2E2E2E2E2E2E2E2E2E2E2E2E2E2E2E2E2E2E2E2E2E2E2E2E2E2E2E2E2E2E2E2E2E2E2E2E2E2E2E2E2E2E2E2E2E2
310
E2E2E2E2E2E2E2E2E2E2E2E2E2E2E2E2E2E2E2E2E2E2E2E2E2E2E2E2E2E2E2E2E2E2E2E2E2E2E2E2E2E2E2E2E2E2E2E2E2E2E2E2BEE2E2E2E2E2E2E2E2E2E2E2E2E2E2E2E2E2E2E2E2E2E2E2E2E2E2E2E2E2E2E2E2E2E2E2E2E2E2E2E2E2E2E2E2E2E2BEE2E2E2E2E2E2E2E2E2E2E2E2E2E2E2E2BEE2E2E2E2E2E2E2E2E2E2
310
E2E2E2E2E2E2E2E2E2E2E2E2E2E2E2E2E2E2E2E2E2E2E2E2E2E2E2E2E2E2E2E2E2E2E2E2E2E2E2E2E2E2E2E2E2E2E2E2E2E2E2E2E2E2E2E2E2E2E2E2E2E2E2E2E2E2E2E2E2E2E2E2E2E2E2E2E2E2E2E2E2E2E2E2E2E2E2E2E2E2E2E2E2E2E2E2E2E2E2E2E2E2E2E2E2E2E2E2E2E2E2E2E2E2E2E2E2E2E2E2E2E2E2E2E2E2E2
310
E2E2E2E2E2E2E2E2E2E2E2E2E2E2E2E2E2E2E2E2E2E2E2E2E2E2E2E2E2E2E2E2E2E2E2E2E2E2E2E2E2E2E2E2E2E2E2E2E2E2E2E2E2E2BEE2E2E2E2E2E2E2E2E2E2E2E2E2E2E2E2E2E2E2E2E2E2E2E2E2E2E2E2E2E2E2E2E2E2E2E2E2E2E2E2E2E2E2E2E2E2BEBEBEBEBEBEBEBEBEBEBEBEBEBEBEBEBEBEBEBEBEBEBEBEBEBE
310
BEBEBEBEBEBEBEBEBEBEBEBEBEBEBEBEBEBEBEBEBEBEBEBEBEBEBEBEBEBEBEBEBEBEBEBEBEBEBEBEBEBEBEBEBEBEBEBEBEBEBEBEBEBEBEBEBEBEBEBEBEBEBEBEBEBEBEBEBEBEBEBEBEBEBEBEBEBEBEBEBEBEBEBEBEBEBEBEBEBEBEBEBEBEBEBEBEBEBEBEBEBEBEBEBEBEBEBEBEBEBEBEBEBEBEBEBEBEBEBEBEBEBEBEBEBEBE
310
BEBEBEBEBEBEBEBEBEBEBEBEBEBEBEBEBEBEBEBEBEBEBEBEBEBEBEBEBEBEBEBEBEBEBEBEBEBEBEBEBEBEBEBEBEBEBEBEBEBEBEBEBEBEBEBEBEE2E2E2E2E2E2E2E2E2E2E2E2E2E2E2E2E2E2E2E2E2E2E2
  0
XRECORD
  5
2D00
102
{ACAD_REACTORS
330
2CFF
102
}
330
2CFF
100
AcDbXrecord
280
     1
102
MATERIAL
148
0.0
149
0.0
149
0.0
 93
        0
 94
       63
282
     0
 72
     1
 77
     1
171
     1
175
     1
179
     1
273
     0
  0
XRECORD
  5
2CFE
102
{ACAD_REACTORS
330
2CFD
102
}
330
2CFD
100
AcDbXrecord
280
     1
102
MATERIAL
148
0.0
149
0.0
149
0.0
 93
        0
 94
       63
282
     0
 72
     1
 77
     1
171
     1
175
     1
179
     1
273
     0
  0
XRECORD
  5
2D01
102
{ACAD_REACTORS
330
110
102
}
330
110
100
AcDbXrecord
280
     1
102
MATERIAL
148
0.0
149
0.0
149
0.0
 93
        0
 94
       63
282
     0
 72
     1
 77
     1
171
     1
175
     1
179
     1
273
     0
  0
XRECORD
  5
112
102
{ACAD_REACTORS
330
110
102
}
330
110
100
AcDbXrecord
280
     1
270
     1
271
     1
  0
XRECORD
  5
111
102
{ACAD_REACTORS
330
110
102
}
330
110
100
AcDbXrecord
280
     1
270
     1
271
     1
  0
XRECORD
  5
113
102
{ACAD_REACTORS
330
110
102
}
330
110
100
AcDbXrecord
280
     1
270
     1
271
     1
  0
XRECORD
  5
114
102
{ACAD_REACTORS
330
110
102
}
330
110
100
AcDbXrecord
280
     1
270
     1
271
     1
  0
CELLSTYLEMAP
  5
2CFA
102
{ACAD_REACTORS
330
2CB8
102
}
330
2CB8
100
AcDbCellStyleMap
 90
        3
300
CELLSTYLE
  1
TABLEFORMAT_BEGIN
 90
        5
170
     1
 91
        0
 92
    32768
 62
   257
 93
        1
300
CONTENTFORMAT
  1
CONTENTFORMAT_BEGIN
 90
        0
 91
        0
 92
      512
 93
        0
300

 40
0.0
140
1.0
 94
        5
 62
     0
340
180
144
0.5
309
CONTENTFORMAT_END
171
     0
 94
        6
 95
        1
302
GRIDFORMAT
  1
GRIDFORMAT_BEGIN
 90
        0
 91
        1
 62
     0
 92
       -2
340
0
 93
        1
 40
0.045
309
GRIDFORMAT_END
 95
        2
302
GRIDFORMAT
  1
GRIDFORMAT_BEGIN
 90
        0
 91
        1
 62
     0
 92
       -2
340
0
 93
        1
 40
0.045
309
GRIDFORMAT_END
 95
        4
302
GRIDFORMAT
  1
GRIDFORMAT_BEGIN
 90
        0
 91
        1
 62
     0
 92
       -2
340
0
 93
        1
 40
0.045
309
GRIDFORMAT_END
 95
        8
302
GRIDFORMAT
  1
GRIDFORMAT_BEGIN
 90
        0
 91
        1
 62
     0
 92
       -2
340
0
 93
        1
 40
0.045
309
GRIDFORMAT_END
 95
       16
302
GRIDFORMAT
  1
GRIDFORMAT_BEGIN
 90
        0
 91
        1
 62
     0
 92
       -2
340
0
 93
        1
 40
0.045
309
GRIDFORMAT_END
 95
       32
302
GRIDFORMAT
  1
GRIDFORMAT_BEGIN
 90
        0
 91
        1
 62
     0
 92
       -2
340
0
 93
        1
 40
0.045
309
GRIDFORMAT_END
309
TABLEFORMAT_END
  1
CELLSTYLE_BEGIN
 90
        1
 91
        1
300
_TITLE
309
CELLSTYLE_END
300
CELLSTYLE
  1
TABLEFORMAT_BEGIN
 90
        5
170
     1
 91
        0
 92
        0
 62
   257
 93
        1
300
CONTENTFORMAT
  1
CONTENTFORMAT_BEGIN
 90
        0
 91
        0
 92
      512
 93
        0
300

 40
0.0
140
1.0
 94
        4
 62
     0
340
180
144
0.4
309
CONTENTFORMAT_END
171
     0
 94
        6
 95
        1
302
GRIDFORMAT
  1
GRIDFORMAT_BEGIN
 90
        0
 91
        1
 62
     0
 92
       -2
340
0
 93
        1
 40
0.045
309
GRIDFORMAT_END
 95
        2
302
GRIDFORMAT
  1
GRIDFORMAT_BEGIN
 90
        0
 91
        1
 62
     0
 92
       -2
340
0
 93
        1
 40
0.045
309
GRIDFORMAT_END
 95
        4
302
GRIDFORMAT
  1
GRIDFORMAT_BEGIN
 90
        0
 91
        1
 62
     0
 92
       -2
340
0
 93
        1
 40
0.045
309
GRIDFORMAT_END
 95
        8
302
GRIDFORMAT
  1
GRIDFORMAT_BEGIN
 90
        0
 91
        1
 62
     0
 92
       -2
340
0
 93
        1
 40
0.045
309
GRIDFORMAT_END
 95
       16
302
GRIDFORMAT
  1
GRIDFORMAT_BEGIN
 90
        0
 91
        1
 62
     0
 92
       -2
340
0
 93
        1
 40
0.045
309
GRIDFORMAT_END
 95
       32
302
GRIDFORMAT
  1
GRIDFORMAT_BEGIN
 90
        0
 91
        1
 62
     0
 92
       -2
340
0
 93
        1
 40
0.045
309
GRIDFORMAT_END
309
TABLEFORMAT_END
  1
CELLSTYLE_BEGIN
 90
        2
 91
        1
300
_HEADER
309
CELLSTYLE_END
300
CELLSTYLE
  1
TABLEFORMAT_BEGIN
 90
        5
170
     1
 91
        0
 92
        0
 62
   257
 93
        1
300
CONTENTFORMAT
  1
CONTENTFORMAT_BEGIN
 90
        0
 91
        0
 92
      512
 93
        0
300

 40
0.0
140
1.0
 94
        4
 62
     0
340
180
144
0.4
309
CONTENTFORMAT_END
171
     0
 94
        6
 95
        1
302
GRIDFORMAT
  1
GRIDFORMAT_BEGIN
 90
        0
 91
        1
 62
     0
 92
       -2
340
0
 93
        1
 40
0.045
309
GRIDFORMAT_END
 95
        2
302
GRIDFORMAT
  1
GRIDFORMAT_BEGIN
 90
        0
 91
        1
 62
     0
 92
       -2
340
0
 93
        1
 40
0.045
309
GRIDFORMAT_END
 95
        4
302
GRIDFORMAT
  1
GRIDFORMAT_BEGIN
 90
        0
 91
        1
 62
     0
 92
       -2
340
0
 93
        1
 40
0.045
309
GRIDFORMAT_END
 95
        8
302
GRIDFORMAT
  1
GRIDFORMAT_BEGIN
 90
        0
 91
        1
 62
     0
 92
       -2
340
0
 93
        1
 40
0.045
309
GRIDFORMAT_END
 95
       16
302
GRIDFORMAT
  1
GRIDFORMAT_BEGIN
 90
        0
 91
        1
 62
     0
 92
       -2
340
0
 93
        1
 40
0.045
309
GRIDFORMAT_END
 95
       32
302
GRIDFORMAT
  1
GRIDFORMAT_BEGIN
 90
        0
 91
        1
 62
     0
 92
       -2
340
0
 93
        1
 40
0.045
309
GRIDFORMAT_END
309
TABLEFORMAT_END
  1
CELLSTYLE_BEGIN
 90
        3
 91
        2
300
_DATA
309
CELLSTYLE_END
  0
XRECORD
  5
2D28
102
{ACAD_REACTORS
330
2CB8
102
}
330
2CB8
100
AcDbXrecord
280
     1
102
ACAD_ROUNDTRIP_PRE2007_TABLESTYLE
 90
      512
 91
        0
  1

 92
      512
 93
        0
  2

 94
      512
 95
        0
  3

  0
CELLSTYLEMAP
  5
2CF9
102
{ACAD_REACTORS
330
104
102
}
330
104
100
AcDbCellStyleMap
 90
        3
300
CELLSTYLE
  1
TABLEFORMAT_BEGIN
 90
        5
170
     1
 91
        0
 92
    32768
 62
   257
 93
        1
300
CONTENTFORMAT
  1
CONTENTFORMAT_BEGIN
 90
        0
 91
        0
 92
      512
 93
        0
300

 40
0.0
140
1.0
 94
        5
 62
     0
340
11
144
0.25
309
CONTENTFORMAT_END
171
     1
301
MARGIN
  1
CELLMARGIN_BEGIN
 40
0.06
 40
0.06
 40
0.06
 40
0.06
 40
0.18
 40
0.18
309
CELLMARGIN_END
 94
        6
 95
        1
302
GRIDFORMAT
  1
GRIDFORMAT_BEGIN
 90
        0
 91
        1
 62
     0
 92
       -2
340
0
 93
        0
 40
0.045
309
GRIDFORMAT_END
 95
        2
302
GRIDFORMAT
  1
GRIDFORMAT_BEGIN
 90
        0
 91
        1
 62
     0
 92
       -2
340
0
 93
        0
 40
0.045
309
GRIDFORMAT_END
 95
        4
302
GRIDFORMAT
  1
GRIDFORMAT_BEGIN
 90
        0
 91
        1
 62
     0
 92
       -2
340
0
 93
        0
 40
0.045
309
GRIDFORMAT_END
 95
        8
302
GRIDFORMAT
  1
GRIDFORMAT_BEGIN
 90
        0
 91
        1
 62
     0
 92
       -2
340
0
 93
        0
 40
0.045
309
GRIDFORMAT_END
 95
       16
302
GRIDFORMAT
  1
GRIDFORMAT_BEGIN
 90
        0
 91
        1
 62
     0
 92
       -2
340
0
 93
        0
 40
0.045
309
GRIDFORMAT_END
 95
       32
302
GRIDFORMAT
  1
GRIDFORMAT_BEGIN
 90
        0
 91
        1
 62
     0
 92
       -2
340
0
 93
        0
 40
0.045
309
GRIDFORMAT_END
309
TABLEFORMAT_END
  1
CELLSTYLE_BEGIN
 90
        1
 91
        1
300
_TITLE
309
CELLSTYLE_END
300
CELLSTYLE
  1
TABLEFORMAT_BEGIN
 90
        5
170
     1
 91
        0
 92
        0
 62
   257
 93
        1
300
CONTENTFORMAT
  1
CONTENTFORMAT_BEGIN
 90
        0
 91
        0
 92
      512
 93
        0
300

 40
0.0
140
1.0
 94
        5
 62
     0
340
11
144
0.18
309
CONTENTFORMAT_END
171
     1
301
MARGIN
  1
CELLMARGIN_BEGIN
 40
0.06
 40
0.06
 40
0.06
 40
0.06
 40
0.18
 40
0.18
309
CELLMARGIN_END
 94
        6
 95
        1
302
GRIDFORMAT
  1
GRIDFORMAT_BEGIN
 90
        0
 91
        1
 62
     0
 92
       -2
340
0
 93
        0
 40
0.045
309
GRIDFORMAT_END
 95
        2
302
GRIDFORMAT
  1
GRIDFORMAT_BEGIN
 90
        0
 91
        1
 62
     0
 92
       -2
340
0
 93
        0
 40
0.045
309
GRIDFORMAT_END
 95
        4
302
GRIDFORMAT
  1
GRIDFORMAT_BEGIN
 90
        0
 91
        1
 62
     0
 92
       -2
340
0
 93
        0
 40
0.045
309
GRIDFORMAT_END
 95
        8
302
GRIDFORMAT
  1
GRIDFORMAT_BEGIN
 90
        0
 91
        1
 62
     0
 92
       -2
340
0
 93
        0
 40
0.045
309
GRIDFORMAT_END
 95
       16
302
GRIDFORMAT
  1
GRIDFORMAT_BEGIN
 90
        0
 91
        1
 62
     0
 92
       -2
340
0
 93
        0
 40
0.045
309
GRIDFORMAT_END
 95
       32
302
GRIDFORMAT
  1
GRIDFORMAT_BEGIN
 90
        0
 91
        1
 62
     0
 92
       -2
340
0
 93
        0
 40
0.045
309
GRIDFORMAT_END
309
TABLEFORMAT_END
  1
CELLSTYLE_BEGIN
 90
        2
 91
        1
300
_HEADER
309
CELLSTYLE_END
300
CELLSTYLE
  1
TABLEFORMAT_BEGIN
 90
        5
170
     1
 91
        0
 92
        0
 62
   257
 93
        1
300
CONTENTFORMAT
  1
CONTENTFORMAT_BEGIN
 90
        0
 91
        0
 92
      512
 93
        0
300

 40
0.0
140
1.0
 94
        2
 62
     0
340
11
144
0.18
309
CONTENTFORMAT_END
171
     1
301
MARGIN
  1
CELLMARGIN_BEGIN
 40
0.06
 40
0.06
 40
0.06
 40
0.06
 40
0.18
 40
0.18
309
CELLMARGIN_END
 94
        6
 95
        1
302
GRIDFORMAT
  1
GRIDFORMAT_BEGIN
 90
        0
 91
        1
 62
     0
 92
       -2
340
0
 93
        0
 40
0.045
309
GRIDFORMAT_END
 95
        2
302
GRIDFORMAT
  1
GRIDFORMAT_BEGIN
 90
        0
 91
        1
 62
     0
 92
       -2
340
0
 93
        0
 40
0.045
309
GRIDFORMAT_END
 95
        4
302
GRIDFORMAT
  1
GRIDFORMAT_BEGIN
 90
        0
 91
        1
 62
     0
 92
       -2
340
0
 93
        0
 40
0.045
309
GRIDFORMAT_END
 95
        8
302
GRIDFORMAT
  1
GRIDFORMAT_BEGIN
 90
        0
 91
        1
 62
     0
 92
       -2
340
0
 93
        0
 40
0.045
309
GRIDFORMAT_END
 95
       16
302
GRIDFORMAT
  1
GRIDFORMAT_BEGIN
 90
        0
 91
        1
 62
     0
 92
       -2
340
0
 93
        0
 40
0.045
309
GRIDFORMAT_END
 95
       32
302
GRIDFORMAT
  1
GRIDFORMAT_BEGIN
 90
        0
 91
        1
 62
     0
 92
       -2
340
0
 93
        0
 40
0.045
309
GRIDFORMAT_END
309
TABLEFORMAT_END
  1
CELLSTYLE_BEGIN
 90
        3
 91
        2
300
_DATA
309
CELLSTYLE_END
  0
XRECORD
  5
2CFC
102
{ACAD_REACTORS
330
104
102
}
330
104
100
AcDbXrecord
280
     1
102
ACAD_ROUNDTRIP_PRE2007_TABLESTYLE
 90
      512
 91
        0
  1

 92
      512
 93
        0
  2

 94
      512
 95
        0
  3

  0
XRECORD
  5
2D0D
102
{ACAD_REACTORS
330
2D0C
102
}
330
2D0C
100
AcDbXrecord
280
     1
102
RTVSPropertyOp0
 70
     1
102
RTVSPropertyOp1
 70
     1
102
RTVSPropertyOp2
 70
     1
102
RTVSPropertyOp3
 70
     1
102
RTVSPropertyOp4
 70
     1
102
RTVSPropertyOp5
 70
     1
102
RTVSPropertyOp6
 70
     1
102
RTVSPropertyOp7
 70
     1
102
RTVSPropertyOp8
 70
     1
102
RTVSPropertyOp9
 70
     1
102
RTVSPropertyOp10
 70
     1
102
RTVSPropertyOp11
 70
     1
102
RTVSPropertyOp12
 70
     1
102
RTVSPropertyOp13
 70
     1
102
RTVSPropertyOp14
 70
     1
102
RTVSPropertyOp15
 70
     1
102
RTVSPropertyOp16
 70
     1
102
RTVSPropertyOp17
 70
     1
102
RTVSPropertyOp18
 70
     1
102
RTVSPropertyOp19
 70
     1
102
RTVSPropertyOp20
 70
     1
102
RTVSPropertyOp21
 70
     1
102
RTVSPropertyOp22
 70
     1
102
RTVSPropertyOp23
 70
     1
102
RTVSPropertyOp24
 70
     1
102
RTVSPropertyOp25
 70
     1
102
RTVSPropertyOp26
 70
     1
102
RTVSPropertyOp27
 70
     1
  0
XRECORD
  5
2D11
102
{ACAD_REACTORS
330
2D10
102
}
330
2D10
100
AcDbXrecord
280
     1
102
RTVSPropertyOp0
 70
     1
102
RTVSPropertyOp1
 70
     1
102
RTVSPropertyOp2
 70
     1
102
RTVSPropertyOp3
 70
     1
102
RTVSPropertyOp4
 70
     1
102
RTVSPropertyOp5
 70
     1
102
RTVSPropertyOp6
 70
     1
102
RTVSPropertyOp7
 70
     1
102
RTVSPropertyOp8
 70
     1
102
RTVSPropertyOp9
 70
     1
102
RTVSPropertyOp10
 70
     1
102
RTVSPropertyOp11
 70
     1
102
RTVSPropertyOp12
 70
     1
102
RTVSPropertyOp13
 70
     1
102
RTVSPropertyOp14
 70
     1
102
RTVSPropertyOp15
 70
     1
102
RTVSPropertyOp16
 70
     1
102
RTVSPropertyOp17
 70
     1
102
RTVSPropertyOp18
 70
     1
102
RTVSPropertyOp19
 70
     1
102
RTVSPropertyOp20
 70
     1
102
RTVSPropertyOp21
 70
     1
102
RTVSPropertyOp22
 70
     1
102
RTVSPropertyOp23
 70
     1
102
RTVSPropertyOp24
 70
     1
102
RTVSPropertyOp25
 70
     1
102
RTVSPropertyOp26
 70
     1
102
RTVSPropertyOp27
 70
     1
  0
XRECORD
  5
2D0F
102
{ACAD_REACTORS
330
2D0E
102
}
330
2D0E
100
AcDbXrecord
280
     1
102
RTVSPropertyOp0
 70
     1
102
RTVSPropertyOp1
 70
     1
102
RTVSPropertyOp2
 70
     1
102
RTVSPropertyOp3
 70
     1
102
RTVSPropertyOp4
 70
     1
102
RTVSPropertyOp5
 70
     1
102
RTVSPropertyOp6
 70
     1
102
RTVSPropertyOp7
 70
     1
102
RTVSPropertyOp8
 70
     1
102
RTVSPropertyOp9
 70
     1
102
RTVSPropertyOp10
 70
     1
102
RTVSPropertyOp11
 70
     1
102
RTVSPropertyOp12
 70
     1
102
RTVSPropertyOp13
 70
     1
102
RTVSPropertyOp14
 70
     1
102
RTVSPropertyOp15
 70
     1
102
RTVSPropertyOp16
 70
     1
102
RTVSPropertyOp17
 70
     1
102
RTVSPropertyOp18
 70
     1
102
RTVSPropertyOp19
 70
     1
102
RTVSPropertyOp20
 70
     1
102
RTVSPropertyOp21
 70
     1
102
RTVSPropertyOp22
 70
     1
102
RTVSPropertyOp23
 70
     1
102
RTVSPropertyOp24
 70
     1
102
RTVSPropertyOp25
 70
     1
102
RTVSPropertyOp26
 70
     1
102
RTVSPropertyOp27
 70
     1
  0
XRECORD
  5
2D0B
102
{ACAD_REACTORS
330
2D0A
102
}
330
2D0A
100
AcDbXrecord
280
     1
102
RTVSPropertyOp0
 70
     1
102
RTVSPropertyOp1
 70
     1
102
RTVSPropertyOp2
 70
     1
102
RTVSPropertyOp3
 70
     1
102
RTVSPropertyOp4
 70
     1
102
RTVSPropertyOp5
 70
     1
102
RTVSPropertyOp6
 70
     1
102
RTVSPropertyOp7
 70
     1
102
RTVSPropertyOp8
 70
     1
102
RTVSPropertyOp9
 70
     1
102
RTVSPropertyOp10
 70
     1
102
RTVSPropertyOp11
 70
     1
102
RTVSPropertyOp12
 70
     1
102
RTVSPropertyOp13
 70
     1
102
RTVSPropertyOp14
 70
     1
102
RTVSPropertyOp15
 70
     1
102
RTVSPropertyOp16
 70
     1
102
RTVSPropertyOp17
 70
     1
102
RTVSPropertyOp18
 70
     1
102
RTVSPropertyOp19
 70
     1
102
RTVSPropertyOp20
 70
     1
102
RTVSPropertyOp21
 70
     1
102
RTVSPropertyOp22
 70
     1
102
RTVSPropertyOp23
 70
     1
102
RTVSPropertyOp24
 70
     1
102
RTVSPropertyOp25
 70
     1
102
RTVSPropertyOp26
 70
     1
102
RTVSPropertyOp27
 70
     1
  0
XRECORD
  5
2D19
102
{ACAD_REACTORS
330
2D18
102
}
330
2D18
100
AcDbXrecord
280
     1
102
RTVSPropertyOp0
 70
     1
102
RTVSPropertyOp1
 70
     1
102
RTVSPropertyOp2
 70
     1
102
RTVSPropertyOp3
 70
     1
102
RTVSPropertyOp4
 70
     1
102
RTVSPropertyOp5
 70
     1
102
RTVSPropertyOp6
 70
     1
102
RTVSPropertyOp7
 70
     1
102
RTVSPropertyOp8
 70
     1
102
RTVSPropertyOp9
 70
     1
102
RTVSPropertyOp10
 70
     1
102
RTVSPropertyOp11
 70
     1
102
RTVSPropertyOp12
 70
     1
102
RTVSPropertyOp13
 70
     1
102
RTVSPropertyOp14
 70
     1
102
RTVSPropertyOp15
 70
     1
102
RTVSPropertyOp16
 70
     1
102
RTVSPropertyOp17
 70
     1
102
RTVSPropertyOp18
 70
     1
102
RTVSPropertyOp19
 70
     1
102
RTVSPropertyOp20
 70
     1
102
RTVSPropertyOp21
 70
     1
102
RTVSPropertyOp22
 70
     1
102
RTVSPropertyOp23
 70
     1
102
RTVSPropertyOp24
 70
     1
102
RTVSPropertyOp25
 70
     1
102
RTVSPropertyOp26
 70
     1
102
RTVSPropertyOp27
 70
     1
  0
XRECORD
  5
2D21
102
{ACAD_REACTORS
330
2D20
102
}
330
2D20
100
AcDbXrecord
280
     1
102
RTVSPropertyOp0
 70
     1
102
RTVSPropertyOp1
 70
     1
102
RTVSPropertyOp2
 70
     1
102
RTVSPropertyOp3
 70
     1
102
RTVSPropertyOp4
 70
     1
102
RTVSPropertyOp5
 70
     1
102
RTVSPropertyOp6
 70
     1
102
RTVSPropertyOp7
 70
     1
102
RTVSPropertyOp8
 70
     1
102
RTVSPropertyOp9
 70
     1
102
RTVSPropertyOp10
 70
     1
102
RTVSPropertyOp11
 70
     1
102
RTVSPropertyOp12
 70
     1
102
RTVSPropertyOp13
 70
     1
102
RTVSPropertyOp14
 70
     1
102
RTVSPropertyOp15
 70
     1
102
RTVSPropertyOp16
 70
     1
102
RTVSPropertyOp17
 70
     1
102
RTVSPropertyOp18
 70
     1
102
RTVSPropertyOp19
 70
     1
102
RTVSPropertyOp20
 70
     1
102
RTVSPropertyOp21
 70
     1
102
RTVSPropertyOp22
 70
     1
102
RTVSPropertyOp23
 70
     1
102
RTVSPropertyOp24
 70
     1
102
RTVSPropertyOp25
 70
     1
102
RTVSPropertyOp26
 70
     1
102
RTVSPropertyOp27
 70
     1
  0
XRECORD
  5
2D13
102
{ACAD_REACTORS
330
2D12
102
}
330
2D12
100
AcDbXrecord
280
     1
102
RTVSPropertyOp0
 70
     1
102
RTVSPropertyOp1
 70
     1
102
RTVSPropertyOp2
 70
     1
102
RTVSPropertyOp3
 70
     1
102
RTVSPropertyOp4
 70
     1
102
RTVSPropertyOp5
 70
     1
102
RTVSPropertyOp6
 70
     1
102
RTVSPropertyOp7
 70
     1
102
RTVSPropertyOp8
 70
     1
102
RTVSPropertyOp9
 70
     1
102
RTVSPropertyOp10
 70
     1
102
RTVSPropertyOp11
 70
     1
102
RTVSPropertyOp12
 70
     1
102
RTVSPropertyOp13
 70
     1
102
RTVSPropertyOp14
 70
     1
102
RTVSPropertyOp15
 70
     1
102
RTVSPropertyOp16
 70
     1
102
RTVSPropertyOp17
 70
     1
102
RTVSPropertyOp18
 70
     1
102
RTVSPropertyOp19
 70
     1
102
RTVSPropertyOp20
 70
     1
102
RTVSPropertyOp21
 70
     1
102
RTVSPropertyOp22
 70
     1
102
RTVSPropertyOp23
 70
     1
102
RTVSPropertyOp24
 70
     1
102
RTVSPropertyOp25
 70
     1
102
RTVSPropertyOp26
 70
     1
102
RTVSPropertyOp27
 70
     1
  0
XRECORD
  5
2D17
102
{ACAD_REACTORS
330
2D16
102
}
330
2D16
100
AcDbXrecord
280
     1
102
RTVSPropertyOp0
 70
     1
102
RTVSPropertyOp1
 70
     1
102
RTVSPropertyOp2
 70
     1
102
RTVSPropertyOp3
 70
     1
102
RTVSPropertyOp4
 70
     1
102
RTVSPropertyOp5
 70
     1
102
RTVSPropertyOp6
 70
     1
102
RTVSPropertyOp7
 70
     1
102
RTVSPropertyOp8
 70
     1
102
RTVSPropertyOp9
 70
     1
102
RTVSPropertyOp10
 70
     1
102
RTVSPropertyOp11
 70
     1
102
RTVSPropertyOp12
 70
     1
102
RTVSPropertyOp13
 70
     1
102
RTVSPropertyOp14
 70
     1
102
RTVSPropertyOp15
 70
     1
102
RTVSPropertyOp16
 70
     1
102
RTVSPropertyOp17
 70
     1
102
RTVSPropertyOp18
 70
     1
102
RTVSPropertyOp19
 70
     1
102
RTVSPropertyOp20
 70
     1
102
RTVSPropertyOp21
 70
     1
102
RTVSPropertyOp22
 70
     1
102
RTVSPropertyOp23
 70
     1
102
RTVSPropertyOp24
 70
     1
102
RTVSPropertyOp25
 70
     1
102
RTVSPropertyOp26
 70
     1
102
RTVSPropertyOp27
 70
     1
  0
XRECORD
  5
2D27
102
{ACAD_REACTORS
330
2D26
102
}
330
2D26
100
AcDbXrecord
280
     1
102
RTVSPropertyOp0
 70
     0
102
RTVSPropertyOp1
 70
     0
102
RTVSPropertyOp2
 70
     0
102
RTVSPropertyOp3
 70
     0
102
RTVSPropertyOp4
 70
     0
102
RTVSPropertyOp5
 70
     0
102
RTVSPropertyOp6
 70
     0
102
RTVSPropertyOp7
 70
     0
102
RTVSPropertyOp8
 70
     0
102
RTVSPropertyOp9
 70
     0
102
RTVSPropertyOp10
 70
     0
102
RTVSPropertyOp11
 70
     0
102
RTVSPropertyOp12
 70
     0
102
RTVSPropertyOp13
 70
     0
102
RTVSPropertyOp14
 70
     2
102
RTVSPropertyOp15
 70
     0
102
RTVSPropertyOp16
 70
     0
102
RTVSPropertyOp17
 70
     0
102
RTVSPropertyOp18
 70
     0
102
RTVSPropertyOp19
 70
     0
102
RTVSPropertyOp20
 70
     0
102
RTVSPropertyOp21
 70
     0
102
RTVSPropertyOp22
 70
     0
102
RTVSPropertyOp23
 70
     0
102
RTVSPropertyOp24
 70
     0
102
RTVSPropertyOp25
 70
     0
102
RTVSPropertyOp26
 70
     0
102
RTVSPropertyOp27
 70
     0
  0
XRECORD
  5
2D1F
102
{ACAD_REACTORS
330
2D1E
102
}
330
2D1E
100
AcDbXrecord
280
     1
102
RTVSPropertyOp0
 70
     1
102
RTVSPropertyOp1
 70
     1
102
RTVSPropertyOp2
 70
     1
102
RTVSPropertyOp3
 70
     1
102
RTVSPropertyOp4
 70
     1
102
RTVSPropertyOp5
 70
     1
102
RTVSPropertyOp6
 70
     1
102
RTVSPropertyOp7
 70
     1
102
RTVSPropertyOp8
 70
     1
102
RTVSPropertyOp9
 70
     1
102
RTVSPropertyOp10
 70
     1
102
RTVSPropertyOp11
 70
     1
102
RTVSPropertyOp12
 70
     1
102
RTVSPropertyOp13
 70
     1
102
RTVSPropertyOp14
 70
     1
102
RTVSPropertyOp15
 70
     1
102
RTVSPropertyOp16
 70
     1
102
RTVSPropertyOp17
 70
     1
102
RTVSPropertyOp18
 70
     1
102
RTVSPropertyOp19
 70
     1
102
RTVSPropertyOp20
 70
     1
102
RTVSPropertyOp21
 70
     1
102
RTVSPropertyOp22
 70
     1
102
RTVSPropertyOp23
 70
     1
102
RTVSPropertyOp24
 70
     1
102
RTVSPropertyOp25
 70
     1
102
RTVSPropertyOp26
 70
     1
102
RTVSPropertyOp27
 70
     1
  0
XRECORD
  5
2D03
102
{ACAD_REACTORS
330
2D02
102
}
330
2D02
100
AcDbXrecord
280
     1
102
RTVSPropertyOp0
 70
     1
102
RTVSPropertyOp1
 70
     1
102
RTVSPropertyOp2
 70
     1
102
RTVSPropertyOp3
 70
     1
102
RTVSPropertyOp4
 70
     1
102
RTVSPropertyOp5
 70
     1
102
RTVSPropertyOp6
 70
     1
102
RTVSPropertyOp7
 70
     1
102
RTVSPropertyOp8
 70
     1
102
RTVSPropertyOp9
 70
     1
102
RTVSPropertyOp10
 70
     1
102
RTVSPropertyOp11
 70
     1
102
RTVSPropertyOp12
 70
     1
102
RTVSPropertyOp13
 70
     1
102
RTVSPropertyOp14
 70
     1
102
RTVSPropertyOp15
 70
     1
102
RTVSPropertyOp16
 70
     1
102
RTVSPropertyOp17
 70
     1
102
RTVSPropertyOp18
 70
     1
102
RTVSPropertyOp19
 70
     1
102
RTVSPropertyOp20
 70
     1
102
RTVSPropertyOp21
 70
     1
102
RTVSPropertyOp22
 70
     1
102
RTVSPropertyOp23
 70
     1
102
RTVSPropertyOp24
 70
     1
102
RTVSPropertyOp25
 70
     1
102
RTVSPropertyOp26
 70
     1
102
RTVSPropertyOp27
 70
     1
  0
XRECORD
  5
2D05
102
{ACAD_REACTORS
330
2D04
102
}
330
2D04
100
AcDbXrecord
280
     1
102
RTVSPropertyOp0
 70
     1
102
RTVSPropertyOp1
 70
     1
102
RTVSPropertyOp2
 70
     1
102
RTVSPropertyOp3
 70
     1
102
RTVSPropertyOp4
 70
     1
102
RTVSPropertyOp5
 70
     1
102
RTVSPropertyOp6
 70
     1
102
RTVSPropertyOp7
 70
     1
102
RTVSPropertyOp8
 70
     1
102
RTVSPropertyOp9
 70
     1
102
RTVSPropertyOp10
 70
     1
102
RTVSPropertyOp11
 70
     1
102
RTVSPropertyOp12
 70
     1
102
RTVSPropertyOp13
 70
     1
102
RTVSPropertyOp14
 70
     1
102
RTVSPropertyOp15
 70
     1
102
RTVSPropertyOp16
 70
     1
102
RTVSPropertyOp17
 70
     1
102
RTVSPropertyOp18
 70
     1
102
RTVSPropertyOp19
 70
     1
102
RTVSPropertyOp20
 70
     1
102
RTVSPropertyOp21
 70
     1
102
RTVSPropertyOp22
 70
     1
102
RTVSPropertyOp23
 70
     1
102
RTVSPropertyOp24
 70
     1
102
RTVSPropertyOp25
 70
     1
102
RTVSPropertyOp26
 70
     1
102
RTVSPropertyOp27
 70
     1
  0
XRECORD
  5
2D07
102
{ACAD_REACTORS
330
2D06
102
}
330
2D06
100
AcDbXrecord
280
     1
102
RTVSPropertyOp0
 70
     1
102
RTVSPropertyOp1
 70
     1
102
RTVSPropertyOp2
 70
     1
102
RTVSPropertyOp3
 70
     1
102
RTVSPropertyOp4
 70
     1
102
RTVSPropertyOp5
 70
     1
102
RTVSPropertyOp6
 70
     1
102
RTVSPropertyOp7
 70
     1
102
RTVSPropertyOp8
 70
     1
102
RTVSPropertyOp9
 70
     1
102
RTVSPropertyOp10
 70
     1
102
RTVSPropertyOp11
 70
     1
102
RTVSPropertyOp12
 70
     1
102
RTVSPropertyOp13
 70
     1
102
RTVSPropertyOp14
 70
     1
102
RTVSPropertyOp15
 70
     1
102
RTVSPropertyOp16
 70
     1
102
RTVSPropertyOp17
 70
     1
102
RTVSPropertyOp18
 70
     1
102
RTVSPropertyOp19
 70
     1
102
RTVSPropertyOp20
 70
     1
102
RTVSPropertyOp21
 70
     1
102
RTVSPropertyOp22
 70
     1
102
RTVSPropertyOp23
 70
     1
102
RTVSPropertyOp24
 70
     1
102
RTVSPropertyOp25
 70
     1
102
RTVSPropertyOp26
 70
     1
102
RTVSPropertyOp27
 70
     1
  0
XRECORD
  5
2D09
102
{ACAD_REACTORS
330
2D08
102
}
330
2D08
100
AcDbXrecord
280
     1
102
RTVSPropertyOp0
 70
     1
102
RTVSPropertyOp1
 70
     1
102
RTVSPropertyOp2
 70
     1
102
RTVSPropertyOp3
 70
     1
102
RTVSPropertyOp4
 70
     1
102
RTVSPropertyOp5
 70
     1
102
RTVSPropertyOp6
 70
     1
102
RTVSPropertyOp7
 70
     1
102
RTVSPropertyOp8
 70
     1
102
RTVSPropertyOp9
 70
     1
102
RTVSPropertyOp10
 70
     1
102
RTVSPropertyOp11
 70
     1
102
RTVSPropertyOp12
 70
     1
102
RTVSPropertyOp13
 70
     1
102
RTVSPropertyOp14
 70
     1
102
RTVSPropertyOp15
 70
     1
102
RTVSPropertyOp16
 70
     1
102
RTVSPropertyOp17
 70
     1
102
RTVSPropertyOp18
 70
     1
102
RTVSPropertyOp19
 70
     1
102
RTVSPropertyOp20
 70
     1
102
RTVSPropertyOp21
 70
     1
102
RTVSPropertyOp22
 70
     1
102
RTVSPropertyOp23
 70
     1
102
RTVSPropertyOp24
 70
     1
102
RTVSPropertyOp25
 70
     1
102
RTVSPropertyOp26
 70
     1
102
RTVSPropertyOp27
 70
     1
  0
XRECORD
  5
1B0
102
{ACAD_REACTORS
330
1AF
102
}
330
1AF
100
AcDbXrecord
280
     1
102
RTVSPropertyOp28
 70
     1
102
RTVSPropertyOp29
 70
     1
102
RTVSPropertyOp30
 70
     1
102
RTVSPropertyOp31
 70
     1
102
RTVSPropertyOp32
 70
     1
102
RTVSPropertyOp0
 70
     1
102
RTVSPropertyOp1
 70
     1
102
RTVSPropertyOp2
 70
     1
102
RTVSPropertyOp3
 70
     1
102
RTVSPropertyOp4
 70
     1
102
RTVSPropertyOp5
 70
     1
102
RTVSPropertyOp6
 70
     1
102
RTVSPropertyOp7
 70
     1
102
RTVSPropertyOp8
 70
     1
102
RTVSPropertyOp9
 70
     1
102
RTVSPropertyOp10
 70
     1
102
RTVSPropertyOp11
 70
     1
102
RTVSPropertyOp12
 70
     1
102
RTVSPropertyOp13
 70
     1
102
RTVSPropertyOp14
 70
     1
102
RTVSPropertyOp15
 70
     1
102
RTVSPropertyOp16
 70
     1
102
RTVSPropertyOp17
 70
     1
102
RTVSPropertyOp18
 70
     1
102
RTVSPropertyOp19
 70
     1
102
RTVSPropertyOp20
 70
     1
102
RTVSPropertyOp21
 70
     1
102
RTVSPropertyOp22
 70
     1
102
RTVSPropertyOp23
 70
     1
102
RTVSPropertyOp24
 70
     1
102
RTVSPropertyOp25
 70
     1
102
RTVSPropertyOp26
 70
     1
102
RTVSPropertyOp27
 70
     1
  0
XRECORD
  5
2D23
102
{ACAD_REACTORS
330
2D22
102
}
330
2D22
100
AcDbXrecord
280
     1
102
RTVSPropertyOp0
 70
     0
102
RTVSPropertyOp1
 70
     0
102
RTVSPropertyOp2
 70
     0
102
RTVSPropertyOp3
 70
     0
102
RTVSPropertyOp4
 70
     0
102
RTVSPropertyOp5
 70
     0
102
RTVSPropertyOp6
 70
     0
102
RTVSPropertyOp7
 70
     0
102
RTVSPropertyOp8
 70
     0
102
RTVSPropertyOp9
 70
     0
102
RTVSPropertyOp10
 70
     0
102
RTVSPropertyOp11
 70
     0
102
RTVSPropertyOp12
 70
     0
102
RTVSPropertyOp13
 70
     0
102
RTVSPropertyOp14
 70
     2
102
RTVSPropertyOp15
 70
     0
102
RTVSPropertyOp16
 70
     0
102
RTVSPropertyOp17
 70
     0
102
RTVSPropertyOp18
 70
     0
102
RTVSPropertyOp19
 70
     0
102
RTVSPropertyOp20
 70
     0
102
RTVSPropertyOp21
 70
     0
102
RTVSPropertyOp22
 70
     0
102
RTVSPropertyOp23
 70
     0
102
RTVSPropertyOp24
 70
     0
102
RTVSPropertyOp25
 70
     0
102
RTVSPropertyOp26
 70
     0
102
RTVSPropertyOp27
 70
     0
  0
XRECORD
  5
2D1D
102
{ACAD_REACTORS
330
2D1C
102
}
330
2D1C
100
AcDbXrecord
280
     1
102
RTVSPropertyOp0
 70
     1
102
RTVSPropertyOp1
 70
     1
102
RTVSPropertyOp2
 70
     1
102
RTVSPropertyOp3
 70
     1
102
RTVSPropertyOp4
 70
     1
102
RTVSPropertyOp5
 70
     1
102
RTVSPropertyOp6
 70
     1
102
RTVSPropertyOp7
 70
     1
102
RTVSPropertyOp8
 70
     1
102
RTVSPropertyOp9
 70
     1
102
RTVSPropertyOp10
 70
     1
102
RTVSPropertyOp11
 70
     1
102
RTVSPropertyOp12
 70
     1
102
RTVSPropertyOp13
 70
     1
102
RTVSPropertyOp14
 70
     1
102
RTVSPropertyOp15
 70
     1
102
RTVSPropertyOp16
 70
     1
102
RTVSPropertyOp17
 70
     1
102
RTVSPropertyOp18
 70
     1
102
RTVSPropertyOp19
 70
     1
102
RTVSPropertyOp20
 70
     1
102
RTVSPropertyOp21
 70
     1
102
RTVSPropertyOp22
 70
     1
102
RTVSPropertyOp23
 70
     1
102
RTVSPropertyOp24
 70
     1
102
RTVSPropertyOp25
 70
     1
102
RTVSPropertyOp26
 70
     1
102
RTVSPropertyOp27
 70
     1
  0
XRECORD
  5
2D25
102
{ACAD_REACTORS
330
2D24
102
}
330
2D24
100
AcDbXrecord
280
     1
102
RTVSPropertyOp0
 70
     0
102
RTVSPropertyOp1
 70
     0
102
RTVSPropertyOp2
 70
     0
102
RTVSPropertyOp3
 70
     0
102
RTVSPropertyOp4
 70
     0
102
RTVSPropertyOp5
 70
     0
102
RTVSPropertyOp6
 70
     0
102
RTVSPropertyOp7
 70
     0
102
RTVSPropertyOp8
 70
     0
102
RTVSPropertyOp9
 70
     0
102
RTVSPropertyOp10
 70
     0
102
RTVSPropertyOp11
 70
     0
102
RTVSPropertyOp12
 70
     0
102
RTVSPropertyOp13
 70
     0
102
RTVSPropertyOp14
 70
     2
102
RTVSPropertyOp15
 70
     0
102
RTVSPropertyOp16
 70
     0
102
RTVSPropertyOp17
 70
     0
102
RTVSPropertyOp18
 70
     0
102
RTVSPropertyOp19
 70
     0
102
RTVSPropertyOp20
 70
     0
102
RTVSPropertyOp21
 70
     0
102
RTVSPropertyOp22
 70
     0
102
RTVSPropertyOp23
 70
     0
102
RTVSPropertyOp24
 70
     0
102
RTVSPropertyOp25
 70
     0
102
RTVSPropertyOp26
 70
     0
102
RTVSPropertyOp27
 70
     0
  0
XRECORD
  5
2D15
102
{ACAD_REACTORS
330
2D14
102
}
330
2D14
100
AcDbXrecord
280
     1
102
RTVSPropertyOp0
 70
     1
102
RTVSPropertyOp1
 70
     1
102
RTVSPropertyOp2
 70
     1
102
RTVSPropertyOp3
 70
     1
102
RTVSPropertyOp4
 70
     1
102
RTVSPropertyOp5
 70
     1
102
RTVSPropertyOp6
 70
     1
102
RTVSPropertyOp7
 70
     1
102
RTVSPropertyOp8
 70
     1
102
RTVSPropertyOp9
 70
     1
102
RTVSPropertyOp10
 70
     1
102
RTVSPropertyOp11
 70
     1
102
RTVSPropertyOp12
 70
     1
102
RTVSPropertyOp13
 70
     1
102
RTVSPropertyOp14
 70
     1
102
RTVSPropertyOp15
 70
     1
102
RTVSPropertyOp16
 70
     1
102
RTVSPropertyOp17
 70
     1
102
RTVSPropertyOp18
 70
     1
102
RTVSPropertyOp19
 70
     1
102
RTVSPropertyOp20
 70
     1
102
RTVSPropertyOp21
 70
     1
102
RTVSPropertyOp22
 70
     1
102
RTVSPropertyOp23
 70
     1
102
RTVSPropertyOp24
 70
     1
102
RTVSPropertyOp25
 70
     1
102
RTVSPropertyOp26
 70
     1
102
RTVSPropertyOp27
 70
     1
  0
XRECORD
  5
1B3
102
{ACAD_REACTORS
330
1B2
102
}
330
1B2
100
AcDbXrecord
280
     1
102
RTVSPropertyOp28
 70
     1
102
RTVSPropertyOp29
 70
     1
102
RTVSPropertyOp30
 70
     1
102
RTVSPropertyOp31
 70
     1
102
RTVSPropertyOp32
 70
     1
102
RTVSPropertyOp0
 70
     1
102
RTVSPropertyOp1
 70
     1
102
RTVSPropertyOp2
 70
     1
102
RTVSPropertyOp3
 70
     1
102
RTVSPropertyOp4
 70
     1
102
RTVSPropertyOp5
 70
     1
102
RTVSPropertyOp6
 70
     1
102
RTVSPropertyOp7
 70
     1
102
RTVSPropertyOp8
 70
     1
102
RTVSPropertyOp9
 70
     1
102
RTVSPropertyOp10
 70
     1
102
RTVSPropertyOp11
 70
     1
102
RTVSPropertyOp12
 70
     1
102
RTVSPropertyOp13
 70
     1
102
RTVSPropertyOp14
 70
     1
102
RTVSPropertyOp15
 70
     1
102
RTVSPropertyOp16
 70
     1
102
RTVSPropertyOp17
 70
     1
102
RTVSPropertyOp18
 70
     1
102
RTVSPropertyOp19
 70
     1
102
RTVSPropertyOp20
 70
     1
102
RTVSPropertyOp21
 70
     1
102
RTVSPropertyOp22
 70
     1
102
RTVSPropertyOp23
 70
     1
102
RTVSPropertyOp24
 70
     1
102
RTVSPropertyOp25
 70
     1
102
RTVSPropertyOp26
 70
     1
102
RTVSPropertyOp27
 70
     1
  0
XRECORD
  5
1B6
102
{ACAD_REACTORS
330
1B5
102
}
330
1B5
100
AcDbXrecord
280
     1
102
RTVSPropertyOp28
 70
     1
102
RTVSPropertyOp29
 70
     1
102
RTVSPropertyOp30
 70
     1
102
RTVSPropertyOp31
 70
     1
102
RTVSPropertyOp32
 70
     1
102
RTVSPropertyOp0
 70
     1
102
RTVSPropertyOp1
 70
     1
102
RTVSPropertyOp2
 70
     1
102
RTVSPropertyOp3
 70
     1
102
RTVSPropertyOp4
 70
     1
102
RTVSPropertyOp5
 70
     1
102
RTVSPropertyOp6
 70
     1
102
RTVSPropertyOp7
 70
     1
102
RTVSPropertyOp8
 70
     1
102
RTVSPropertyOp9
 70
     1
102
RTVSPropertyOp10
 70
     1
102
RTVSPropertyOp11
 70
     1
102
RTVSPropertyOp12
 70
     1
102
RTVSPropertyOp13
 70
     1
102
RTVSPropertyOp14
 70
     1
102
RTVSPropertyOp15
 70
     1
102
RTVSPropertyOp16
 70
     1
102
RTVSPropertyOp17
 70
     1
102
RTVSPropertyOp18
 70
     1
102
RTVSPropertyOp19
 70
     1
102
RTVSPropertyOp20
 70
     1
102
RTVSPropertyOp21
 70
     1
102
RTVSPropertyOp22
 70
     1
102
RTVSPropertyOp23
 70
     1
102
RTVSPropertyOp24
 70
     1
102
RTVSPropertyOp25
 70
     1
102
RTVSPropertyOp26
 70
     1
102
RTVSPropertyOp27
 70
     1
  0
XRECORD
  5
1B9
102
{ACAD_REACTORS
330
1B8
102
}
330
1B8
100
AcDbXrecord
280
     1
102
RTVSPropertyOp28
 70
     1
102
RTVSPropertyOp29
 70
     1
102
RTVSPropertyOp30
 70
     1
102
RTVSPropertyOp31
 70
     1
102
RTVSPropertyOp32
 70
     1
102
RTVSPropertyOp0
 70
     1
102
RTVSPropertyOp1
 70
     1
102
RTVSPropertyOp2
 70
     1
102
RTVSPropertyOp3
 70
     1
102
RTVSPropertyOp4
 70
     1
102
RTVSPropertyOp5
 70
     1
102
RTVSPropertyOp6
 70
     1
102
RTVSPropertyOp7
 70
     1
102
RTVSPropertyOp8
 70
     1
102
RTVSPropertyOp9
 70
     1
102
RTVSPropertyOp10
 70
     1
102
RTVSPropertyOp11
 70
     1
102
RTVSPropertyOp12
 70
     1
102
RTVSPropertyOp13
 70
     1
102
RTVSPropertyOp14
 70
     1
102
RTVSPropertyOp15
 70
     1
102
RTVSPropertyOp16
 70
     1
102
RTVSPropertyOp17
 70
     1
102
RTVSPropertyOp18
 70
     1
102
RTVSPropertyOp19
 70
     1
102
RTVSPropertyOp20
 70
     1
102
RTVSPropertyOp21
 70
     1
102
RTVSPropertyOp22
 70
     1
102
RTVSPropertyOp23
 70
     1
102
RTVSPropertyOp24
 70
     1
102
RTVSPropertyOp25
 70
     1
102
RTVSPropertyOp26
 70
     1
102
RTVSPropertyOp27
 70
     1
  0
XRECORD
  5
1BC
102
{ACAD_REACTORS
330
1BB
102
}
330
1BB
100
AcDbXrecord
280
     1
102
RTVSPropertyOp28
 70
     1
102
RTVSPropertyOp29
 70
     1
102
RTVSPropertyOp30
 70
     1
102
RTVSPropertyOp31
 70
     1
102
RTVSPropertyOp32
 70
     1
102
RTVSPropertyOp0
 70
     1
102
RTVSPropertyOp1
 70
     1
102
RTVSPropertyOp2
 70
     1
102
RTVSPropertyOp3
 70
     1
102
RTVSPropertyOp4
 70
     1
102
RTVSPropertyOp5
 70
     1
102
RTVSPropertyOp6
 70
     1
102
RTVSPropertyOp7
 70
     1
102
RTVSPropertyOp8
 70
     1
102
RTVSPropertyOp9
 70
     1
102
RTVSPropertyOp10
 70
     1
102
RTVSPropertyOp11
 70
     1
102
RTVSPropertyOp12
 70
     1
102
RTVSPropertyOp13
 70
     1
102
RTVSPropertyOp14
 70
     1
102
RTVSPropertyOp15
 70
     1
102
RTVSPropertyOp16
 70
     1
102
RTVSPropertyOp17
 70
     1
102
RTVSPropertyOp18
 70
     1
102
RTVSPropertyOp19
 70
     1
102
RTVSPropertyOp20
 70
     1
102
RTVSPropertyOp21
 70
     1
102
RTVSPropertyOp22
 70
     1
102
RTVSPropertyOp23
 70
     1
102
RTVSPropertyOp24
 70
     1
102
RTVSPropertyOp25
 70
     1
102
RTVSPropertyOp26
 70
     1
102
RTVSPropertyOp27
 70
     1
  0
XRECORD
  5
2D1B
102
{ACAD_REACTORS
330
2D1A
102
}
330
2D1A
100
AcDbXrecord
280
     1
102
RTVSPropertyOp0
 70
     1
102
RTVSPropertyOp1
 70
     1
102
RTVSPropertyOp2
 70
     1
102
RTVSPropertyOp3
 70
     1
102
RTVSPropertyOp4
 70
     1
102
RTVSPropertyOp5
 70
     1
102
RTVSPropertyOp6
 70
     1
102
RTVSPropertyOp7
 70
     1
102
RTVSPropertyOp8
 70
     1
102
RTVSPropertyOp9
 70
     1
102
RTVSPropertyOp10
 70
     1
102
RTVSPropertyOp11
 70
     1
102
RTVSPropertyOp12
 70
     1
102
RTVSPropertyOp13
 70
     1
102
RTVSPropertyOp14
 70
     1
102
RTVSPropertyOp15
 70
     1
102
RTVSPropertyOp16
 70
     1
102
RTVSPropertyOp17
 70
     1
102
RTVSPropertyOp18
 70
     1
102
RTVSPropertyOp19
 70
     1
102
RTVSPropertyOp20
 70
     1
102
RTVSPropertyOp21
 70
     1
102
RTVSPropertyOp22
 70
     1
102
RTVSPropertyOp23
 70
     1
102
RTVSPropertyOp24
 70
     1
102
RTVSPropertyOp25
 70
     1
102
RTVSPropertyOp26
 70
     1
102
RTVSPropertyOp27
 70
     1
  0
XRECORD
  5
1BF
102
{ACAD_REACTORS
330
1BE
102
}
330
1BE
100
AcDbXrecord
280
     1
102
RTVSPropertyOp28
 70
     1
102
RTVSPropertyOp29
 70
     1
102
RTVSPropertyOp30
 70
     1
102
RTVSPropertyOp31
 70
     1
102
RTVSPropertyOp32
 70
     1
102
RTVSPropertyOp0
 70
     1
102
RTVSPropertyOp1
 70
     1
102
RTVSPropertyOp2
 70
     1
102
RTVSPropertyOp3
 70
     1
102
RTVSPropertyOp4
 70
     1
102
RTVSPropertyOp5
 70
     1
102
RTVSPropertyOp6
 70
     1
102
RTVSPropertyOp7
 70
     1
102
RTVSPropertyOp8
 70
     1
102
RTVSPropertyOp9
 70
     1
102
RTVSPropertyOp10
 70
     1
102
RTVSPropertyOp11
 70
     1
102
RTVSPropertyOp12
 70
     1
102
RTVSPropertyOp13
 70
     1
102
RTVSPropertyOp14
 70
     1
102
RTVSPropertyOp15
 70
     1
102
RTVSPropertyOp16
 70
     1
102
RTVSPropertyOp17
 70
     1
102
RTVSPropertyOp18
 70
     1
102
RTVSPropertyOp19
 70
     1
102
RTVSPropertyOp20
 70
     1
102
RTVSPropertyOp21
 70
     1
102
RTVSPropertyOp22
 70
     1
102
RTVSPropertyOp23
 70
     1
102
RTVSPropertyOp24
 70
     1
102
RTVSPropertyOp25
 70
     1
102
RTVSPropertyOp26
 70
     1
102
RTVSPropertyOp27
 70
     1
  0
XRECORD
  5
1C2
102
{ACAD_REACTORS
330
1C1
102
}
330
1C1
100
AcDbXrecord
280
     1
102
RTVSPropertyOp28
 70
     1
102
RTVSPropertyOp29
 70
     1
102
RTVSPropertyOp30
 70
     1
102
RTVSPropertyOp31
 70
     1
102
RTVSPropertyOp32
 70
     1
102
RTVSPropertyOp0
 70
     1
102
RTVSPropertyOp1
 70
     1
102
RTVSPropertyOp2
 70
     1
102
RTVSPropertyOp3
 70
     1
102
RTVSPropertyOp4
 70
     1
102
RTVSPropertyOp5
 70
     1
102
RTVSPropertyOp6
 70
     1
102
RTVSPropertyOp7
 70
     1
102
RTVSPropertyOp8
 70
     1
102
RTVSPropertyOp9
 70
     1
102
RTVSPropertyOp10
 70
     1
102
RTVSPropertyOp11
 70
     1
102
RTVSPropertyOp12
 70
     1
102
RTVSPropertyOp13
 70
     1
102
RTVSPropertyOp14
 70
     1
102
RTVSPropertyOp15
 70
     1
102
RTVSPropertyOp16
 70
     1
102
RTVSPropertyOp17
 70
     1
102
RTVSPropertyOp18
 70
     1
102
RTVSPropertyOp19
 70
     1
102
RTVSPropertyOp20
 70
     1
102
RTVSPropertyOp21
 70
     1
102
RTVSPropertyOp22
 70
     1
102
RTVSPropertyOp23
 70
     1
102
RTVSPropertyOp24
 70
     1
102
RTVSPropertyOp25
 70
     1
102
RTVSPropertyOp26
 70
     1
102
RTVSPropertyOp27
 70
     1
  0
DMBASEELEMENT
  5
182
102
{ACAD_XDICTIONARY
360
186
102
}
102
{ACAD_REACTORS
330
17F
102
}
330
17F
100
AcMapDMBaseElement
 70
     1
  1
Map Base
 70
     1
330
17F
100
AcMapDMBaseElement
 70
     1
  1

 70
     2
  1

 70
     1
 40
1.797693134862314E+99
 70
     1
 70
     1
 70
     1
 70
     1
360
185
100
AcMapDMBaseElement
 70
     1
  0
DMDEFAULTSTYLE
  5
183
102
{ACAD_REACTORS
330
17F
102
}
330
17F
100
AcMapDMDefaultStyle
 70
     1
 90
        1
  1
Default
100
AcMapDMDefaultStyle
 70
     1
280
   100
 90
     0
1001
AcMapDMDisplayStyleRegapp
1070
     2
1071
        1
1000
Default
1000

  0
DICTIONARY
  5
186
330
182
100
AcDbDictionary
280
     1
281
     1
  3
AcMapDMSurrogateStyleSets
360
187
  0
DMSTYLEREFERENCE
  5
185
330
182
100
AcMapDMStyleReference
 70
     1
 70
     0
340
183
330
17F
  0
DMSURROGATESTYLESETS
  5
187
102
{ACAD_REACTORS
330
186
102
}
330
186
100
AcMapDMSurrogateStyleSets
 70
     1
  1
Map Base
 70
     1
 40
1.797693134862314E+99
 70
     1
 70
     1
 70
     1
 70
     1
330
185
 70
     0
  0
ENDSEC
  0
EOF
