  0
SECTION
  2
HEADER
  9
$ACADVER
  1
AC1018
  9
$ACADMAINTVER
 70
   104
  9
$DWGCODEPAGE
  3
ANSI_1252
  9
$LASTSAVEDBY
  1
Joseph H Fortier
  9
$INSBASE
 10
0.0
 20
0.0
 30
0.0
  9
$EXTMIN
 10
-0.8951802582263113
 20
0.001149371789019
 30
0.0
  9
$EXTMAX
 10
9.642500000000001
 20
7.126149371789017
 30
0.0
  9
$LIMMIN
 10
0.0
 20
0.0
  9
$LIMMAX
 10
12.0
 20
9.0
  9
$ORTHOMODE
 70
     1
  9
$REGENMODE
 70
     1
  9
$FILLMODE
 70
     1
  9
$QTEXTMODE
 70
     0
  9
$MIRRTEXT
 70
     0
  9
$LTSCALE
 40
1.0
  9
$ATTMODE
 70
     1
  9
$TEXTSIZE
 40
0.09
  9
$TRACEWID
 40
0.05
  9
$TEXTSTYLE
  7
DETAIL TEXT
  9
$CLAYER
  8
0
  9
$CELTYPE
  6
ByLayer
  9
$CECOLOR
 62
   256
  9
$CELTSCALE
 40
1.0
  9
$DISPSILH
 70
     0
  9
$DIMSCALE
 40
1.0
  9
$DIMASZ
 40
0.18
  9
$DIMEXO
 40
0.0625
  9
$DIMDLI
 40
0.38
  9
$DIMRND
 40
0.0
  9
$DIMDLE
 40
0.0
  9
$DIMEXE
 40
0.18
  9
$DIMTP
 40
0.0
  9
$DIMTM
 40
0.0
  9
$DIMTXT
 40
0.18
  9
$DIMCEN
 40
0.09
  9
$DIMTSZ
 40
0.0
  9
$DIMTOL
 70
     0
  9
$DIMLIM
 70
     0
  9
$DIMTIH
 70
     1
  9
$DIMTOH
 70
     1
  9
$DIMSE1
 70
     0
  9
$DIMSE2
 70
     0
  9
$DIMTAD
 70
     0
  9
$DIMZIN
 70
     0
  9
$DIMBLK
  1

  9
$DIMASO
 70
     1
  9
$DIMSHO
 70
     1
  9
$DIMPOST
  1

  9
$DIMAPOST
  1

  9
$DIMALT
 70
     0
  9
$DIMALTD
 70
     2
  9
$DIMALTF
 40
25.4
  9
$DIMLFAC
 40
1.0
  9
$DIMTOFL
 70
     0
  9
$DIMTVP
 40
0.0
  9
$DIMTIX
 70
     0
  9
$DIMSOXD
 70
     0
  9
$DIMSAH
 70
     0
  9
$DIMBLK1
  1

  9
$DIMBLK2
  1

  9
$DIMSTYLE
  2
Standard
  9
$DIMCLRD
 70
     0
  9
$DIMCLRE
 70
     0
  9
$DIMCLRT
 70
     0
  9
$DIMTFAC
 40
1.0
  9
$DIMGAP
 40
0.09
  9
$DIMJUST
 70
     0
  9
$DIMSD1
 70
     0
  9
$DIMSD2
 70
     0
  9
$DIMTOLJ
 70
     1
  9
$DIMTZIN
 70
     0
  9
$DIMALTZ
 70
     0
  9
$DIMALTTZ
 70
     0
  9
$DIMUPT
 70
     0
  9
$DIMDEC
 70
     4
  9
$DIMTDEC
 70
     4
  9
$DIMALTU
 70
     2
  9
$DIMALTTD
 70
     2
  9
$DIMTXSTY
  7
Standard
  9
$DIMAUNIT
 70
     0
  9
$DIMADEC
 70
     0
  9
$DIMALTRND
 40
0.0
  9
$DIMAZIN
 70
     0
  9
$DIMDSEP
 70
    46
  9
$DIMATFIT
 70
     3
  9
$DIMFRAC
 70
     0
  9
$DIMLDRBLK
  1

  9
$DIMLUNIT
 70
     2
  9
$DIMLWD
 70
    -2
  9
$DIMLWE
 70
    -2
  9
$DIMTMOVE
 70
     0
  9
$LUNITS
 70
     2
  9
$LUPREC
 70
     4
  9
$SKETCHINC
 40
0.1
  9
$FILLETRAD
 40
0.0
  9
$AUNITS
 70
     0
  9
$AUPREC
 70
     0
  9
$MENU
  1
.
  9
$ELEVATION
 40
0.0
  9
$PELEVATION
 40
0.0
  9
$THICKNESS
 40
0.0
  9
$LIMCHECK
 70
     0
  9
$CHAMFERA
 40
0.0
  9
$CHAMFERB
 40
0.0
  9
$CHAMFERC
 40
0.0
  9
$CHAMFERD
 40
0.0
  9
$SKPOLY
 70
     0
  9
$TDCREATE
 40
2456012.517465637
  9
$TDUCREATE
 40
2456012.809132303
  9
$TDUPDATE
 40
2456153.471213067
  9
$TDUUPDATE
 40
2456153.762879734
  9
$TDINDWG
 40
0.1157940972
  9
$TDUSRTIMER
 40
0.1157940972
  9
$USRTIMER
 70
     1
  9
$ANGBASE
 50
0.0
  9
$ANGDIR
 70
     0
  9
$PDMODE
 70
     0
  9
$PDSIZE
 40
0.0
  9
$PLINEWID
 40
0.0
  9
$SPLFRAME
 70
     0
  9
$SPLINETYPE
 70
     6
  9
$SPLINESEGS
 70
     8
  9
$HANDSEED
  5
1941
  9
$SURFTAB1
 70
     6
  9
$SURFTAB2
 70
     6
  9
$SURFTYPE
 70
     6
  9
$SURFU
 70
     6
  9
$SURFV
 70
     6
  9
$UCSBASE
  2

  9
$UCSNAME
  2

  9
$UCSORG
 10
0.0
 20
0.0
 30
0.0
  9
$UCSXDIR
 10
1.0
 20
0.0
 30
0.0
  9
$UCSYDIR
 10
0.0
 20
1.0
 30
0.0
  9
$UCSORTHOREF
  2

  9
$UCSORTHOVIEW
 70
     0
  9
$UCSORGTOP
 10
0.0
 20
0.0
 30
0.0
  9
$UCSORGBOTTOM
 10
0.0
 20
0.0
 30
0.0
  9
$UCSORGLEFT
 10
0.0
 20
0.0
 30
0.0
  9
$UCSORGRIGHT
 10
0.0
 20
0.0
 30
0.0
  9
$UCSORGFRONT
 10
0.0
 20
0.0
 30
0.0
  9
$UCSORGBACK
 10
0.0
 20
0.0
 30
0.0
  9
$PUCSBASE
  2

  9
$PUCSNAME
  2

  9
$PUCSORG
 10
0.0
 20
0.0
 30
0.0
  9
$PUCSXDIR
 10
1.0
 20
0.0
 30
0.0
  9
$PUCSYDIR
 10
0.0
 20
1.0
 30
0.0
  9
$PUCSORTHOREF
  2

  9
$PUCSORTHOVIEW
 70
     0
  9
$PUCSORGTOP
 10
0.0
 20
0.0
 30
0.0
  9
$PUCSORGBOTTOM
 10
0.0
 20
0.0
 30
0.0
  9
$PUCSORGLEFT
 10
0.0
 20
0.0
 30
0.0
  9
$PUCSORGRIGHT
 10
0.0
 20
0.0
 30
0.0
  9
$PUCSORGFRONT
 10
0.0
 20
0.0
 30
0.0
  9
$PUCSORGBACK
 10
0.0
 20
0.0
 30
0.0
  9
$USERI1
 70
     0
  9
$USERI2
 70
     0
  9
$USERI3
 70
     0
  9
$USERI4
 70
     0
  9
$USERI5
 70
     0
  9
$USERR1
 40
0.0
  9
$USERR2
 40
0.0
  9
$USERR3
 40
0.0
  9
$USERR4
 40
0.0
  9
$USERR5
 40
1.0
  9
$WORLDVIEW
 70
     1
  9
$SHADEDGE
 70
     3
  9
$SHADEDIF
 70
    70
  9
$TILEMODE
 70
     1
  9
$MAXACTVP
 70
    64
  9
$PINSBASE
 10
0.0
 20
0.0
 30
0.0
  9
$PLIMCHECK
 70
     0
  9
$PEXTMIN
 10
0.0
 20
0.0
 30
0.0
  9
$PEXTMAX
 10
0.0
 20
0.0
 30
0.0
  9
$PLIMMIN
 10
0.0
 20
0.0
  9
$PLIMMAX
 10
12.0
 20
9.0
  9
$UNITMODE
 70
     0
  9
$VISRETAIN
 70
     1
  9
$PLINEGEN
 70
     0
  9
$PSLTSCALE
 70
     1
  9
$TREEDEPTH
 70
  3020
  9
$CMLSTYLE
  2
Standard
  9
$CMLJUST
 70
     0
  9
$CMLSCALE
 40
1.0
  9
$PROXYGRAPHICS
 70
     1
  9
$MEASUREMENT
 70
     0
  9
$CELWEIGHT
370
    -1
  9
$ENDCAPS
280
     0
  9
$JOINSTYLE
280
     0
  9
$LWDISPLAY
290
     0
  9
$INSUNITS
 70
     0
  9
$HYPERLINKBASE
  1

  9
$STYLESHEET
  1

  9
$XEDIT
290
     1
  9
$CEPSNTYPE
380
     0
  9
$PSTYLEMODE
290
     1
  9
$FINGERPRINTGUID
  2
{54E25747-DECD-4F46-8E40-CC13C71438EE}
  9
$VERSIONGUID
  2
{063066C6-E178-49FF-A81E-022171709684}
  9
$EXTNAMES
290
     1
  9
$PSVPSCALE
 40
0.0
  9
$OLESTARTUP
290
     0
  9
$SORTENTS
280
   127
  9
$INDEXCTL
280
     0
  9
$HIDETEXT
280
     1
  9
$XCLIPFRAME
290
     0
  9
$HALOGAP
280
     0
  9
$OBSCOLOR
 70
   257
  9
$OBSLTYPE
280
     0
  9
$INTERSECTIONDISPLAY
280
     0
  9
$INTERSECTIONCOLOR
 70
   257
  9
$DIMASSOC
280
     2
  9
$PROJECTNAME
  1

  0
ENDSEC
  0
SECTION
  2
CLASSES
  0
CLASS
  1
ACDBDICTIONARYWDFLT
  2
AcDbDictionaryWithDefault
  3
ObjectDBX Classes
 90
        0
 91
        1
280
     0
281
     0
  0
CLASS
  1
DICTIONARYVAR
  2
AcDbDictionaryVar
  3
ObjectDBX Classes
 90
        0
 91
       13
280
     0
281
     0
  0
CLASS
  1
TABLESTYLE
  2
AcDbTableStyle
  3
ObjectDBX Classes
 90
     4095
 91
        2
280
     0
281
     0
  0
CLASS
  1
MATERIAL
  2
AcDbMaterial
  3
ObjectDBX Classes
 90
     1153
 91
        3
280
     0
281
     0
  0
CLASS
  1
VISUALSTYLE
  2
AcDbVisualStyle
  3
ObjectDBX Classes
 90
     4095
 91
       26
280
     0
281
     0
  0
CLASS
  1
SCALE
  2
AcDbScale
  3
ObjectDBX Classes
 90
     1153
 91
       33
280
     0
281
     0
  0
CLASS
  1
MLEADERSTYLE
  2
AcDbMLeaderStyle
  3
ACDB_MLEADERSTYLE_CLASS
 90
     4095
 91
        2
280
     0
281
     0
  0
CLASS
  1
CELLSTYLEMAP
  2
AcDbCellStyleMap
  3
ObjectDBX Classes
 90
     1152
 91
        6
280
     0
281
     0
  0
CLASS
  1
EXACXREFPANELOBJECT
  2
ExAcXREFPanelObject
  3
EXAC_ESW
 90
     1025
 91
        0
280
     0
281
     0
  0
CLASS
  1
NPOCOLLECTION
  2
AcDbImpNonPersistentObjectsCollection
  3
ObjectDBX Classes
 90
     1153
 91
        0
280
     0
281
     0
  0
CLASS
  1
LAYER_INDEX
  2
AcDbLayerIndex
  3
ObjectDBX Classes
 90
        0
 91
        0
280
     0
281
     0
  0
CLASS
  1
SPATIAL_INDEX
  2
AcDbSpatialIndex
  3
ObjectDBX Classes
 90
        0
 91
        0
280
     0
281
     0
  0
CLASS
  1
IDBUFFER
  2
AcDbIdBuffer
  3
ObjectDBX Classes
 90
        0
 91
        0
280
     0
281
     0
  0
CLASS
  1
DMMAPMANAGER
  2
AcMapDMMapManager
  3
AcMapDisplayManagement
 90
     1024
 91
        1
280
     0
281
     0
  0
CLASS
  1
DMSTYLELIBRARY
  2
AcMapDMStyleLibrary
  3
AcMapDisplayManagement
 90
     1024
 91
        1
280
     0
281
     0
  0
CLASS
  1
DMSTYLECATEGORY
  2
AcMapDMStyleCategory
  3
AcMapDisplayManagement
 90
     1024
 91
        1
280
     0
281
     0
  0
CLASS
  1
DATATABLE
  2
AcDbDataTable
  3
ObjectDBX Classes
 90
        0
 91
        1
280
     0
281
     0
  0
CLASS
  1
DMMAP
  2
AcMapDMMap
  3
AcMapDisplayManagement
 90
     1024
 91
        1
280
     0
281
     0
  0
CLASS
  1
DMBASEELEMENT
  2
AcMapDMBaseElement
  3
AcMapDisplayManagement
 90
     1024
 91
        1
280
     0
281
     0
  0
CLASS
  1
DMDEFAULTSTYLE
  2
AcMapDMDefaultStyle
  3
AcMapDisplayManagement
 90
     1024
 91
        1
280
     0
281
     0
  0
CLASS
  1
DMSTYLEREFERENCE
  2
AcMapDMStyleReference
  3
AcMapDisplayManagement
 90
     1024
 91
        1
280
     0
281
     0
  0
CLASS
  1
DMSURROGATESTYLESETS
  2
AcMapDMSurrogateStyleSets
  3
AcMapDisplayManagement
 90
     1153
 91
        1
280
     0
281
     0
  0
CLASS
  1
SORTENTSTABLE
  2
AcDbSortentsTable
  3
ObjectDBX Classes
 90
        0
 91
        3
280
     0
281
     0
  0
CLASS
  1
DMSTYLIZEDENTITIESTABLE
  2
AcMapDMStylizedEntitiesTable
  3
AcMapDisplayManagement
 90
     1024
 91
        1
280
     0
281
     0
  0
CLASS
  1
MAPGWSUNDOOBJECT
  2
AcMapGWSUndoRecorder
  3
AcMapFeatureSourceManager
 90
     1025
 91
        1
280
     0
281
     0
  0
CLASS
  1
SUN
  2
AcDbSun
  3
SCENEOE
 90
     1153
 91
        1
280
     0
281
     0
  0
CLASS
  1
GEODATA
  2
AcDbGeoData
  3
ObjectDBX Classes
 90
     4095
 91
        1
280
     0
281
     0
  0
CLASS
  1
SOLID_BACKGROUND
  2
AcDbSolidBackground
  3
SCENEOE
 90
     4095
 91
        0
280
     0
281
     0
  0
CLASS
  1
MAPRESOURCEMANAGEROBJECT
  2
AcMapResourceManager
  3
AcMapSharedComponents
 90
     1024
 91
        0
280
     0
281
     0
  0
CLASS
  1
MULTILEADER
  2
AcDbMLeader
  3
ACDB_MLEADER_CLASS
 90
     1025
 91
       11
280
     0
281
     1
  0
CLASS
  1
DIMASSOC
  2
AcDbDimAssoc
  3
"AcDbDimAssoc|Product Desc:     AcDim ARX App For Dimension|Company:          Autodesk, Inc.|WEB Address:      www.autodesk.com"
 90
        0
 91
        0
280
     0
281
     0
  0
CLASS
  1
AEC_REFEDIT_STATUS_TRACKER
  2
AecDbRefEditStatusTracker
  3
AecArchBase60|Product Desc: Autodesk Architectural Desktop 2007 |Company: Autodesk,Inc. |WEB Address: www.autodesk.com
 90
      129
 91
        0
280
     0
281
     0
  0
CLASS
  1
PLOTSETTINGS
  2
AcDbPlotSettings
  3
ObjectDBX Classes
 90
        0
 91
        1
280
     0
281
     0
  0
ENDSEC
  0
SECTION
  2
TABLES
  0
TABLE
  2
VPORT
  5
8
102
{ACAD_XDICTIONARY
360
189B
102
}
330
0
100
AcDbSymbolTable
 70
     1
  0
VPORT
  5
94
330
8
100
AcDbSymbolTableRecord
100
AcDbViewportTableRecord
  2
*Active
 70
     0
 10
0.0
 20
0.0
 11
1.0
 21
1.0
 12
4.373566868534405
 22
4.194104250571321
 13
0.0
 23
0.0
 14
0.5
 24
0.5
 15
0.5
 25
0.5
 16
0.0
 26
0.0
 36
1.0
 17
0.0
 27
0.0
 37
0.0
 40
7.174951644073259
 41
1.784580498866212
 42
50.0
 43
0.0
 44
0.0
 50
0.0
 51
0.0
 71
     0
 72
  1000
 73
     1
 74
     3
 75
     0
 76
     0
 77
     0
 78
     0
281
     0
 65
     1
110
0.0
120
0.0
130
0.0
111
1.0
121
0.0
131
0.0
112
0.0
122
1.0
132
0.0
 79
     0
146
0.0
1001
ACAD_NAV_VCDISPLAY
1070
     3
  0
ENDTAB
  0
TABLE
  2
LTYPE
  5
5
330
0
100
AcDbSymbolTable
 70
     3
  0
LTYPE
  5
14
330
5
100
AcDbSymbolTableRecord
100
AcDbLinetypeTableRecord
  2
ByBlock
 70
     0
  3

 72
    65
 73
     0
 40
0.0
  0
LTYPE
  5
15
330
5
100
AcDbSymbolTableRecord
100
AcDbLinetypeTableRecord
  2
ByLayer
 70
     0
  3

 72
    65
 73
     0
 40
0.0
  0
LTYPE
  5
16
330
5
100
AcDbSymbolTableRecord
100
AcDbLinetypeTableRecord
  2
Continuous
 70
     0
  3
Solid line
 72
    65
 73
     0
 40
0.0
  0
LTYPE
  5
1E8
330
5
100
AcDbSymbolTableRecord
100
AcDbLinetypeTableRecord
  2
DASHED2
 70
     0
  3
Dashed (.5x) _ _ _ _ _ _ _ _ _ _ _ _ _ _ _ _ _
 72
    65
 73
     2
 40
0.375
 49
0.25
 74
     0
 49
-0.125
 74
     0
  0
LTYPE
  5
1F2
330
5
100
AcDbSymbolTableRecord
100
AcDbLinetypeTableRecord
  2
HIDDEN
 70
     0
  3
Hidden __ __ __ __ __ __ __ __ __ __ __ __ __ _
 72
    65
 73
     2
 40
0.375
 49
0.25
 74
     0
 49
-0.125
 74
     0
  0
ENDTAB
  0
TABLE
  2
LAYER
  5
2
102
{ACAD_XDICTIONARY
360
20C
102
}
330
0
100
AcDbSymbolTable
 70
    12
  0
LAYER
  5
10
102
{ACAD_XDICTIONARY
360
E6
102
}
330
2
100
AcDbSymbolTableRecord
100
AcDbLayerTableRecord
  2
0
 70
     0
 62
     7
  6
Continuous
370
    -3
390
F
  0
LAYER
  5
1EC
330
2
100
AcDbSymbolTableRecord
100
AcDbLayerTableRecord
  2
NETAFIM-L-DETL-025M
 70
     0
 62
     2
  6
Continuous
370
    -3
390
F
  0
LAYER
  5
800
330
2
100
AcDbSymbolTableRecord
100
AcDbLayerTableRecord
  2
NETAFIM-LG-DETL-ANNO
 70
     0
 62
     1
  6
Continuous
370
    -3
390
F
  0
LAYER
  5
801
102
{ACAD_XDICTIONARY
360
802
102
}
330
2
100
AcDbSymbolTableRecord
100
AcDbLayerTableRecord
  2
NETAFIM-D-TEXT-025M
 70
     0
 62
     2
  6
Continuous
370
    -3
390
F
  0
LAYER
  5
803
102
{ACAD_XDICTIONARY
360
804
102
}
330
2
100
AcDbSymbolTableRecord
100
AcDbLayerTableRecord
  2
NETAFIM-D-070M
 70
     0
 62
     6
  6
Continuous
370
    -3
390
F
  0
LAYER
  5
805
102
{ACAD_XDICTIONARY
360
806
102
}
330
2
100
AcDbSymbolTableRecord
100
AcDbLayerTableRecord
  2
NETAFIM-D-NPLT
 70
     0
 62
     1
  6
Continuous
370
    -3
390
F
  0
LAYER
  5
807
330
2
100
AcDbSymbolTableRecord
100
AcDbLayerTableRecord
  2
NETAFIM-L-DETL-013M
 70
     0
 62
     1
  6
Continuous
370
    -3
390
F
  0
LAYER
  5
80E
102
{ACAD_XDICTIONARY
360
80F
102
}
330
2
100
AcDbSymbolTableRecord
100
AcDbLayerTableRecord
  2
NETAFIM-L-DETL-TEXT-LEADER-025M
 70
     0
 62
     2
  6
Continuous
370
    -3
390
F
1001
AcAecLayerStandard
1000

1000

  0
LAYER
  5
EB0
330
2
100
AcDbSymbolTableRecord
100
AcDbLayerTableRecord
  2
NETAFIM-L-DETL-035M
 70
     0
 62
     4
  6
Continuous
370
    -3
390
F
  0
LAYER
  5
EB1
330
2
100
AcDbSymbolTableRecord
100
AcDbLayerTableRecord
  2
NETAFIM-L-DETL-HIDD-035M
 70
     0
 62
     4
  6
HIDDEN
370
    -3
390
F
  0
LAYER
  5
EB2
330
2
100
AcDbSymbolTableRecord
100
AcDbLayerTableRecord
  2
NETAFIM-L-DETL-025M-TUBING
 70
     0
 62
    25
  6
Continuous
370
    -3
390
F
1001
AcAecLayerStandard
1000

1000

  0
LAYER
  5
11D2
330
2
100
AcDbSymbolTableRecord
100
AcDbLayerTableRecord
  2
NETAFIM-L-DETL-TEXT
 70
     0
 62
     1
  6
Continuous
370
    -3
390
F
1001
AcAecLayerStandard
1000

1000

1001
AcCmTransparency
1071
        0
  0
ENDTAB
  0
TABLE
  2
STYLE
  5
3
330
0
100
AcDbSymbolTable
 70
     6
  0
STYLE
  5
11
330
3
100
AcDbSymbolTableRecord
100
AcDbTextStyleTableRecord
  2
Standard
 70
     0
 40
0.0
 41
1.0
 50
0.0
 71
     0
 42
0.2
  3
arial.ttf
  4

1001
ACAD
1000
Arial
1071
       34
  0
STYLE
  5
180
330
3
100
AcDbSymbolTableRecord
100
AcDbTextStyleTableRecord
  2
Legend
 70
     0
 40
0.0
 41
1.0
 50
0.0
 71
     0
 42
0.2
  3
CALIBRI.TTF
  4

1001
ACAD
1000
Calibri
1071
      256
  0
STYLE
  5
1A9
330
3
100
AcDbSymbolTableRecord
100
AcDbTextStyleTableRecord
  2
DETAIL NUMBER
 70
     0
 40
0.0
 41
1.0
 50
0.0
 71
     0
 42
0.24
  3
swiss.ttf
  4

1001
ACAD
1000
Swis721 BT
1071
       34
  0
STYLE
  5
1AA
330
3
100
AcDbSymbolTableRecord
100
AcDbTextStyleTableRecord
  2
DETAIL TITLE
 70
     0
 40
0.0
 41
1.0
 50
0.0
 71
     0
 42
0.18
  3
swiss.ttf
  4

1001
ACAD
1000
Swis721 BT
1071
       34
  0
STYLE
  5
1AB
330
3
100
AcDbSymbolTableRecord
100
AcDbTextStyleTableRecord
  2
DETAIL TEXT
 70
     0
 40
0.0
 41
1.0
 50
0.0
 71
     0
 42
0.09
  3
ROMANS.SHX
  4

  0
STYLE
  5
810
330
3
100
AcDbSymbolTableRecord
100
AcDbTextStyleTableRecord
  2
Netafim Detail
 70
     0
 40
0.09
 41
1.0
 50
0.0
 71
     0
 42
0.2
  3
arial.ttf
  4

1001
ACAD
1000
Arial
1071
       34
  0
ENDTAB
  0
TABLE
  2
VIEW
  5
6
330
0
100
AcDbSymbolTable
 70
     1
  0
ENDTAB
  0
TABLE
  2
UCS
  5
7
330
0
100
AcDbSymbolTable
 70
     0
  0
ENDTAB
  0
TABLE
  2
APPID
  5
9
330
0
100
AcDbSymbolTable
 70
    19
  0
APPID
  5
12
330
9
100
AcDbSymbolTableRecord
100
AcDbRegAppTableRecord
  2
ACAD
 70
     0
  0
APPID
  5
DD
330
9
100
AcDbSymbolTableRecord
100
AcDbRegAppTableRecord
  2
AcadAnnoPO
 70
     0
  0
APPID
  5
DE
330
9
100
AcDbSymbolTableRecord
100
AcDbRegAppTableRecord
  2
AcadAnnotative
 70
     0
  0
APPID
  5
DF
330
9
100
AcDbSymbolTableRecord
100
AcDbRegAppTableRecord
  2
ACAD_DSTYLE_DIMJAG
 70
     0
  0
APPID
  5
E0
330
9
100
AcDbSymbolTableRecord
100
AcDbRegAppTableRecord
  2
ACAD_DSTYLE_DIMTALN
 70
     0
  0
APPID
  5
107
330
9
100
AcDbSymbolTableRecord
100
AcDbRegAppTableRecord
  2
ACAD_MLEADERVER
 70
     0
  0
APPID
  5
184
330
9
100
AcDbSymbolTableRecord
100
AcDbRegAppTableRecord
  2
AcMapDMDisplayStyleRegapp
 70
     0
  0
APPID
  5
18E
330
9
100
AcDbSymbolTableRecord
100
AcDbRegAppTableRecord
  2
ADE
 70
     0
  0
APPID
  5
191
330
9
100
AcDbSymbolTableRecord
100
AcDbRegAppTableRecord
  2
MapGWS
 70
     0
  0
APPID
  5
194
330
9
100
AcDbSymbolTableRecord
100
AcDbRegAppTableRecord
  2
DCO15
 70
     0
  0
APPID
  5
19E
330
9
100
AcDbSymbolTableRecord
100
AcDbRegAppTableRecord
  2
LandFX
 70
     0
  0
APPID
  5
1AC
330
9
100
AcDbSymbolTableRecord
100
AcDbRegAppTableRecord
  2
RAK
 70
     0
  0
APPID
  5
1AD
330
9
100
AcDbSymbolTableRecord
100
AcDbRegAppTableRecord
  2
ACAD_EXEMPT_FROM_CAD_STANDARDS
 70
     0
  0
APPID
  5
209
330
9
100
AcDbSymbolTableRecord
100
AcDbRegAppTableRecord
  2
ACAD_PSEXT
 70
     0
  0
APPID
  5
20A
330
9
100
AcDbSymbolTableRecord
100
AcDbRegAppTableRecord
  2
AcAecLayerStandard
 70
     0
  0
APPID
  5
20B
330
9
100
AcDbSymbolTableRecord
100
AcDbRegAppTableRecord
  2
ACAD_NAV_VCDISPLAY
 70
     0
  0
APPID
  5
812
330
9
100
AcDbSymbolTableRecord
100
AcDbRegAppTableRecord
  2
ACAD_DSTYLE_DIMBREAK
 70
     0
  0
APPID
  5
CA9
330
9
100
AcDbSymbolTableRecord
100
AcDbRegAppTableRecord
  2
AcLayerTools
 70
     0
  0
APPID
  5
11D3
330
9
100
AcDbSymbolTableRecord
100
AcDbRegAppTableRecord
  2
AcCmTransparency
 70
     0
  0
ENDTAB
  0
TABLE
  2
DIMSTYLE
  5
A
330
0
100
AcDbSymbolTable
 70
     2
100
AcDbDimStyleTable
 71
     1
340
27
  0
DIMSTYLE
105
27
330
A
100
AcDbSymbolTableRecord
100
AcDbDimStyleTableRecord
  2
Standard
 70
     0
340
11
  0
DIMSTYLE
105
811
330
A
100
AcDbSymbolTableRecord
100
AcDbDimStyleTableRecord
  2
Netafim Detail
 70
     0
 41
0.12
140
0.09
271
     2
272
     2
340
810
1001
ACAD_DSTYLE_DIMBREAK
1070
   391
1040
0.125
1001
ACAD_DSTYLE_DIMJAG
1070
   388
1040
1.5
1001
ACAD_DSTYLE_DIMTALN
1070
   392
1070
     0
  0
ENDTAB
  0
TABLE
  2
BLOCK_RECORD
  5
1
330
0
100
AcDbSymbolTable
 70
     3
  0
BLOCK_RECORD
  5
1F
102
{ACAD_XDICTIONARY
360
15D
102
}
330
1
100
AcDbSymbolTableRecord
100
AcDbBlockTableRecord
  2
*Model_Space
340
22
  0
BLOCK_RECORD
  5
58
330
1
100
AcDbSymbolTableRecord
100
AcDbBlockTableRecord
  2
*Paper_Space
340
59
  0
BLOCK_RECORD
  5
5D
330
1
100
AcDbSymbolTableRecord
100
AcDbBlockTableRecord
  2
*Paper_Space0
340
5E
  0
BLOCK_RECORD
  5
1864
102
{ACAD_XDICTIONARY
360
1865
102
}
330
1
100
AcDbSymbolTableRecord
100
AcDbBlockTableRecord
  2
LIMITATIONS
340
0
102
{BLKREFS
331
186C
102
}
1001
ACAD
1000
DesignCenter Data
1002
{
1070
     1
1070
     1
1002
}
  0
BLOCK_RECORD
  5
186B
102
{ACAD_XDICTIONARY
360
186D
102
}
330
1
100
AcDbSymbolTableRecord
100
AcDbBlockTableRecord
  2
A$C420412FC
340
0
102
{BLKREFS
331
1872
102
}
1001
ACAD
1000
DesignCenter Data
1002
{
1070
     1
1070
     1
1002
}
  0
ENDTAB
  0
ENDSEC
  0
SECTION
  2
BLOCKS
  0
BLOCK
  5
20
330
1F
100
AcDbEntity
  8
0
100
AcDbBlockBegin
  2
*Model_Space
 70
     0
 10
0.0
 20
0.0
 30
0.0
  3
*Model_Space
  1

  0
ENDBLK
  5
21
330
1F
100
AcDbEntity
  8
0
100
AcDbBlockEnd
  0
BLOCK
  5
5A
330
58
100
AcDbEntity
 67
     1
  8
0
100
AcDbBlockBegin
  2
*Paper_Space
 70
     0
 10
0.0
 20
0.0
 30
0.0
  3
*Paper_Space
  1

  0
ENDBLK
  5
5B
330
58
100
AcDbEntity
 67
     1
  8
0
100
AcDbBlockEnd
  0
BLOCK
  5
5F
330
5D
100
AcDbEntity
 67
     1
  8
0
100
AcDbBlockBegin
  2
*Paper_Space0
 70
     0
 10
0.0
 20
0.0
 30
0.0
  3
*Paper_Space0
  1

  0
ENDBLK
  5
60
330
5D
100
AcDbEntity
 67
     1
  8
0
100
AcDbBlockEnd
  0
BLOCK
  5
1867
330
1864
100
AcDbEntity
  8
0
100
AcDbBlockBegin
  2
LIMITATIONS
 70
     0
 10
0.0
 20
0.0
 30
0.0
  3
LIMITATIONS
  1

  0
MTEXT
  5
1868
330
1864
100
AcDbEntity
  8
NETAFIM-D-NPLT
100
AcDbMText
 10
-0.7827171174748458
 20
0.2352495300830739
 30
0.0
 40
0.06
 41
6.843161446901433
 71
     1
 72
     5
  3
{\fArial|b0|i0|c0|p34;LIMITATIONS:\P\PALLOWING FOR A WIDE VARIETY OF APPLICATIONS AND CONDITIONS, NETAFIM IRRIGATION INC. IS NOT RESPONSIBLE FOR CORRECTNESS OR APPLICABILITY TO PURPOSE OR COMPATIBILITY TO ANY SITE OR JOB CONDITION. WARRANTY FOR SUITA
  3
BILITY IS NOT GIVEN OR IMPLIED. MODIFICATIONS FOR SPECIFIC PURPOSES MAY BE NECESSARY AND ARE THE SPECIFIERS' RESPONSIBILITY. THE USE OF THESE DETAILS SHALL NOT BE RESTRICTED AND PUBLICATION THEREOF IS NOT LIMITED TO ANY PURPOSE.  REPRODUCTION, PUBLIC
  1
ATION AND REUSE BY ANY METHOD IN WHOLE OR PART IS FULLY AUTHORIZED. OWNERSHIP IS RETAINED BY NETAFIM IRRIGATION INC.  VISUAL CONTACT WITH THESE DETAILS SHALL CONSTITUTE PRIMA FACIA EVIDENCE OF THE ACCEPTANCE OF THESE RESTRICTIONS.}
  7
DETAIL TEXT
 11
0.0000000000000001
 21
1.0
 31
0.0
 73
     1
 44
1.0
1001
ACAD
1000
ACAD_MTEXT_COLUMN_INFO_BEGIN
1070
    75
1070
     2
1070
    79
1070
     0
1070
    76
1070
     1
1070
    78
1070
     0
1070
    48
1040
6.843161446901433
1070
    49
1040
0.45
1070
    50
1070
     1
1040
0.0
1000
ACAD_MTEXT_COLUMN_INFO_END
  0
LWPOLYLINE
  5
1869
330
1864
100
AcDbEntity
  8
NETAFIM-D-NPLT
100
AcDbPolyline
 90
        4
 70
     1
 43
0.0
 10
0.0
 20
7.124999999999998
 10
-0.8951802582263113
 20
7.124999999999998
 10
-0.8951802582263113
 20
0.0
 10
0.0
 20
0.0
  0
ENDBLK
  5
186A
330
1864
100
AcDbEntity
  8
0
100
AcDbBlockEnd
  0
BLOCK
  5
186F
330
186B
100
AcDbEntity
  8
0
100
AcDbBlockBegin
  2
A$C420412FC
 70
     0
 10
0.0
 20
0.0
 30
0.0
  3
A$C420412FC
  1

  0
INSERT
  5
186C
330
186B
100
AcDbEntity
  8
0
100
AcDbBlockReference
  2
LIMITATIONS
 10
0.8951802652584106
 20
-0.0000000044352895
 30
0.0
  0
ENDBLK
  5
1870
330
186B
100
AcDbEntity
  8
0
100
AcDbBlockEnd
  0
ENDSEC
  0
SECTION
  2
ENTITIES
  0
LEADER
  5
9F6
330
1F
100
AcDbEntity
  8
NETAFIM-L-DETL-TEXT-LEADER-025M
100
AcDbLeader
  3
Netafim Detail
 76
     3
 10
4.118546876650106
 20
5.335651477743306
 30
0.0
 10
4.347035772718147
 20
5.335702460215207
 30
0.0
 10
4.363343198343219
 20
5.335568240906718
 30
0.0
1001
ACAD
1000
DSTYLE
1002
{
1070
    40
1040
1.0
1070
    41
1040
0.1
1070
   341
1005
0
1070
    63
1070
     1
1002
}
  0
LEADER
  5
9F7
330
1F
100
AcDbEntity
  8
NETAFIM-L-DETL-TEXT-LEADER-025M
100
AcDbLeader
  3
Netafim Detail
 76
     3
 10
4.363343126327743
 20
5.33570661318815
 30
0.0
 10
4.142841290307405
 20
5.335656949572658
 30
0.0
 10
4.118546772253575
 20
5.335852067767532
 30
0.0
211
-1.0
221
0.0
231
0.0
1001
ACAD
1000
DSTYLE
1002
{
1070
    40
1040
1.0
1070
    41
1040
0.1
1070
   341
1005
0
1070
    63
1070
     1
1002
}
  0
LEADER
  5
A3D
330
1F
100
AcDbEntity
  8
NETAFIM-L-DETL-TEXT-LEADER-025M
100
AcDbLeader
  3
Netafim Detail
 76
     3
 10
4.785856131358713
 20
4.843876658211236
 30
0.0
 10
5.171269351925452
 20
4.843876658211236
 30
0.0
 10
5.190585728735172
 20
4.843876658211236
 30
0.0
1001
ACAD
1000
DSTYLE
1002
{
1070
    40
1040
1.0
1070
    41
1040
0.1
1070
   341
1005
0
1070
    63
1070
     1
1002
}
  0
LEADER
  5
A3E
330
1F
100
AcDbEntity
  8
NETAFIM-L-DETL-TEXT-LEADER-025M
100
AcDbLeader
  3
Netafim Detail
 76
     3
 10
4.719829680156479
 20
4.844117443747231
 30
0.0
 10
4.380305211958905
 20
4.84408650966812
 30
0.0
 10
4.360988835149186
 20
4.84408650966812
 30
0.0
211
-1.0
221
0.0
231
0.0
1001
ACAD
1000
DSTYLE
1002
{
1070
    40
1040
1.0
1070
    41
1040
0.1
1070
   341
1005
0
1070
    63
1070
     1
1002
}
  0
LWPOLYLINE
  5
A40
330
1F
100
AcDbEntity
  8
NETAFIM-LG-DETL-ANNO
100
AcDbPolyline
 90
        4
 70
     1
 43
0.0
 10
0.0
 20
0.001149371789019
 10
9.642500000000001
 20
0.001149371789019
 10
9.642500000000001
 20
7.126149371789017
 10
0.0
 20
7.126149371789017
1001
LandFX
1000
DETAIL-FORMAT
1000
1A
1040
1.0
1000
DIM1
  0
LINE
  5
A41
330
1F
100
AcDbEntity
  8
NETAFIM-D-070M
100
AcDbLine
 10
0.6827834977815748
 20
0.3422839514230969
 30
0.0
 11
9.402671659680127
 21
0.3422839514230969
 31
0.0
  0
CIRCLE
  5
A42
330
1F
100
AcDbEntity
  8
NETAFIM-D-070M
100
AcDbCircle
 10
0.4015334977815748
 20
0.3422839514230969
 30
0.0
 40
0.28125
1001
LandFX
1000
DETAIL-CIRCLE
  0
TEXT
  5
A43
330
1F
100
AcDbEntity
  8
NETAFIM-D-TEXT-025M
100
AcDbText
 10
0.2183970415697622
 20
0.2375159326216156
 30
0.0
 40
0.24
  1
00
  7
DETAIL NUMBER
 72
     1
 11
0.4015334977815748
 21
0.2375159326216156
 31
0.0
100
AcDbText
1001
LandFX
1000
DETAIL-NUMBER
  0
TEXT
  5
A44
330
1F
100
AcDbEntity
  8
NETAFIM-D-TEXT-025M
100
AcDbText
 10
0.862738956263076
 20
0.4303466547115669
 30
0.0
 40
0.18
  1
Techline® RW END FEED LAYOUT
  7
DETAIL TITLE
100
AcDbText
1001
LandFX
1000
DETAIL-TITLE
  0
TEXT
  5
A45
330
1F
100
AcDbEntity
  8
NETAFIM-D-TEXT-025M
100
AcDbText
 10
0.8697210820341609
 20
0.140892385451906
 30
0.0
 40
0.09
  1
NOT TO SCALE
  7
DETAIL TEXT
100
AcDbText
1001
LandFX
1000
DETAIL-SCALE
  0
TEXT
  5
A46
330
1F
100
AcDbEntity
  8
NETAFIM-D-TEXT-025M
100
AcDbText
 10
8.265334937694632
 20
0.1359871945063418
 30
0.0
 40
0.09
  1
DETAIL - RW101
  7
DETAIL TEXT
 72
     2
 11
9.392477794837489
 21
0.1359871945063418
 31
0.0
100
AcDbText
1001
LandFX
1000
DETAIL-FILE
  0
LINE
  5
A47
330
1F
100
AcDbEntity
  8
NETAFIM-D-NPLT
100
AcDbLine
 10
0.0
 20
0.1511493717890193
 30
0.0
 11
0.0
 21
0.001149371789019
 31
0.0
  0
LINE
  5
A48
330
1F
100
AcDbEntity
  8
NETAFIM-D-NPLT
100
AcDbLine
 10
9.642500000000001
 20
0.1511493717890193
 30
0.0
 11
9.642500000000001
 21
0.001149371789019
 31
0.0
  0
LINE
  5
A49
330
1F
100
AcDbEntity
  8
NETAFIM-D-NPLT
100
AcDbLine
 10
0.0
 20
0.001149371789019
 30
0.0
 11
0.1499999999999986
 21
0.001149371789019
 31
0.0
  0
LINE
  5
A4A
330
1F
100
AcDbEntity
  8
NETAFIM-D-NPLT
100
AcDbLine
 10
9.492500000000003
 20
0.001149371789019
 30
0.0
 11
9.642500000000001
 21
0.001149371789019
 31
0.0
  0
HATCH
  5
A4B
330
1F
100
AcDbEntity
  8
NETAFIM-L-DETL-013M
100
AcDbHatch
 10
0.0
 20
0.0
 30
0.0
210
0.0
220
0.0
230
1.0
  2
SOLID
 70
     1
 71
     0
 91
       12
 92
        7
 72
     1
 73
     1
 93
        3
 10
8.182780123719755
 20
0.5100073791113582
 42
1.407273687863683
 10
8.306610455730019
 20
0.5100073791113582
 42
0.0
 10
8.244695289724887
 20
0.6558703694249166
 42
0.0
 97
        0
 92
        7
 72
     1
 73
     1
 93
        3
 10
8.328564270341036
 20
0.7425250438722069
 42
0.0
 10
8.289189270341037
 20
0.6497633569678971
 42
1.407273687863691
 10
8.367939270341036
 20
0.6497633569678971
 42
0.0
 97
        0
 92
        7
 72
     0
 73
     1
 93
       10
 10
8.471403918155896
 20
0.6499246336248543
 10
8.504014490154165
 20
0.5649711891187535
 10
8.553964490154164
 20
0.5649711891187535
 10
8.576479131873487
 20
0.725171189118754
 10
8.526529131873488
 20
0.725171189118754
 10
8.514589703871756
 20
0.6402177446126523
 10
8.481979131873487
 20
0.725171189118754
 10
8.432029131873488
 20
0.725171189118754
 10
8.409514490154162
 20
0.5649711891187535
 10
8.459464490154164
 20
0.5649711891187535
 97
        0
 92
        7
 72
     0
 73
     1
 93
       12
 10
8.631780241607764
 20
0.6249071639793371
 10
8.672276386040906
 20
0.6249071639793371
 10
8.678084469672661
 20
0.6662338263978178
 10
8.637588325239523
 20
0.6662338263978178
 10
8.639780301579644
 20
0.6818305484804972
 10
8.683787503302859
 20
0.6818305484804972
 10
8.689878633114695
 20
0.725171189118754
 10
8.593129131873485
 20
0.725171189118754
 10
8.570614490154163
 20
0.5649711891187535
 10
8.667363991395372
 20
0.5649711891187535
 10
8.673438897252278
 20
0.6081963903193231
 10
8.629431695529063
 20
0.6081963903193231
 97
        0
 92
        7
 72
     0
 73
     1
 93
        8
 10
8.711801491395373
 20
0.5649711891187535
 10
8.761751491395372
 20
0.5649711891187535
 10
8.778191227257789
 20
0.6819459879181835
 10
8.808228727257787
 20
0.6819459879181835
 10
8.814303633114693
 20
0.725171189118754
 10
8.704278633114697
 20
0.725171189118754
 10
8.698203727257787
 20
0.6819459879181835
 10
8.72824122725779
 20
0.6819459879181835
 97
        0
 92
        7
 72
     0
 73
     1
 93
        8
 10
8.775267221775955
 20
0.5649711891187535
 10
8.829267221775953
 20
0.5649711891187535
 10
8.837971398315644
 20
0.5860993311793683
 10
8.880785001506225
 20
0.5860993311793683
 10
8.881852988542362
 20
0.5649711891187535
 10
8.933602988542361
 20
0.5649711891187535
 10
8.912512258428861
 20
0.725171189118754
 10
8.855139995386114
 20
0.725171189118754
 97
        0
 92
       22
 72
     0
 73
     1
 93
        3
 10
8.853959090316418
 20
0.6249071639793371
 10
8.876105958546798
 20
0.678665515046256
 10
8.878823340030642
 20
0.6249071639793371
 97
        0
 92
        7
 72
     0
 73
     1
 93
       10
 10
9.008384722948694
 20
0.6249071639793371
 10
9.048880867381832
 20
0.6249071639793371
 10
9.054688951013591
 20
0.6662338263978178
 10
9.014192806580449
 20
0.6662338263978178
 10
9.016384782920571
 20
0.6818305484804972
 10
9.060391984643786
 20
0.6818305484804972
 10
9.066483114455625
 20
0.725171189118754
 10
8.969600912732406
 20
0.725171189118754
 10
8.947086271013084
 20
0.5649711891187535
 10
8.999961271013084
 20
0.5649711891187535
 97
        0
 92
        7
 72
     0
 73
     1
 93
        4
 10
9.134433114455621
 20
0.725171189118754
 10
9.081558114455621
 20
0.725171189118754
 10
9.059043472736302
 20
0.5649711891187535
 10
9.111918472736302
 20
0.5649711891187535
 97
        0
 92
        7
 72
     0
 73
     1
 93
       13
 10
9.194590601815551
 20
0.6437389939493868
 10
9.204960580050983
 20
0.5649711891187535
 10
9.239362041544534
 20
0.5649711891187535
 10
9.269742683095667
 20
0.6502987951342672
 10
9.269742683095667
 20
0.5649711891187535
 10
9.317892683095667
 20
0.5649711891187535
 10
9.317892683095667
 20
0.725171189118754
 10
9.261999315857149
 20
0.725171189118754
 10
9.233007043797716
 20
0.6437429821594592
 10
9.222286816977462
 20
0.725171189118754
 10
9.168440908032582
 20
0.725171189118754
 10
9.122504297234019
 20
0.5649711891187535
 10
9.172004297234021
 20
0.5649711891187535
 97
        0
 92
        7
 72
     0
 73
     1
 93
        8
 10
9.359631383606693
 20
0.725171189118754
 10
9.334881383606692
 20
0.725171189118754
 10
9.334881383606692
 20
0.7204461891187535
 10
9.343881383606689
 20
0.7204461891187535
 10
9.343881383606689
 20
0.695471189118754
 10
9.350631383606692
 20
0.695471189118754
 10
9.350631383606692
 20
0.7204461891187535
 10
9.359631383606693
 20
0.7204461891187535
 97
        0
 92
        7
 72
     0
 73
     1
 93
       13
 10
9.374481383606692
 20
0.725171189118754
 10
9.363456383606692
 20
0.725171189118754
 10
9.363456383606692
 20
0.695471189118754
 10
9.370206383606692
 20
0.695471189118754
 10
9.370206383606692
 20
0.7169114771485603
 10
9.378868883606692
 20
0.695471189118754
 10
9.383368883606692
 20
0.695471189118754
 10
9.392031383606692
 20
0.7169114771485594
 10
9.392031383606692
 20
0.695471189118754
 10
9.398781383606692
 20
0.695471189118754
 10
9.398781383606692
 20
0.725171189118754
 10
9.387756383606692
 20
0.725171189118754
 10
9.381118883606692
 20
0.7087429164725388
 97
        0
 75
     0
 76
     1
 47
0.0019728894204142
 98
       12
 10
8.230372135110648
 20
0.5114645859393168
 10
8.336056493365362
 20
0.6455224233934694
 10
8.449733788517161
 20
0.6384200205819886
 10
8.618473522372621
 20
0.6384200205819886
 10
8.745472374982277
 20
0.6366444208863796
 10
8.829842238882047
 20
0.6135616147708501
 10
8.829842238882047
 20
0.6135616147708501
 10
8.987924728588001
 20
0.6251030168213534
 10
9.102490125147951
 20
0.6268786185314852
 10
9.1877480965118
 20
0.6499614246470138
 10
9.348494893470178
 20
0.7236488442471467
 10
9.365368868672501
 20
0.7245366440949513
450
        0
451
        0
460
0.0
461
0.0
452
        1
462
1.0
453
        2
463
0.0
 63
     5
421
      255
463
1.0
 63
     7
421
 16777215
470
LINEAR
1001
ACAD
1010
0.0
1020
0.0
1030
0.0
  0
LWPOLYLINE
  5
A4C
330
1F
100
AcDbEntity
  8
NETAFIM-L-DETL-013M
100
AcDbPolyline
 90
        3
 70
     1
 43
0.0
 10
8.328564270341036
 20
0.7425250438722069
 10
8.289189270341037
 20
0.6497633569678971
 42
1.407273687863686
 10
8.367939270341036
 20
0.6497633569678963
  0
LWPOLYLINE
  5
A4D
330
1F
100
AcDbEntity
  8
NETAFIM-L-DETL-013M
100
AcDbPolyline
 90
        3
 70
     1
 43
0.0
 10
8.244695289724887
 20
0.6558703694249166
 10
8.182780123719755
 20
0.5100073791113582
 42
1.407273687863686
 10
8.306610455730019
 20
0.5100073791113582
  0
LWPOLYLINE
  5
A4E
330
1F
100
AcDbEntity
  8
NETAFIM-L-DETL-013M
100
AcDbPolyline
 90
        2
 70
     0
 43
0.0
 10
8.432029131873488
 20
0.725171189118754
 10
8.481979131873487
 20
0.725171189118754
  0
LWPOLYLINE
  5
A4F
330
1F
100
AcDbEntity
  8
NETAFIM-L-DETL-013M
100
AcDbPolyline
 90
        2
 70
     0
 43
0.0
 10
8.526529131873488
 20
0.725171189118754
 10
8.576479131873487
 20
0.725171189118754
  0
LWPOLYLINE
  5
A50
330
1F
100
AcDbEntity
  8
NETAFIM-L-DETL-013M
100
AcDbPolyline
 90
        2
 70
     0
 43
0.0
 10
8.704278633114697
 20
0.725171189118754
 10
8.814303633114693
 20
0.725171189118754
  0
LWPOLYLINE
  5
A51
330
1F
100
AcDbEntity
  8
NETAFIM-L-DETL-013M
100
AcDbPolyline
 90
        2
 70
     0
 43
0.0
 10
8.855139995386114
 20
0.725171189118754
 10
8.912512258428861
 20
0.725171189118754
  0
LWPOLYLINE
  5
A52
330
1F
100
AcDbEntity
  8
NETAFIM-L-DETL-013M
100
AcDbPolyline
 90
        2
 70
     0
 43
0.0
 10
8.969600912732406
 20
0.725171189118754
 10
9.066483114455625
 20
0.725171189118754
  0
LWPOLYLINE
  5
A53
330
1F
100
AcDbEntity
  8
NETAFIM-L-DETL-013M
100
AcDbPolyline
 90
        2
 70
     0
 43
0.0
 10
9.081558114455621
 20
0.725171189118754
 10
9.134433114455621
 20
0.725171189118754
  0
LWPOLYLINE
  5
A54
330
1F
100
AcDbEntity
  8
NETAFIM-L-DETL-013M
100
AcDbPolyline
 90
        2
 70
     0
 43
0.0
 10
9.168440908032582
 20
0.725171189118754
 10
9.222286816977462
 20
0.725171189118754
  0
LWPOLYLINE
  5
A55
330
1F
100
AcDbEntity
  8
NETAFIM-L-DETL-013M
100
AcDbPolyline
 90
        2
 70
     0
 43
0.0
 10
9.261999315857149
 20
0.725171189118754
 10
9.317892683095667
 20
0.725171189118754
  0
LWPOLYLINE
  5
A56
330
1F
100
AcDbEntity
  8
NETAFIM-L-DETL-013M
100
AcDbPolyline
 90
        2
 70
     0
 43
0.0
 10
9.334881383606692
 20
0.725171189118754
 10
9.359631383606693
 20
0.725171189118754
  0
LWPOLYLINE
  5
A57
330
1F
100
AcDbEntity
  8
NETAFIM-L-DETL-013M
100
AcDbPolyline
 90
        2
 70
     0
 43
0.0
 10
9.363456383606692
 20
0.725171189118754
 10
9.374481383606692
 20
0.725171189118754
  0
LWPOLYLINE
  5
A58
330
1F
100
AcDbEntity
  8
NETAFIM-L-DETL-013M
100
AcDbPolyline
 90
        2
 70
     0
 43
0.0
 10
9.387756383606692
 20
0.725171189118754
 10
9.398781383606692
 20
0.725171189118754
  0
LWPOLYLINE
  5
A59
330
1F
100
AcDbEntity
  8
NETAFIM-L-DETL-013M
100
AcDbPolyline
 90
        2
 70
     0
 43
0.0
 10
9.343881383606689
 20
0.695471189118754
 10
9.350631383606692
 20
0.695471189118754
  0
LWPOLYLINE
  5
A5A
330
1F
100
AcDbEntity
  8
NETAFIM-L-DETL-013M
100
AcDbPolyline
 90
        2
 70
     0
 43
0.0
 10
9.363456383606692
 20
0.695471189118754
 10
9.370206383606692
 20
0.695471189118754
  0
LWPOLYLINE
  5
A5B
330
1F
100
AcDbEntity
  8
NETAFIM-L-DETL-013M
100
AcDbPolyline
 90
        2
 70
     0
 43
0.0
 10
9.378868883606692
 20
0.695471189118754
 10
9.383368883606692
 20
0.695471189118754
  0
LWPOLYLINE
  5
A5C
330
1F
100
AcDbEntity
  8
NETAFIM-L-DETL-013M
100
AcDbPolyline
 90
        2
 70
     0
 43
0.0
 10
9.392031383606692
 20
0.695471189118754
 10
9.398781383606692
 20
0.695471189118754
  0
LWPOLYLINE
  5
A5D
330
1F
100
AcDbEntity
  8
NETAFIM-L-DETL-013M
100
AcDbPolyline
 90
        2
 70
     0
 43
0.0
 10
8.409514490154162
 20
0.5649711891187535
 10
8.459464490154164
 20
0.5649711891187535
  0
LWPOLYLINE
  5
A5E
330
1F
100
AcDbEntity
  8
NETAFIM-L-DETL-013M
100
AcDbPolyline
 90
        2
 70
     0
 43
0.0
 10
8.504014490154165
 20
0.5649711891187535
 10
8.553964490154164
 20
0.5649711891187535
  0
LWPOLYLINE
  5
A5F
330
1F
100
AcDbEntity
  8
NETAFIM-L-DETL-013M
100
AcDbPolyline
 90
        2
 70
     0
 43
0.0
 10
8.570614490154163
 20
0.5649711891187535
 10
8.667363991395372
 20
0.5649711891187535
  0
LWPOLYLINE
  5
A60
330
1F
100
AcDbEntity
  8
NETAFIM-L-DETL-013M
100
AcDbPolyline
 90
        2
 70
     0
 43
0.0
 10
8.711801491395373
 20
0.5649711891187535
 10
8.761751491395372
 20
0.5649711891187535
  0
LWPOLYLINE
  5
A61
330
1F
100
AcDbEntity
  8
NETAFIM-L-DETL-013M
100
AcDbPolyline
 90
        2
 70
     0
 43
0.0
 10
8.775267221775955
 20
0.5649711891187535
 10
8.829267221775953
 20
0.5649711891187535
  0
LWPOLYLINE
  5
A62
330
1F
100
AcDbEntity
  8
NETAFIM-L-DETL-013M
100
AcDbPolyline
 90
        2
 70
     0
 43
0.0
 10
8.881852988542362
 20
0.5649711891187535
 10
8.933602988542361
 20
0.5649711891187535
  0
LWPOLYLINE
  5
A63
330
1F
100
AcDbEntity
  8
NETAFIM-L-DETL-013M
100
AcDbPolyline
 90
        2
 70
     0
 43
0.0
 10
8.947086271013084
 20
0.5649711891187535
 10
8.999961271013084
 20
0.5649711891187535
  0
LWPOLYLINE
  5
A64
330
1F
100
AcDbEntity
  8
NETAFIM-L-DETL-013M
100
AcDbPolyline
 90
        2
 70
     0
 43
0.0
 10
9.059043472736302
 20
0.5649711891187535
 10
9.111918472736302
 20
0.5649711891187535
  0
LWPOLYLINE
  5
A65
330
1F
100
AcDbEntity
  8
NETAFIM-L-DETL-013M
100
AcDbPolyline
 90
        2
 70
     0
 43
0.0
 10
9.122504297234019
 20
0.5649711891187535
 10
9.172004297234021
 20
0.5649711891187535
  0
LWPOLYLINE
  5
A66
330
1F
100
AcDbEntity
  8
NETAFIM-L-DETL-013M
100
AcDbPolyline
 90
        2
 70
     0
 43
0.0
 10
9.204960580050983
 20
0.5649711891187535
 10
9.239362041544534
 20
0.5649711891187535
  0
LWPOLYLINE
  5
A67
330
1F
100
AcDbEntity
  8
NETAFIM-L-DETL-013M
100
AcDbPolyline
 90
        2
 70
     0
 43
0.0
 10
9.269742683095667
 20
0.5649711891187535
 10
9.317892683095667
 20
0.5649711891187535
  0
LWPOLYLINE
  5
A68
330
1F
100
AcDbEntity
  8
NETAFIM-L-DETL-013M
100
AcDbPolyline
 90
        2
 70
     0
 43
0.0
 10
8.409514490154162
 20
0.5649711891187535
 10
8.432029131873488
 20
0.725171189118754
  0
LWPOLYLINE
  5
A69
330
1F
100
AcDbEntity
  8
NETAFIM-L-DETL-013M
100
AcDbPolyline
 90
        2
 70
     0
 43
0.0
 10
8.459464490154164
 20
0.5649711891187535
 10
8.471403918155896
 20
0.6499246336248543
  0
LWPOLYLINE
  5
A6A
330
1F
100
AcDbEntity
  8
NETAFIM-L-DETL-013M
100
AcDbPolyline
 90
        2
 70
     0
 43
0.0
 10
8.514589703871756
 20
0.6402177446126523
 10
8.481979131873487
 20
0.725171189118754
  0
LWPOLYLINE
  5
A6B
330
1F
100
AcDbEntity
  8
NETAFIM-L-DETL-013M
100
AcDbPolyline
 90
        2
 70
     0
 43
0.0
 10
8.514589703871756
 20
0.6402177446126523
 10
8.526529131873488
 20
0.725171189118754
  0
LWPOLYLINE
  5
A6C
330
1F
100
AcDbEntity
  8
NETAFIM-L-DETL-013M
100
AcDbPolyline
 90
        2
 70
     0
 43
0.0
 10
8.504014490154165
 20
0.5649711891187535
 10
8.471403918155896
 20
0.6499246336248543
  0
LWPOLYLINE
  5
A6D
330
1F
100
AcDbEntity
  8
NETAFIM-L-DETL-013M
100
AcDbPolyline
 90
        2
 70
     0
 43
0.0
 10
8.553964490154164
 20
0.5649711891187535
 10
8.576479131873487
 20
0.725171189118754
  0
LWPOLYLINE
  5
A6E
330
1F
100
AcDbEntity
  8
NETAFIM-L-DETL-013M
100
AcDbPolyline
 90
        2
 70
     0
 43
0.0
 10
8.570614490154163
 20
0.5649711891187535
 10
8.593129131873485
 20
0.725171189118754
  0
LWPOLYLINE
  5
A6F
330
1F
100
AcDbEntity
  8
NETAFIM-L-DETL-013M
100
AcDbPolyline
 90
        2
 70
     0
 43
0.0
 10
8.667363991395372
 20
0.5649711891187535
 10
8.673438897252278
 20
0.6081963903193231
  0
LWPOLYLINE
  5
A70
330
1F
100
AcDbEntity
  8
NETAFIM-L-DETL-013M
100
AcDbPolyline
 90
        2
 70
     0
 43
0.0
 10
8.683787503302859
 20
0.6818305484804972
 10
8.689878633114695
 20
0.725171189118754
  0
LWPOLYLINE
  5
A71
330
1F
100
AcDbEntity
  8
NETAFIM-L-DETL-013M
100
AcDbPolyline
 90
        2
 70
     0
 43
0.0
 10
8.629431695529063
 20
0.6081963903193231
 10
8.631780241607764
 20
0.6249071639793371
  0
LWPOLYLINE
  5
A72
330
1F
100
AcDbEntity
  8
NETAFIM-L-DETL-013M
100
AcDbPolyline
 90
        2
 70
     0
 43
0.0
 10
8.637588325239523
 20
0.6662338263978178
 10
8.639780301579644
 20
0.6818305484804972
  0
LWPOLYLINE
  5
A73
330
1F
100
AcDbEntity
  8
NETAFIM-L-DETL-013M
100
AcDbPolyline
 90
        2
 70
     0
 43
0.0
 10
8.672276386040906
 20
0.6249071639793371
 10
8.678084469672661
 20
0.6662338263978178
  0
LWPOLYLINE
  5
A74
330
1F
100
AcDbEntity
  8
NETAFIM-L-DETL-013M
100
AcDbPolyline
 90
        2
 70
     0
 43
0.0
 10
8.698203727257787
 20
0.6819459879181835
 10
8.704278633114697
 20
0.725171189118754
  0
LWPOLYLINE
  5
A75
330
1F
100
AcDbEntity
  8
NETAFIM-L-DETL-013M
100
AcDbPolyline
 90
        2
 70
     0
 43
0.0
 10
8.808228727257787
 20
0.6819459879181835
 10
8.814303633114693
 20
0.725171189118754
  0
LWPOLYLINE
  5
A76
330
1F
100
AcDbEntity
  8
NETAFIM-L-DETL-013M
100
AcDbPolyline
 90
        2
 70
     0
 43
0.0
 10
8.698203727257787
 20
0.6819459879181835
 10
8.72824122725779
 20
0.6819459879181835
  0
LWPOLYLINE
  5
A77
330
1F
100
AcDbEntity
  8
NETAFIM-L-DETL-013M
100
AcDbPolyline
 90
        2
 70
     0
 43
0.0
 10
8.778191227257789
 20
0.6819459879181835
 10
8.808228727257787
 20
0.6819459879181835
  0
LWPOLYLINE
  5
A78
330
1F
100
AcDbEntity
  8
NETAFIM-L-DETL-013M
100
AcDbPolyline
 90
        2
 70
     0
 43
0.0
 10
8.711801491395373
 20
0.5649711891187535
 10
8.72824122725779
 20
0.6819459879181835
  0
LWPOLYLINE
  5
A79
330
1F
100
AcDbEntity
  8
NETAFIM-L-DETL-013M
100
AcDbPolyline
 90
        2
 70
     0
 43
0.0
 10
8.761751491395372
 20
0.5649711891187535
 10
8.778191227257789
 20
0.6819459879181835
  0
LWPOLYLINE
  5
A7A
330
1F
100
AcDbEntity
  8
NETAFIM-L-DETL-013M
100
AcDbPolyline
 90
        2
 70
     0
 43
0.0
 10
8.683787503302859
 20
0.6818305484804972
 10
8.639780301579644
 20
0.6818305484804972
  0
LWPOLYLINE
  5
A7B
330
1F
100
AcDbEntity
  8
NETAFIM-L-DETL-013M
100
AcDbPolyline
 90
        2
 70
     0
 43
0.0
 10
8.673438897252278
 20
0.6081963903193231
 10
8.629431695529063
 20
0.6081963903193231
  0
LWPOLYLINE
  5
A7C
330
1F
100
AcDbEntity
  8
NETAFIM-L-DETL-013M
100
AcDbPolyline
 90
        2
 70
     0
 43
0.0
 10
8.672276386040906
 20
0.6249071639793371
 10
8.631780241607764
 20
0.6249071639793371
  0
LWPOLYLINE
  5
A7D
330
1F
100
AcDbEntity
  8
NETAFIM-L-DETL-013M
100
AcDbPolyline
 90
        2
 70
     0
 43
0.0
 10
8.678084469672661
 20
0.6662338263978178
 10
8.637588325239523
 20
0.6662338263978178
  0
LWPOLYLINE
  5
A7E
330
1F
100
AcDbEntity
  8
NETAFIM-L-DETL-013M
100
AcDbPolyline
 90
        2
 70
     0
 43
0.0
 10
8.878823340030642
 20
0.6249071639793371
 10
8.853959090316418
 20
0.6249071639793371
  0
LWPOLYLINE
  5
A7F
330
1F
100
AcDbEntity
  8
NETAFIM-L-DETL-013M
100
AcDbPolyline
 90
        2
 70
     0
 43
0.0
 10
8.947086271013084
 20
0.5649711891187535
 10
8.969600912732406
 20
0.725171189118754
  0
LWPOLYLINE
  5
A80
330
1F
100
AcDbEntity
  8
NETAFIM-L-DETL-013M
100
AcDbPolyline
 90
        2
 70
     0
 43
0.0
 10
9.059043472736302
 20
0.5649711891187535
 10
9.081558114455621
 20
0.725171189118754
  0
LWPOLYLINE
  5
A81
330
1F
100
AcDbEntity
  8
NETAFIM-L-DETL-013M
100
AcDbPolyline
 90
        2
 70
     0
 43
0.0
 10
9.060391984643786
 20
0.6818305484804972
 10
9.066483114455625
 20
0.725171189118754
  0
LWPOLYLINE
  5
A82
330
1F
100
AcDbEntity
  8
NETAFIM-L-DETL-013M
100
AcDbPolyline
 90
        2
 70
     0
 43
0.0
 10
8.775267221775955
 20
0.5649711891187535
 10
8.855139995386114
 20
0.725171189118754
  0
LWPOLYLINE
  5
A83
330
1F
100
AcDbEntity
  8
NETAFIM-L-DETL-013M
100
AcDbPolyline
 90
        2
 70
     0
 43
0.0
 10
8.829267221775953
 20
0.5649711891187535
 10
8.837971398315644
 20
0.5860993311793683
  0
LWPOLYLINE
  5
A84
330
1F
100
AcDbEntity
  8
NETAFIM-L-DETL-013M
100
AcDbPolyline
 90
        2
 70
     0
 43
0.0
 10
8.853959090316418
 20
0.6249071639793371
 10
8.876105958546798
 20
0.678665515046256
  0
LWPOLYLINE
  5
A85
330
1F
100
AcDbEntity
  8
NETAFIM-L-DETL-013M
100
AcDbPolyline
 90
        2
 70
     0
 43
0.0
 10
8.933602988542361
 20
0.5649711891187535
 10
8.912512258428861
 20
0.725171189118754
  0
LWPOLYLINE
  5
A86
330
1F
100
AcDbEntity
  8
NETAFIM-L-DETL-013M
100
AcDbPolyline
 90
        2
 70
     0
 43
0.0
 10
8.881852988542362
 20
0.5649711891187535
 10
8.880785001506225
 20
0.5860993311793683
  0
LWPOLYLINE
  5
A87
330
1F
100
AcDbEntity
  8
NETAFIM-L-DETL-013M
100
AcDbPolyline
 90
        2
 70
     0
 43
0.0
 10
8.878823340030642
 20
0.6249071639793371
 10
8.876105958546798
 20
0.678665515046256
  0
LWPOLYLINE
  5
A88
330
1F
100
AcDbEntity
  8
NETAFIM-L-DETL-013M
100
AcDbPolyline
 90
        2
 70
     0
 43
0.0
 10
9.048880867381832
 20
0.6249071639793371
 10
9.054688951013591
 20
0.6662338263978178
  0
LWPOLYLINE
  5
A89
330
1F
100
AcDbEntity
  8
NETAFIM-L-DETL-013M
100
AcDbPolyline
 90
        2
 70
     0
 43
0.0
 10
9.054688951013591
 20
0.6662338263978178
 10
9.014192806580449
 20
0.6662338263978178
  0
LWPOLYLINE
  5
A8A
330
1F
100
AcDbEntity
  8
NETAFIM-L-DETL-013M
100
AcDbPolyline
 90
        2
 70
     0
 43
0.0
 10
9.048880867381832
 20
0.6249071639793371
 10
9.008384722948694
 20
0.6249071639793371
  0
LWPOLYLINE
  5
A8B
330
1F
100
AcDbEntity
  8
NETAFIM-L-DETL-013M
100
AcDbPolyline
 90
        2
 70
     0
 43
0.0
 10
8.999961271013084
 20
0.5649711891187535
 10
9.008384722948694
 20
0.6249071639793371
  0
LWPOLYLINE
  5
A8C
330
1F
100
AcDbEntity
  8
NETAFIM-L-DETL-013M
100
AcDbPolyline
 90
        2
 70
     0
 43
0.0
 10
9.014192806580449
 20
0.6662338263978178
 10
9.016384782920571
 20
0.6818305484804972
  0
LWPOLYLINE
  5
A8D
330
1F
100
AcDbEntity
  8
NETAFIM-L-DETL-013M
100
AcDbPolyline
 90
        2
 70
     0
 43
0.0
 10
8.837971398315644
 20
0.5860993311793683
 10
8.880785001506225
 20
0.5860993311793683
  0
LWPOLYLINE
  5
A8E
330
1F
100
AcDbEntity
  8
NETAFIM-L-DETL-013M
100
AcDbPolyline
 90
        2
 70
     0
 43
0.0
 10
9.060391984643786
 20
0.6818305484804972
 10
9.016384782920571
 20
0.6818305484804972
  0
LWPOLYLINE
  5
A8F
330
1F
100
AcDbEntity
  8
NETAFIM-L-DETL-013M
100
AcDbPolyline
 90
        2
 70
     0
 43
0.0
 10
9.233007043797716
 20
0.6437429821594592
 10
9.222286816977462
 20
0.725171189118754
  0
LWPOLYLINE
  5
A90
330
1F
100
AcDbEntity
  8
NETAFIM-L-DETL-013M
100
AcDbPolyline
 90
        2
 70
     0
 43
0.0
 10
9.204960580050983
 20
0.5649711891187535
 10
9.194590601815551
 20
0.6437389939493868
  0
LWPOLYLINE
  5
A91
330
1F
100
AcDbEntity
  8
NETAFIM-L-DETL-013M
100
AcDbPolyline
 90
        2
 70
     0
 43
0.0
 10
9.269742683095667
 20
0.5649711891187535
 10
9.269742683095667
 20
0.6502987951342672
  0
LWPOLYLINE
  5
A92
330
1F
100
AcDbEntity
  8
NETAFIM-L-DETL-013M
100
AcDbPolyline
 90
        2
 70
     0
 43
0.0
 10
9.122504297234019
 20
0.5649711891187535
 10
9.168440908032582
 20
0.725171189118754
  0
LWPOLYLINE
  5
A93
330
1F
100
AcDbEntity
  8
NETAFIM-L-DETL-013M
100
AcDbPolyline
 90
        2
 70
     0
 43
0.0
 10
9.172004297234021
 20
0.5649711891187535
 10
9.194590601815551
 20
0.6437389939493868
  0
LWPOLYLINE
  5
A94
330
1F
100
AcDbEntity
  8
NETAFIM-L-DETL-013M
100
AcDbPolyline
 90
        2
 70
     0
 43
0.0
 10
9.233007043797716
 20
0.6437429821594592
 10
9.261999315857149
 20
0.725171189118754
  0
LWPOLYLINE
  5
A95
330
1F
100
AcDbEntity
  8
NETAFIM-L-DETL-013M
100
AcDbPolyline
 90
        2
 70
     0
 43
0.0
 10
9.239362041544534
 20
0.5649711891187544
 10
9.269742683095667
 20
0.6502987951342672
  0
LWPOLYLINE
  5
A96
330
1F
100
AcDbEntity
  8
NETAFIM-L-DETL-013M
100
AcDbPolyline
 90
        2
 70
     0
 43
0.0
 10
8.593129131873485
 20
0.725171189118754
 10
8.689878633114695
 20
0.725171189118754
  0
LWPOLYLINE
  5
A97
330
1F
100
AcDbEntity
  8
NETAFIM-L-DETL-013M
100
AcDbPolyline
 90
        2
 70
     0
 43
0.0
 10
9.334881383606692
 20
0.725171189118754
 10
9.334881383606692
 20
0.7204461891187535
  0
LWPOLYLINE
  5
A98
330
1F
100
AcDbEntity
  8
NETAFIM-L-DETL-013M
100
AcDbPolyline
 90
        2
 70
     0
 43
0.0
 10
9.359631383606693
 20
0.725171189118754
 10
9.359631383606693
 20
0.7204461891187535
  0
LWPOLYLINE
  5
A99
330
1F
100
AcDbEntity
  8
NETAFIM-L-DETL-013M
100
AcDbPolyline
 90
        2
 70
     0
 43
0.0
 10
9.363456383606692
 20
0.725171189118754
 10
9.363456383606692
 20
0.695471189118754
  0
LWPOLYLINE
  5
A9A
330
1F
100
AcDbEntity
  8
NETAFIM-L-DETL-013M
100
AcDbPolyline
 90
        2
 70
     0
 43
0.0
 10
9.370206383606692
 20
0.695471189118754
 10
9.370206383606692
 20
0.7169114771485594
  0
LWPOLYLINE
  5
A9B
330
1F
100
AcDbEntity
  8
NETAFIM-L-DETL-013M
100
AcDbPolyline
 90
        2
 70
     0
 43
0.0
 10
9.392031383606692
 20
0.695471189118754
 10
9.392031383606692
 20
0.7169114771485594
  0
LWPOLYLINE
  5
A9C
330
1F
100
AcDbEntity
  8
NETAFIM-L-DETL-013M
100
AcDbPolyline
 90
        2
 70
     0
 43
0.0
 10
9.343881383606689
 20
0.695471189118754
 10
9.343881383606689
 20
0.7204461891187535
  0
LWPOLYLINE
  5
A9D
330
1F
100
AcDbEntity
  8
NETAFIM-L-DETL-013M
100
AcDbPolyline
 90
        2
 70
     0
 43
0.0
 10
9.334881383606692
 20
0.7204461891187535
 10
9.343881383606689
 20
0.7204461891187535
  0
LWPOLYLINE
  5
A9E
330
1F
100
AcDbEntity
  8
NETAFIM-L-DETL-013M
100
AcDbPolyline
 90
        2
 70
     0
 43
0.0
 10
9.350631383606692
 20
0.7204461891187535
 10
9.359631383606693
 20
0.7204461891187535
  0
LWPOLYLINE
  5
A9F
330
1F
100
AcDbEntity
  8
NETAFIM-L-DETL-013M
100
AcDbPolyline
 90
        2
 70
     0
 43
0.0
 10
9.374481383606692
 20
0.725171189118754
 10
9.381118883606692
 20
0.7087429164725388
  0
LWPOLYLINE
  5
AA0
330
1F
100
AcDbEntity
  8
NETAFIM-L-DETL-013M
100
AcDbPolyline
 90
        2
 70
     0
 43
0.0
 10
9.387756383606692
 20
0.725171189118754
 10
9.381118883606692
 20
0.7087429164725388
  0
LWPOLYLINE
  5
AA1
330
1F
100
AcDbEntity
  8
NETAFIM-L-DETL-013M
100
AcDbPolyline
 90
        2
 70
     0
 43
0.0
 10
9.392031383606692
 20
0.7169114771485594
 10
9.383368883606692
 20
0.695471189118754
  0
LWPOLYLINE
  5
AA2
330
1F
100
AcDbEntity
  8
NETAFIM-L-DETL-013M
100
AcDbPolyline
 90
        2
 70
     0
 43
0.0
 10
9.370206383606692
 20
0.7169114771485594
 10
9.378868883606692
 20
0.695471189118754
  0
LWPOLYLINE
  5
AA3
330
1F
100
AcDbEntity
  8
NETAFIM-L-DETL-013M
100
AcDbPolyline
 90
        2
 70
     0
 43
0.0
 10
9.134433114455621
 20
0.725171189118754
 10
9.111918472736302
 20
0.5649711891187535
  0
LWPOLYLINE
  5
AA4
330
1F
100
AcDbEntity
  8
NETAFIM-L-DETL-013M
100
AcDbPolyline
 90
        2
 70
     0
 43
0.0
 10
9.317892683095667
 20
0.5649711891187535
 10
9.317892683095667
 20
0.725171189118754
  0
LWPOLYLINE
  5
AA5
330
1F
100
AcDbEntity
  8
NETAFIM-L-DETL-013M
100
AcDbPolyline
 90
        2
 70
     0
 43
0.0
 10
9.350631383606692
 20
0.695471189118754
 10
9.350631383606692
 20
0.7204461891187535
  0
LWPOLYLINE
  5
AA6
330
1F
100
AcDbEntity
  8
NETAFIM-L-DETL-013M
100
AcDbPolyline
 90
        2
 70
     0
 43
0.0
 10
9.398781383606692
 20
0.695471189118754
 10
9.398781383606692
 20
0.725171189118754
  0
MULTILEADER
  5
AA7
330
1F
100
AcDbEntity
  8
NETAFIM-L-DETL-TEXT-LEADER-025M
 92
      768
310
00030000150000000C00000016000000000000C00C00000013000000993A0000B40000000B000000EEC352F63EF21740B8BBF7C248DC1A40000000000000000000000000000000000000000000000000000000000000F03F000000000000F03F0000000000000000000000000000000052454D4F544520434F4E54524F4C20
310
56414C56450000200014000000010000000AD7A3703D0AB73F000000000000F03F0000000000000000000000000000F03F0000000000000000000000000000000000000000726F6D616E732E736878000000000000B80000000B000000AD5728E905FB17401E225E29AF421A40000000000000000000000000000000000000
310
000000000000000000000000F03F000000000000F03F000000000000000000000000000000005749544820444953432046494C54455220414E44205052560000650018000000010000000AD7A3703D0AB73F000000000000F03F0000000000000000000000000000F03F000000000000000000000000000000000000000072
310
6F6D616E732E7368780000000028380C00000010000000070000000C00000016000000000000C00C00000012000000FF7F00000C00000013000000010000000C000000140000000100000054000000070000000300000089BAE21924C70F402D9CF05788B2194000000000000000003845D6A413CE0E4050EB3D1D44AF1940
310
0000000000000000B72CC12B8FB70F40E9E3EFACBEDA194000000000000000000C00000013000000891300003C0000000600000002000000A0F3D1A259BF0F400B407082A3C619400000000000000000A01E310F00371640765B12F225011B4000000000000000000C00000013000000112700003C00000006000000020000
310
00A01E310F00371640765B12F225011B400000000000000000115C3BE6A3A71740765B12F225011B4000000000000000000C00000016000000000000C00C00000012000000FF7F00000C00000017000000000000000C000000130000009A3A00000C00000016000000000000C00C00000012000000FF7F00000C0000001700
310
0000FFFFFFFF
100
AcDbMLeader
300
CONTEXT_DATA{
 40
1.0
 10
5.913711163876556
 20
6.75112131344837
 30
0.0
 41
0.09
140
0.12
145
0.09
174
     1
175
     1
176
     0
177
     0
290
     1
304
{\Fromans|c0;REMOTE CONTROL VALVE WITH DISC FILTER AND PRV}
 11
0.0
 21
0.0
 31
1.0
340
810
 12
6.003711163876556
 22
6.805121313448371
 32
0.0
 13
1.0
 23
0.0
 33
0.0
 42
0.0
 43
2.045079931307213
 44
0.0
 45
1.0
170
     1
 90
-1073741824
171
     1
172
     5
 91
-1073741824
141
0.0
 92
        0
291
     0
292
     0
173
     0
293
     0
142
0.0
143
0.0
294
     0
295
     0
296
     0
110
3.552375989147748
120
6.541941012051957
130
0.0
111
1.0
121
0.0
131
0.0
112
0.0
122
1.0
132
0.0
297
     0
302
LEADER{
290
     1
291
     1
 10
5.553711163876556
 20
6.75112131344837
 30
0.0
 11
1.0
 21
0.0
 31
0.0
 90
        0
 40
0.36
304
LEADER_LINE{
 10
3.85062340525533
 20
6.421158272651908
 30
0.0
 91
        0
305
}
303
}
301
}
340
813
 90
   279552
170
     1
 91
-1056964608
341
14
171
    -2
290
     1
291
     1
 41
0.36
 42
0.12
172
     2
343
810
173
     1
 95
        1
174
     1
175
     0
 92
-1056964608
292
     0
 93
-1056964608
 10
1.0
 20
1.0
 30
1.0
 43
0.0
176
     0
293
     0
294
     0
178
     0
179
     1
 45
1.0
1001
ACAD_MLEADERVER
1070
     2
  0
MULTILEADER
  5
AA8
330
1F
100
AcDbEntity
  8
NETAFIM-L-DETL-TEXT-LEADER-025M
 92
     1088
310
40040000170000000C00000016000000000000C00C00000013000000993A0000A80000000B0000008C21936269FF174022E8772598DA1840000000000000000000000000000000000000000000000000000000000000F03F000000000000F03F00000000000000000000000000000000546563686C696E6500002000080000
310
00010000000AD7A3703D0AB73F000000000000F03F0000000000000000000000000000F03F0000000000000000000000000000000000000000726F6D616E732E7368780000000000009C0000000B000000F5E94C32981F1A4022E8772598DA1840000000000000000000000000000000000000000000000000000000000000
310
F03F000000000000F03F00000000000000000000000000000000AE00000001000000010000000AD7A3703D0AB73F000000000000F03F0000000000000000000000000000F03F0000000000000000000000000000000000000000417269616C00000000000000B40000000B0000002F8D3974A57E1A4022E8772598DA184000
310
0000000000000000000000000000000000000000000000000000000000F03F000000000000F03F0000000000000000000000000000000020525720535441525420434F4E4E454354494F4E0050525614000000010000000AD7A3703D0AB73F000000000000F03F0000000000000000000000000000F03F0000000000000000
310
000000000000000000000000726F6D616E732E736878007300780000B40000000B000000EDC352F63EF21740894EDE8BFE401840000000000000000000000000000000000000000000000000000000000000F03F000000000000F03F000000000000000000000000000000004D414C45204144415054455220414E44205445
310
450000200014000000010000000AD7A3703D0AB73F000000000000F03F0000000000000000000000000000F03F0000000000000000000000000000000000000000726F6D616E732E7368780000000000000C00000010000000070000000C00000016000000000000C00C00000012000000FF7F00000C000000130000000100
310
00000C00000014000000010000005400000007000000030000005BB5D94A3DCA1040588F72B8522518400000000000000000A44A6E022C60104038AB2811FDE317400000000000000000F39CD70251AF10408459EB193144184000000000000000000C00000013000000891300003C000000060000000200000027A9D826C7
310
BC10406EF42EE9C13418400000000000000000E8A7DFE38DB11140868843F63E0A194000000000000000000C00000013000000112700003C0000000600000002000000E8A7DFE38DB11140868843F63E0A19400000000000000000105C3BE6A3A71740868843F63E0A194000000000000000000C00000016000000000000C0
310
0C00000012000000FF7F00000C00000017000000000000000C000000130000009A3A00000C00000016000000000000C00C00000012000000FF7F00000C00000017000000FFFFFFFF
100
AcDbMLeader
300
CONTEXT_DATA{
 40
1.0
 10
5.913711163876556
 20
6.260005805847077
 30
0.0
 41
0.09
140
0.12
145
0.09
174
     1
175
     1
176
     0
177
     0
290
     1
304
{\Fromans|c0;Techline}®{\Fromans|c0; RW START CONNECTION\PMALE ADAPTER AND TEE}
 11
0.0
 21
0.0
 31
1.0
340
810
 12
6.003711163876555
 22
6.305005805847077
 32
0.0
 13
1.0
 23
0.0
 33
0.0
 42
0.0
 43
0.0
 44
0.0
 45
1.0
170
     1
 90
-1073741824
171
     1
172
     5
 91
-1073741824
141
0.0
 92
        0
291
     0
292
     0
173
     0
293
     0
142
0.0
143
0.0
294
     0
295
     0
296
     0
110
3.322714751247019
120
5.984488994664012
130
0.0
111
1.0
121
0.0
131
0.0
112
0.0
122
1.0
132
0.0
297
     0
302
LEADER{
290
     1
291
     1
 10
4.423392830396529
 20
6.260005805847077
 30
0.0
 11
1.0
 21
0.0
 31
0.0
 90
        0
 40
1.490318333480026
304
LEADER_LINE{
 10
4.093917882901823
 20
5.97264506159518
 30
0.0
 91
        0
305
}
303
}
301
}
340
813
 90
   279680
170
     1
 91
-1056964608
341
14
171
    -2
290
     1
291
     1
 41
0.36
 42
0.12
172
     2
343
810
173
     1
 95
        1
174
     1
175
     0
 92
-1056964608
292
     0
 93
-1056964608
 10
1.0
 20
1.0
 30
1.0
 43
0.0
176
     0
293
     0
294
     0
178
     0
179
     1
 45
1.0
1001
ACAD_MLEADERVER
1070
     2
  0
MULTILEADER
  5
AA9
330
1F
100
AcDbEntity
  8
NETAFIM-L-DETL-TEXT-LEADER-025M
 92
      576
310
40020000140000000C00000016000000000000C00C00000013000000993A0000AC0000000B000000A1C959735EDE1740270C629539850640000000000000000000000000000000000000000000000000000000000000F03F000000000000F03F000000000000000000000000000000004152454120504552494D4554455200
310
000E000000010000000AD7A3703D0AB73F000000000000F03F0000000000000000000000000000F03F0000000000000000000000000000000000000000726F6D616E732E736878000000006D000C00000010000000070000000C00000016000000000000C00C00000012000000FF7F00000C00000013000000010000000C00
310
000014000000010000005400000007000000030000005B44ECBF989F13407BEF0731FEA506400000000000000000E02F3E78B7241340A44B97F3F3CE064000000000000000005B44ECBF989F1340CDA726B6E9F7064000000000000000000C00000013000000891300003C00000006000000020000005B44ECBF989F1340A4
310
4B97F3F3CE06400000000000000000D4FC8CA691111640A44B97F3F3CE064000000000000000000C00000013000000112700003C0000000600000002000000D4FC8CA691111640A44B97F3F3CE06400000000000000000453A977D35821740A44B97F3F3CE064000000000000000000C00000016000000000000C00C000000
310
12000000FF7F00000C00000017000000000000000C000000130000009A3A00000C00000016000000000000C00C00000012000000FF7F00000C00000017000000FFFFFFFF
100
AcDbMLeader
300
CONTEXT_DATA{
 40
1.0
 10
5.877157175402833
 20
2.851051238112136
 30
0.0
 41
0.09
140
0.12
145
0.09
174
     1
175
     1
176
     0
177
     0
290
     1
304
\A1;{\Fromans|c0;AREA PERIMETER\A0;\fArial|b0|i0|c0|p34; }
 11
0.0
 21
0.0
 31
1.0
340
810
 12
5.967157175402832
 22
2.905051238112136
 32
0.0
 13
1.0
 23
0.0
 33
0.0
 42
0.0
 43
0.0
 44
0.0
 45
1.0
170
     1
 90
-1073741824
171
     1
172
     5
 91
-1073741824
141
0.0
 92
        0
291
     0
292
     0
173
     0
293
     0
142
0.0
143
0.0
294
     0
295
     0
296
     0
110
4.831918201121482
120
2.851051238112136
130
0.0
111
1.0
121
0.0
131
0.0
112
0.0
122
1.0
132
0.0
297
     0
302
LEADER{
290
     1
291
     1
 10
5.517157175402832
 20
2.851051238112136
 30
0.0
 11
1.0
 21
0.0
 31
0.0
 90
        0
 40
0.36
304
LEADER_LINE{
 10
4.785856131358713
 20
2.851051238112136
 30
0.0
 91
        0
305
}
303
}
301
}
340
813
 90
   279552
170
     1
 91
-1056964608
341
14
171
    -2
290
     1
291
     1
 41
0.36
 42
0.12
172
     2
343
810
173
     1
 95
        1
174
     1
175
     0
 92
-1056964608
292
     0
 93
-1056964608
 10
1.0
 20
1.0
 30
1.0
 43
0.0
176
     0
293
     0
294
     0
178
   256
179
     1
 45
1.0
1001
ACAD_MLEADERVER
1070
     2
  0
MULTILEADER
  5
AAA
330
1F
100
AcDbEntity
  8
NETAFIM-L-DETL-TEXT-LEADER-025M
 92
      752
310
F0020000150000000C00000016000000000000C00C00000013000000993A0000B00000000B000000026C190734D11740BCCAA1E7A7041440000000000000000000000000000000000000000000000000000000000000F03F000000000000F03F00000000000000000000000000000000534545205350454349464943415449
310
4F4E53000012000000010000000AD7A3703D0AB73F000000000000F03F0000000000000000000000000000F03F0000000000000000000000000000000000000000726F6D616E732E736878000000000000AC0000000B00000022A2AE8DD0CC17402231084E0E6B134000000000000000000000000000000000000000000000
310
0000000000000000F03F000000000000F03F00000000000000000000000000000000464F5220524F572053504143494E47000F000000010000000AD7A3703D0AB73F000000000000F03F0000000000000000000000000000F03F0000000000000000000000000000000000000000726F6D616E732E7368780000000075000C
310
00000010000000070000000C00000016000000000000C00C00000012000000FF7F00000C00000013000000010000000C00000014000000010000005400000007000000030000005EC3FF8B1F2D1140CAC7ECC5E8E8144000000000000000009B6666593BF4104009C5911ABC571540000000000000000037D23ACEFD4D1140
310
2F69D4E15901154000000000000000000C00000013000000891300003C0000000600000002000000CB4A1DAD8E3D11407C98E05321F514400000000000000000A85CCFE8F7D411407A6ABC168529144000000000000000000C00000013000000112700003C0000000600000002000000A85CCFE8F7D411407A6ABC16852914
310
400000000000000000443A977D358217407A6ABC168529144000000000000000000C00000016000000000000C00C00000012000000FF7F00000C00000017000000000000000C000000130000009A3A00000C00000016000000000000C00C00000012000000FF7F00000C00000017000000FFFFFFFF
100
AcDbMLeader
300
CONTEXT_DATA{
 40
1.0
 10
5.877157175402833
 20
5.040546756029124
 30
0.0
 41
0.09
140
0.12
145
0.09
174
     1
175
     1
176
     0
177
     0
290
     1
304
{\Fromans|c0;SEE SPECIFICATIONS\PFOR ROW SPACING}
 11
0.0
 21
0.0
 31
1.0
340
810
 12
5.967157175402832
 22
5.094546756029124
 32
0.0
 13
1.0
 23
0.0
 33
0.0
 42
0.0
 43
0.0
 44
0.0
 45
1.0
170
     1
 90
-1073741824
171
     1
172
     5
 91
-1073741824
141
0.0
 92
        0
291
     0
292
     0
173
     0
293
     0
142
0.0
143
0.0
294
     0
295
     0
296
     0
110
4.230424000576107
120
5.306802182079557
130
0.0
111
1.0
121
0.0
131
0.0
112
0.0
122
1.0
132
0.0
297
     0
302
LEADER{
290
     1
291
     1
 10
4.457976949364059
 20
5.040546756029124
 30
0.0
 11
1.0
 21
0.0
 31
0.0
 90
        0
 40
1.419180226038772
304
LEADER_LINE{
 10
4.238507649302529
 20
5.335678496501039
 30
0.0
 91
        0
305
}
303
}
301
}
340
813
 90
   279680
170
     1
 91
-1056964608
341
14
171
    -2
290
     1
291
     1
 41
0.36
 42
0.12
172
     2
343
810
173
     1
 95
        1
174
     1
175
     0
 92
-1056964608
292
     0
 93
-1056964608
 10
1.0
 20
1.0
 30
1.0
 43
0.0
176
     0
293
     0
294
     0
178
     0
179
     1
 45
1.0
1001
ACAD_MLEADERVER
1070
     2
  0
MULTILEADER
  5
AAB
330
1F
100
AcDbEntity
  8
NETAFIM-L-DETL-TEXT-LEADER-025M
 92
      756
310
F4020000150000000C00000016000000000000C00C00000013000000993A0000B00000000B000000EEC352F63EF217407AB0371AAA8C1140000000000000000000000000000000000000000000000000000000000000F03F000000000000F03F00000000000000000000000000000000504552494D45544552204C41544552
310
414C53000012000000010000000AD7A3703D0AB73F000000000000F03F0000000000000000000000000000F03F0000000000000000000000000000000000000000726F6D616E732E736878000000000000B00000000B000000CE8DBD6FA2F6174061EFF29A82E1104000000000000000000000000000000000000000000000
310
0000000000000000F03F000000000000F03F00000000000000000000000000000000322220544F2034222046524F4D2045444745000012000000010000000AD7A3703D0AB73F000000000000F03F0000000000000000000000000000F03F0000000000000000000000000000000000000000726F6D616E732E736878000000
310
0000000C00000010000000070000000C00000016000000000000C00C00000012000000FF7F00000C00000013000000010000000C00000014000000010000005400000007000000030000002550EBD225671340FA81FFE5B91513400000000000000000FF7765DC38031340C3B0BA991D60134000000000000000001F2AAB67
310
DF791340B0C3F6D0273A134000000000000000000C00000013000000891300003C0000000600000002000000223D4B9D82701340D5227BDBF02713400000000000000000A01E310F0037164028F81895BEBA114000000000000000000C00000013000000112700003C0000000600000002000000A01E310F0037164028F818
310
95BEBA11400000000000000000115C3BE6A3A7174028F81895BEBA114000000000000000000C00000016000000000000C00C00000012000000FF7F00000C00000017000000000000000C000000130000009A3A00000C00000016000000000000C00C00000012000000FF7F00000C00000017000000FFFFFFFF
100
AcDbMLeader
300
CONTEXT_DATA{
 40
1.0
 10
5.913711163876556
 20
4.432367639206894
 30
0.0
 41
0.09
140
0.12
145
0.09
174
     1
175
     1
176
     0
177
     0
290
     1
304
{\Fromans|c0;PERIMETER LATERALS\P2" TO 4" FROM EDGE }
 11
0.0
 21
0.0
 31
1.0
340
810
 12
6.003711163876556
 22
4.477367639206894
 32
0.0
 13
1.0
 23
0.0
 33
0.0
 42
0.0
 43
0.0
 44
0.0
 45
1.0
170
     1
 90
-1073741824
171
     1
172
     5
 91
-1073741824
141
0.0
 92
        0
291
     0
292
     0
173
     0
293
     0
142
0.0
143
0.0
294
     0
295
     0
296
     0
110
4.678810579355456
120
4.814932708624432
130
0.0
111
1.0
121
0.0
131
0.0
112
0.0
122
1.0
132
0.0
297
     0
302
LEADER{
290
     1
291
     1
 10
5.553711163876556
 20
4.432367639206894
 30
0.0
 11
1.0
 21
0.0
 31
0.0
 90
        0
 40
0.36
304
LEADER_LINE{
 10
4.753146594708595
 20
4.843862916965181
 30
0.0
 91
        0
305
}
303
}
301
}
340
813
 90
   279552
170
     1
 91
-1056964608
341
14
171
    -2
290
     1
291
     1
 41
0.36
 42
0.12
172
     2
343
810
173
     1
 95
        1
174
     1
175
     0
 92
-1056964608
292
     0
 93
-1056964608
 10
1.0
 20
1.0
 30
1.0
 43
0.0
176
     0
293
     0
294
     0
178
     0
179
     1
 45
1.0
1001
ACAD_MLEADERVER
1070
     2
  0
MULTILEADER
  5
AAC
330
1F
100
AcDbEntity
  8
NETAFIM-L-DETL-TEXT-LEADER-025M
 92
      900
310
84030000160000000C00000016000000000000C00C00000013000000993A0000A80000000B0000008D21936269FF17404CA59F4F020A0E40000000000000000000000000000000000000000000000000000000000000F03F000000000000F03F00000000000000000000000000000000546563686C696E6500002000080000
310
00010000000AD7A3703D0AB73F000000000000F03F0000000000000000000000000000F03F0000000000000000000000000000000000000000726F6D616E732E7368780000000000009C0000000B000000F6E94C32981F1A40964CB5F96F080E40000000000000000000000000000000000000000000000000000000000000
310
F03F000000000000F03F00000000000000000000000000000000AE00540001000000010000000AD7A3703D0AB73F000000000000F03F0000000000000000000000000000F03F0000000000000000000000000000000000000000417269616C00540000004500AC0000000B000000308D3974A57E1A404CA59F4F020A0E4000
310
0000000000000000000000000000000000000000000000000000000000F03F000000000000F03F0000000000000000000000000000000020525720445249504C494E45002045440C000000010000000AD7A3703D0AB73F000000000000F03F0000000000000000000000000000F03F00000000000000000000000000000000
310
00000000726F6D616E732E7368780073007800000C00000010000000070000000C00000016000000000000C00C00000012000000FF7F00000C00000013000000010000000C00000014000000010000005400000007000000030000009DB06AF5340212406DB6D8FB17811040000000000000000040843F65EF931140305A9D
310
190DBB10400000000000000000463DF4120B0F1240FEB12886FDA7104000000000000000000C00000013000000891300003C0000000600000002000000F2762F04A008124035B400C18A9410400000000000000000A01E310F0037164060C8CCEC9B660E4000000000000000000C00000013000000112700003C0000000600
310
000002000000A01E310F0037164060C8CCEC9B660E400000000000000000115C3BE6A3A7174060C8CCEC9B660E4000000000000000000C00000016000000000000C00C00000012000000FF7F00000C00000017000000000000000C000000130000009A3A00000C00000016000000000000C00C00000012000000FF7F00000C
310
00000017000000FFFFFFFF
100
AcDbMLeader
300
CONTEXT_DATA{
 40
1.0
 10
5.913711163876556
 20
3.800102090835068
 30
0.0
 41
0.09
140
0.12
145
0.09
174
     1
175
     1
176
     0
177
     0
290
     1
304
\A1;{\Fromans|c0;Techline\A0;\fArial|b0|i0|c0|p34;®\A1;\Fromans|c0; RW DRIPLINE}
 11
0.0
 21
0.0
 31
1.0
340
810
 12
6.003711163876556
 22
3.845654614709556
 32
0.0
 13
1.0
 23
0.0
 33
0.0
 42
0.0
 43
0.0
 44
0.0
 45
1.0
170
     1
 90
-1073741824
171
     1
172
     5
 91
-1073741824
141
0.0
 92
        0
291
     0
292
     0
173
     0
293
     0
142
0.0
143
0.0
294
     0
295
     0
296
     0
110
4.394467908860917
120
4.182667160252591
130
0.0
111
1.0
121
0.0
131
0.0
112
0.0
122
1.0
132
0.0
297
     0
302
LEADER{
290
     1
291
     1
 10
5.553711163876556
 20
3.800102090835068
 30
0.0
 11
1.0
 21
0.0
 31
0.0
 90
        0
 40
0.36
304
LEADER_LINE{
 10
4.394467908860917
 20
4.182667160252591
 30
0.0
 91
        0
305
}
303
}
301
}
340
813
 90
   279552
170
     1
 91
-1056964608
341
14
171
    -2
290
     1
291
     1
 41
0.36
 42
0.12
172
     2
343
810
173
     1
 95
        1
174
     1
175
     0
 92
-1056964608
292
     0
 93
-1056964608
 10
1.0
 20
1.0
 30
1.0
 43
0.0
176
     0
293
     0
294
     0
178
   256
179
     1
 45
1.0
1001
ACAD_MLEADERVER
1070
     2
  0
MULTILEADER
  5
AAD
330
1F
100
AcDbEntity
  8
NETAFIM-L-DETL-TEXT-LEADER-025M
 92
      764
310
FC020000150000000C00000016000000000000C00C00000013000000993A0000B40000000B0000008D21936269FF17408FCA7D5A138DF43F000000000000000000000000000000000000000000000000000000000000F03F000000000000F03F000000000000000000000000000000004155544F4D4154494320464C555348
310
2056414C564500200015000000010000000AD7A3703D0AB73F000000000000F03F0000000000000000000000000000F03F0000000000000000000000000000000000000000726F6D616E732E736878000000000000B40000000B000000EEC352F63EF21740286417F4AC26F23F000000000000000000000000000000000000
310
000000000000000000000000F03F000000000000F03F00000000000000000000000000000000504C554D42454420544F20505643204F5220504F4C59005616000000010000000AD7A3703D0AB73F000000000000F03F0000000000000000000000000000F03F0000000000000000000000000000000000000000726F6D616E
310
732E7368780073007800000C00000010000000070000000C00000016000000000000C00C00000012000000FF7F00000C00000013000000010000000C00000014000000010000005400000007000000030000009E335BA4EB130F4097BFE43734C6ED3F0000000000000000C68A78ED1D1B0E40211B74C9AB91ED3F00000000
310
00000000CEE53E5336020F402CC2AAF52206EF3F00000000000000000C00000013000000891300003C0000000600000002000000B60CCDFB100B0F40E1C0C7962B66EE3F0000000000000000A01E310F003716408949E8168820F53F00000000000000000C00000013000000112700003C0000000600000002000000A01E31
310
0F003716408949E8168820F53F0000000000000000115C3BE6A3A717408949E8168820F53F00000000000000000C00000016000000000000C00C00000012000000FF7F00000C00000017000000000000000C000000130000009A3A00000C00000016000000000000C00C00000012000000FF7F00000C00000017000000FFFF
310
FFFF
100
AcDbMLeader
300
CONTEXT_DATA{
 40
1.0
 10
5.913711163876556
 20
1.320442285043642
 30
0.0
 41
0.09
140
0.12
145
0.09
174
     1
175
     1
176
     0
177
     0
290
     1
304
{\Fromans|c0;AUTOMATIC FLUSH VALVE\PPLUMBED TO PVC OR POLY}
 11
0.0
 21
0.0
 31
1.0
340
810
 12
6.003711163876556
 22
1.374442285043642
 32
0.0
 13
1.0
 23
0.0
 33
0.0
 42
0.0
 43
2.342680692474612
 44
0.0
 45
1.0
170
     1
 90
-1073741824
171
     1
172
     5
 91
-1073741824
141
0.0
 92
        0
291
     0
292
     0
173
     0
293
     0
142
0.0
143
0.0
294
     0
295
     0
296
     0
110
3.421140940419235
120
0.8690468252937009
130
0.0
111
1.0
121
0.0
131
0.0
112
0.0
122
1.0
132
0.0
297
     0
302
LEADER{
290
     1
291
     1
 10
5.553711163876556
 20
1.320442285043642
 30
0.0
 11
1.0
 21
0.0
 31
0.0
 90
        0
 40
0.36
304
LEADER_LINE{
 10
3.763240676156189
 20
0.9240321097030099
 30
0.0
 91
        0
305
}
303
}
301
}
340
813
 90
   279552
170
     1
 91
-1056964608
341
14
171
    -2
290
     1
291
     1
 41
0.36
 42
0.12
172
     2
343
810
173
     1
 95
        1
174
     1
175
     0
 92
-1056964608
292
     0
 93
-1056964608
 10
1.0
 20
1.0
 30
1.0
 43
0.0
176
     0
293
     0
294
     0
178
     0
179
     1
 45
1.0
1001
ACAD_MLEADERVER
1070
     2
  0
MULTILEADER
  5
CCB
330
1F
100
AcDbEntity
  8
NETAFIM-L-DETL-TEXT-LEADER-025M
 92
      588
310
4C020000140000000C00000016000000000000C00C00000013000000993A0000B80000000B000000EDC352F63EF217402F4AC495D447FB3F000000000000000000000000000000000000000000000000000000000000F03F000000000000F03F00000000000000000000000000000000505643204F5220504F4C5920455848
310
415553542048454144455200001A000000010000000AD7A3703D0AB73F000000000000F03F0000000000000000000000000000F03F0000000000000000000000000000000000000000726F6D616E732E7368780000000028380C00000010000000070000000C00000016000000000000C00C00000012000000FF7F00000C00
310
000013000000010000000C000000140000000100000054000000070000000300000004F2170B274810402EFD932C8F2FF43F0000000000000000400F3B2E0CA00F40981ABC769EABF33F0000000000000000C98DC111F63610408C9DFD2045C4F43F00000000000000000C00000013000000891300003C0000000600000002
310
000000E7BF6C8E8E3F10405DCDC826EA79F43F000000000000000050E9A71D0A3D144029C92E5249DBFB3F00000000000000000C00000013000000112700003C000000060000000200000050E9A71D0A3D144029C92E5249DBFB3F0000000000000000105C3BE6A3A7174029C92E5249DBFB3F00000000000000000C000000
310
16000000000000C00C00000012000000FF7F00000C00000017000000000000000C000000130000009A3A00000C00000016000000000000C00C00000012000000FF7F00000C00000017000000FFFFFFFF
100
AcDbMLeader
300
CONTEXT_DATA{
 40
1.0
 10
5.913711163876556
 20
1.741036721254724
 30
0.0
 41
0.09
140
0.12
145
0.09
174
     1
175
     1
176
     0
177
     0
290
     1
304
{\Fromans|c0;PVC OR POLY EXHAUST HEADER}
 11
0.0
 21
0.0
 31
1.0
340
810
 12
6.003711163876555
 22
1.795036721254724
 32
0.0
 13
1.0
 23
0.0
 33
0.0
 42
0.0
 43
2.342680692474612
 44
0.0
 45
1.0
170
     1
 90
-1073741824
171
     1
172
     5
 91
-1073741824
141
0.0
 92
        0
291
     0
292
     0
173
     0
293
     0
142
0.0
143
0.0
294
     0
295
     0
296
     0
110
3.421140940419235
120
1.27140374794267
130
0.0
111
1.0
121
0.0
131
0.0
112
0.0
122
1.0
132
0.0
297
     0
302
LEADER{
290
     1
291
     1
 10
5.059608901380059
 20
1.741036721254724
 30
0.0
 11
1.0
 21
0.0
 31
0.0
 90
        0
 40
0.854102262496497
304
LEADER_LINE{
 10
3.95314823262916
 20
1.229399169738519
 30
0.0
 91
        0
305
}
303
}
301
}
340
813
 90
   279680
170
     1
 91
-1056964608
341
14
171
    -2
290
     1
291
     1
 41
0.36
 42
0.12
172
     2
343
810
173
     1
 95
        1
174
     1
175
     0
 92
-1056964608
292
     0
 93
-1056964608
 10
1.0
 20
1.0
 30
1.0
 43
0.0
176
     0
293
     0
294
     0
178
     0
179
     1
 45
1.0
1001
ACAD_MLEADERVER
1070
     2
  0
MULTILEADER
  5
CCE
330
1F
100
AcDbEntity
  8
NETAFIM-L-DETL-TEXT-LEADER-025M
 92
      588
310
4C020000140000000C00000016000000000000C00C00000013000000993A0000B80000000B000000EDC352F63EF217406C0CAD85660E1640000000000000000000000000000000000000000000000000000000000000F03F000000000000F03F00000000000000000000000000000000505643204F5220504F4C5920455848
310
415553542048454144455200001A000000010000000AD7A3703D0AB73F000000000000F03F0000000000000000000000000000F03F0000000000000000000000000000000000000000726F6D616E732E7368780000000028380C00000010000000070000000C00000016000000000000C00C00000012000000FF7F00000C00
310
000013000000010000000C0000001400000001000000540000000700000003000000877ADE6BEA801240758A1163FE501740000000000000000058112AB7F8271240006BEA7C37A817400000000000000000E9A83D7F659812403F3588228E72174000000000000000000C00000013000000891300003C0000000600000002
310
000000B8118EF5A78C1240DADFCC42C6611740000000000000000050E9A71D0A3D14402AACC7B44333164000000000000000000C00000013000000112700003C000000060000000200000050E9A71D0A3D14402AACC7B4433316400000000000000000105C3BE6A3A717402AACC7B44333164000000000000000000C000000
310
16000000000000C00C00000012000000FF7F00000C00000017000000000000000C000000130000009A3A00000C00000016000000000000C00C00000012000000FF7F00000C00000017000000FFFFFFFF
100
AcDbMLeader
300
CONTEXT_DATA{
 40
1.0
 10
5.913711163876556
 20
5.550062966048281
 30
0.0
 41
0.09
140
0.12
145
0.09
174
     1
175
     1
176
     0
177
     0
290
     1
304
{\Fromans|c0;PVC OR POLY EXHAUST HEADER}
 11
0.0
 21
0.0
 31
1.0
340
810
 12
6.003711163876555
 22
5.604062966048282
 32
0.0
 13
1.0
 23
0.0
 33
0.0
 42
0.0
 43
2.342680692474612
 44
0.0
 45
1.0
170
     1
 90
-1073741824
171
     1
172
     5
 91
-1073741824
141
0.0
 92
        0
291
     0
292
     0
173
     0
293
     0
142
0.0
143
0.0
294
     0
295
     0
296
     0
110
3.421140940419235
120
4.631906661560572
130
0.0
111
1.0
121
0.0
131
0.0
112
0.0
122
1.0
132
0.0
297
     0
302
LEADER{
290
     1
291
     1
 10
5.059608901380059
 20
5.550062966048281
 30
0.0
 11
1.0
 21
0.0
 31
0.0
 90
        0
 40
0.854102262496497
304
LEADER_LINE{
 10
4.539034711783038
 20
5.914274169738519
 30
0.0
 91
        0
305
}
303
}
301
}
340
813
 90
   279680
170
     1
 91
-1056964608
341
14
171
    -2
290
     1
291
     1
 41
0.36
 42
0.12
172
     2
343
810
173
     1
 95
        1
174
     1
175
     0
 92
-1056964608
292
     0
 93
-1056964608
 10
1.0
 20
1.0
 30
1.0
 43
0.0
176
     0
293
     0
294
     0
178
     0
179
     1
 45
1.0
1001
ACAD_MLEADERVER
1070
     2
  0
LINE
  5
1607
330
1F
100
AcDbEntity
  8
NETAFIM-L-DETL-HIDD-035M
  6
DASHED2
100
AcDbLine
 10
2.462956131358712
 20
6.058799169738518
 30
0.0
 11
4.785856131358713
 21
6.058799169738518
 31
0.0
  0
LINE
  5
1608
330
1F
100
AcDbEntity
  8
NETAFIM-L-DETL-HIDD-035M
  6
DASHED2
100
AcDbLine
 10
4.785856131358713
 20
6.058799169738518
 30
0.0
 11
4.785856131358713
 21
1.058774169738519
 31
0.0
  0
LINE
  5
1609
330
1F
100
AcDbEntity
  8
NETAFIM-L-DETL-HIDD-035M
  6
DASHED2
100
AcDbLine
 10
4.785856131358713
 20
1.058774169738519
 30
0.0
 11
2.462956131358712
 21
1.058774169738519
 31
0.0
  0
LINE
  5
160A
330
1F
100
AcDbEntity
  8
NETAFIM-L-DETL-HIDD-035M
  6
DASHED2
100
AcDbLine
 10
2.462956131358712
 20
1.058774169738519
 30
0.0
 11
2.462956131358712
 21
6.058799169738518
 31
0.0
  0
LINE
  5
160B
330
1F
100
AcDbEntity
  8
NETAFIM-L-DETL-025M-TUBING
  6
Continuous
100
AcDbLine
 10
2.532939142848299
 20
1.198537707275011
 30
0.0
 11
2.530464142848298
 21
5.95406270727501
 31
0.0
  0
LINE
  5
160C
330
1F
100
AcDbEntity
  8
NETAFIM-L-DETL-025M
  6
Continuous
100
AcDbLine
 10
3.535831131358712
 20
1.251524169738519
 30
0.0
 11
3.733756131358713
 21
1.251524169738519
 31
0.0
  0
LINE
  5
160D
330
1F
100
AcDbEntity
  8
NETAFIM-L-DETL-025M
  6
Continuous
100
AcDbLine
 10
3.733756131358713
 20
1.251524169738519
 30
0.0
 11
3.733756131358713
 21
1.136924169738519
 31
0.0
  0
LINE
  5
160E
330
1F
100
AcDbEntity
  8
NETAFIM-L-DETL-025M
  6
Continuous
100
AcDbLine
 10
3.733756131358713
 20
1.136924169738519
 30
0.0
 11
3.694681131358713
 21
1.136924169738519
 31
0.0
  0
LINE
  5
160F
330
1F
100
AcDbEntity
  8
NETAFIM-L-DETL-025M
  6
Continuous
100
AcDbLine
 10
3.694681131358713
 20
1.136924169738519
 30
0.0
 11
3.694681131358713
 21
1.100474169738519
 31
0.0
  0
LINE
  5
1610
330
1F
100
AcDbEntity
  8
NETAFIM-L-DETL-025M
  6
Continuous
100
AcDbLine
 10
3.694681131358713
 20
1.100474169738519
 30
0.0
 11
3.577531131358714
 21
1.100474169738519
 31
0.0
  0
LINE
  5
1611
330
1F
100
AcDbEntity
  8
NETAFIM-L-DETL-025M
  6
Continuous
100
AcDbLine
 10
3.577531131358714
 20
1.100474169738519
 30
0.0
 11
3.577531131358714
 21
1.134299169738519
 31
0.0
  0
LINE
  5
1612
330
1F
100
AcDbEntity
  8
NETAFIM-L-DETL-025M
  6
Continuous
100
AcDbLine
 10
3.577531131358714
 20
1.134299169738519
 30
0.0
 11
3.535831131358712
 21
1.134299169738519
 31
0.0
  0
LINE
  5
1613
330
1F
100
AcDbEntity
  8
NETAFIM-L-DETL-025M
  6
Continuous
100
AcDbLine
 10
3.535831131358712
 20
1.134299169738519
 30
0.0
 11
3.535831131358712
 21
1.251524169738519
 31
0.0
  0
LINE
  5
1614
330
1F
100
AcDbEntity
  8
NETAFIM-L-DETL-025M
  6
Continuous
100
AcDbLine
 10
3.521243631358711
 20
5.894175916213953
 30
0.0
 11
3.719093631358713
 21
5.894175916213953
 31
0.0
  0
LINE
  5
1615
330
1F
100
AcDbEntity
  8
NETAFIM-L-DETL-025M
  6
Continuous
100
AcDbLine
 10
3.719093631358713
 20
5.894175916213953
 30
0.0
 11
3.719093631358713
 21
6.008700916213951
 31
0.0
  0
LINE
  5
1616
330
1F
100
AcDbEntity
  8
NETAFIM-L-DETL-025M
  6
Continuous
100
AcDbLine
 10
3.719093631358713
 20
6.008700916213951
 30
0.0
 11
3.680093631358712
 21
6.008700916213951
 31
0.0
  0
LINE
  5
1617
330
1F
100
AcDbEntity
  8
NETAFIM-L-DETL-025M
  6
Continuous
100
AcDbLine
 10
3.680093631358712
 20
6.008700916213951
 30
0.0
 11
3.680093631358712
 21
6.045225916213952
 31
0.0
  0
LINE
  5
1618
330
1F
100
AcDbEntity
  8
NETAFIM-L-DETL-025M
  6
Continuous
100
AcDbLine
 10
3.680093631358712
 20
6.045225916213952
 30
0.0
 11
3.562868631358711
 21
6.045225916213952
 31
0.0
  0
LINE
  5
1619
330
1F
100
AcDbEntity
  8
NETAFIM-L-DETL-025M
  6
Continuous
100
AcDbLine
 10
3.562868631358711
 20
6.045225916213952
 30
0.0
 11
3.562868631358711
 21
6.011325916213953
 31
0.0
  0
LINE
  5
161A
330
1F
100
AcDbEntity
  8
NETAFIM-L-DETL-025M
  6
Continuous
100
AcDbLine
 10
3.562868631358711
 20
6.011325916213953
 30
0.0
 11
3.521243631358711
 21
6.011325916213953
 31
0.0
  0
LINE
  5
161B
330
1F
100
AcDbEntity
  8
NETAFIM-L-DETL-025M
  6
Continuous
100
AcDbLine
 10
3.521243631358711
 20
6.011325916213953
 30
0.0
 11
3.521243631358711
 21
5.894175916213953
 31
0.0
  0
LINE
  5
161C
330
1F
100
AcDbEntity
  8
NETAFIM-L-DETL-035M
  6
Continuous
100
AcDbLine
 10
3.535831131358712
 20
1.148624169738519
 30
0.0
 11
2.504581131358712
 21
1.148624169738519
 31
0.0
  0
LINE
  5
161D
330
1F
100
AcDbEntity
  8
NETAFIM-L-DETL-035M
  6
Continuous
100
AcDbLine
 10
2.504581131358712
 20
1.148624169738519
 30
0.0
 11
2.504581131358712
 21
1.229399169738519
 31
0.0
  0
LINE
  5
161E
330
1F
100
AcDbEntity
  8
NETAFIM-L-DETL-035M
  6
Continuous
100
AcDbLine
 10
2.504581131358712
 20
1.229399169738519
 30
0.0
 11
3.535831131358712
 21
1.229399169738519
 31
0.0
  0
LINE
  5
161F
330
1F
100
AcDbEntity
  8
NETAFIM-L-DETL-035M
  6
Continuous
100
AcDbLine
 10
3.733756131358713
 20
1.229399169738519
 30
0.0
 11
4.754581131358712
 21
1.229399169738519
 31
0.0
  0
LINE
  5
1620
330
1F
100
AcDbEntity
  8
NETAFIM-L-DETL-035M
  6
Continuous
100
AcDbLine
 10
4.754581131358712
 20
1.229399169738519
 30
0.0
 11
4.754581131358712
 21
1.148624169738519
 31
0.0
  0
LINE
  5
1621
330
1F
100
AcDbEntity
  8
NETAFIM-L-DETL-035M
  6
Continuous
100
AcDbLine
 10
4.754581131358712
 20
1.148624169738519
 30
0.0
 11
3.733756131358713
 21
1.148624169738519
 31
0.0
  0
LINE
  5
1622
330
1F
100
AcDbEntity
  8
NETAFIM-L-DETL-035M
  6
Continuous
100
AcDbLine
 10
3.661885905255328
 20
6.134999169738522
 30
0.0
 11
3.661885905255328
 21
6.045225916213952
 31
0.0
  0
LINE
  5
1623
330
1F
100
AcDbEntity
  8
NETAFIM-L-DETL-035M
  6
Continuous
100
AcDbLine
 10
3.581110905255325
 20
6.045225916213952
 30
0.0
 11
3.581110905255325
 21
6.13499916973852
 31
0.0
  0
LINE
  5
1624
330
1F
100
AcDbEntity
  8
NETAFIM-L-DETL-035M
  6
Continuous
100
AcDbLine
 10
2.49415613135871
 20
5.994974169738519
 30
0.0
 11
3.521243631358711
 21
5.994974169738519
 31
0.0
  0
LINE
  5
1625
330
1F
100
AcDbEntity
  8
NETAFIM-L-DETL-035M
  6
Continuous
100
AcDbLine
 10
3.719093631358713
 20
5.994974169738519
 30
0.0
 11
4.74415613135871
 21
5.994974169738519
 31
0.0
  0
LINE
  5
1626
330
1F
100
AcDbEntity
  8
NETAFIM-L-DETL-035M
  6
Continuous
100
AcDbLine
 10
4.74415613135871
 20
5.994974169738519
 30
0.0
 11
4.74415613135871
 21
5.914274169738519
 31
0.0
  0
LINE
  5
1627
330
1F
100
AcDbEntity
  8
NETAFIM-L-DETL-035M
  6
Continuous
100
AcDbLine
 10
4.74415613135871
 20
5.914274169738519
 30
0.0
 11
3.719093631358713
 21
5.914274169738519
 31
0.0
  0
LINE
  5
1628
330
1F
100
AcDbEntity
  8
NETAFIM-L-DETL-035M
  6
Continuous
100
AcDbLine
 10
3.521243631358711
 20
5.914274169738519
 30
0.0
 11
2.49415613135871
 21
5.914274169738519
 31
0.0
  0
LINE
  5
1629
330
1F
100
AcDbEntity
  8
NETAFIM-L-DETL-035M
  6
Continuous
100
AcDbLine
 10
2.49415613135871
 20
5.914274169738519
 30
0.0
 11
2.49415613135871
 21
5.994974169738519
 31
0.0
  0
LINE
  5
162A
330
1F
100
AcDbEntity
  8
NETAFIM-L-DETL-035M
  6
Continuous
100
AcDbLine
 10
3.675181131358712
 20
1.100474169738519
 30
0.0
 11
3.675181131358712
 21
1.030013010199255
 31
0.0
  0
LINE
  5
162B
330
1F
100
AcDbEntity
  8
NETAFIM-L-DETL-035M
  6
Continuous
100
AcDbLine
 10
3.594481131358712
 20
1.033294650061932
 30
0.0
 11
3.594481131358712
 21
1.100474169738519
 31
0.0
  0
ARC
  5
162C
330
1F
100
AcDbEntity
  8
NETAFIM-L-DETL-035M
  6
Continuous
100
AcDbCircle
 10
3.629581131358669
 20
0.9025491697385037
 30
0.0
 40
0.1353749999999956
100
AcDbArc
 50
115.7874585180341
 51
115.242779645503
  0
ARC
  5
162D
330
1F
100
AcDbEntity
  8
NETAFIM-L-DETL-025M-TUBING
  6
Continuous
100
AcDbCircle
 10
2.566127731137452
 20
5.954266511193401
 30
0.0
 40
0.0138904450245243
100
AcDbArc
 50
359.9999999999945
 51
29.01955162933561
  0
ARC
  5
162E
330
1F
100
AcDbEntity
  8
NETAFIM-L-DETL-025M-TUBING
  6
Continuous
100
AcDbCircle
 10
2.560968471740526
 20
5.951404385084972
 30
0.0
 40
0.0197904215825563
100
AcDbArc
 50
29.01955162935199
 51
53.25277257202152
  0
ARC
  5
162F
330
1F
100
AcDbEntity
  8
NETAFIM-L-DETL-025M-TUBING
  6
Continuous
100
AcDbCircle
 10
2.557602329492343
 20
5.946896118889812
 30
0.0
 40
0.0254167327827468
100
AcDbArc
 50
53.25277257202129
 51
72.81437923352391
  0
ARC
  5
1630
330
1F
100
AcDbEntity
  8
NETAFIM-L-DETL-025M-TUBING
  6
Continuous
100
AcDbCircle
 10
2.555403827930788
 20
5.939787592982133
 30
0.0
 40
0.0328574686130474
100
AcDbArc
 50
72.81437923349685
 51
90.0
  0
ARC
  5
1631
330
1F
100
AcDbEntity
  8
NETAFIM-L-DETL-025M-TUBING
  6
Continuous
100
AcDbCircle
 10
2.555403827930788
 20
5.939787592982119
 30
0.0
 40
0.0328574686130621
100
AcDbArc
 50
90.0
 51
107.1856207665
  0
ARC
  5
1632
330
1F
100
AcDbEntity
  8
NETAFIM-L-DETL-025M-TUBING
  6
Continuous
100
AcDbCircle
 10
2.553205326369241
 20
5.946896118889807
 30
0.0
 40
0.0254167327827547
100
AcDbArc
 50
107.1856207664927
 51
126.7472274279835
  0
ARC
  5
1633
330
1F
100
AcDbEntity
  8
NETAFIM-L-DETL-025M-TUBING
  6
Continuous
100
AcDbCircle
 10
2.549839184121051
 20
5.95140438508498
 30
0.0
 40
0.0197904215825464
100
AcDbArc
 50
126.7472274279853
 51
150.9804483706673
  0
ARC
  5
1634
330
1F
100
AcDbEntity
  8
NETAFIM-L-DETL-025M-TUBING
  6
Continuous
100
AcDbCircle
 10
2.544679924724125
 20
5.954266511193399
 30
0.0
 40
0.0138904450245199
100
AcDbArc
 50
150.9804483706535
 51
180.0
  0
ARC
  5
1635
330
1F
100
AcDbEntity
  8
NETAFIM-L-DETL-025M-TUBING
  6
Continuous
100
AcDbCircle
 10
2.544679924724125
 20
5.954266511193399
 30
0.0
 40
0.013890445024523
100
AcDbArc
 50
180.0
 51
209.0195516293456
  0
ARC
  5
1636
330
1F
100
AcDbEntity
  8
NETAFIM-L-DETL-025M-TUBING
  6
Continuous
100
AcDbCircle
 10
2.549839184121054
 20
5.957128637301821
 30
0.0
 40
0.0197904215825514
100
AcDbArc
 50
209.0195516293424
 51
233.2527725720154
  0
ARC
  5
1637
330
1F
100
AcDbEntity
  8
NETAFIM-L-DETL-025M-TUBING
  6
Continuous
100
AcDbCircle
 10
2.553205326369237
 20
5.961636903496987
 30
0.0
 40
0.0254167327827505
100
AcDbArc
 50
233.2527725720201
 51
252.8143792335199
  0
ARC
  5
1638
330
1F
100
AcDbEntity
  8
NETAFIM-L-DETL-025M-TUBING
  6
Continuous
100
AcDbCircle
 10
2.555403827930788
 20
5.968745429404666
 30
0.0
 40
0.0328574686130486
100
AcDbArc
 50
252.8143792334975
 51
270.0
  0
ARC
  5
1639
330
1F
100
AcDbEntity
  8
NETAFIM-L-DETL-025M-TUBING
  6
Continuous
100
AcDbCircle
 10
2.555403827930788
 20
5.968745429404707
 30
0.0
 40
0.03285746861309
100
AcDbArc
 50
270.0
 51
287.185620766485
  0
ARC
  5
163A
330
1F
100
AcDbEntity
  8
NETAFIM-L-DETL-025M-TUBING
  6
Continuous
100
AcDbCircle
 10
2.557602329492326
 20
5.961636903497005
 30
0.0
 40
0.0254167327827748
100
AcDbArc
 50
287.185620766507
 51
306.7472274279836
  0
ARC
  5
163B
330
1F
100
AcDbEntity
  8
NETAFIM-L-DETL-025M-TUBING
  6
Continuous
100
AcDbCircle
 10
2.56096847174053
 20
5.957128637301819
 30
0.0
 40
0.0197904215825478
100
AcDbArc
 50
306.7472274279776
 51
330.9804483706606
  0
ARC
  5
163C
330
1F
100
AcDbEntity
  8
NETAFIM-L-DETL-025M-TUBING
  6
Continuous
100
AcDbCircle
 10
2.566127731137456
 20
5.954266511193395
 30
0.0
 40
0.0138904450245197
100
AcDbArc
 50
330.9804483706659
 51
0.000000000010992
  0
ARC
  5
163D
330
1F
100
AcDbEntity
  8
NETAFIM-L-DETL-025M-TUBING
  6
Continuous
100
AcDbCircle
 10
4.398419813466926
 20
5.954266511193401
 30
0.0
 40
0.0138904450245243
100
AcDbArc
 50
359.9999999999945
 51
29.01955162933561
  0
ARC
  5
163E
330
1F
100
AcDbEntity
  8
NETAFIM-L-DETL-025M-TUBING
  6
Continuous
100
AcDbCircle
 10
4.393260554069996
 20
5.951404385084972
 30
0.0
 40
0.0197904215825563
100
AcDbArc
 50
29.01955162935199
 51
53.25277257202152
  0
ARC
  5
163F
330
1F
100
AcDbEntity
  8
NETAFIM-L-DETL-025M-TUBING
  6
Continuous
100
AcDbCircle
 10
4.389894411821817
 20
5.946896118889812
 30
0.0
 40
0.0254167327827468
100
AcDbArc
 50
53.25277257202129
 51
72.81437923352391
  0
ARC
  5
1640
330
1F
100
AcDbEntity
  8
NETAFIM-L-DETL-025M-TUBING
  6
Continuous
100
AcDbCircle
 10
4.387695910260262
 20
5.939787592982133
 30
0.0
 40
0.0328574686130474
100
AcDbArc
 50
72.81437923349685
 51
90.0
  0
ARC
  5
1641
330
1F
100
AcDbEntity
  8
NETAFIM-L-DETL-025M-TUBING
  6
Continuous
100
AcDbCircle
 10
4.387695910260262
 20
5.939787592982119
 30
0.0
 40
0.0328574686130621
100
AcDbArc
 50
90.0
 51
107.1856207665
  0
ARC
  5
1642
330
1F
100
AcDbEntity
  8
NETAFIM-L-DETL-025M-TUBING
  6
Continuous
100
AcDbCircle
 10
4.385497408698714
 20
5.946896118889807
 30
0.0
 40
0.0254167327827547
100
AcDbArc
 50
107.1856207664927
 51
126.7472274279835
  0
ARC
  5
1643
330
1F
100
AcDbEntity
  8
NETAFIM-L-DETL-025M-TUBING
  6
Continuous
100
AcDbCircle
 10
4.382131266450524
 20
5.951404385084979
 30
0.0
 40
0.0197904215825478
100
AcDbArc
 50
126.7472274279777
 51
150.9804483706605
  0
ARC
  5
1644
330
1F
100
AcDbEntity
  8
NETAFIM-L-DETL-025M-TUBING
  6
Continuous
100
AcDbCircle
 10
4.376972007053595
 20
5.954266511193401
 30
0.0
 40
0.0138904450245186
100
AcDbArc
 50
150.9804483706631
 51
180.000000000011
  0
ARC
  5
1645
330
1F
100
AcDbEntity
  8
NETAFIM-L-DETL-025M-TUBING
  6
Continuous
100
AcDbCircle
 10
4.376972007053598
 20
5.954266511193399
 30
0.0
 40
0.013890445024523
100
AcDbArc
 50
180.0
 51
209.0195516293456
  0
ARC
  5
1646
330
1F
100
AcDbEntity
  8
NETAFIM-L-DETL-025M-TUBING
  6
Continuous
100
AcDbCircle
 10
4.382131266450524
 20
5.957128637301821
 30
0.0
 40
0.0197904215825514
100
AcDbArc
 50
209.0195516293424
 51
233.2527725720154
  0
ARC
  5
1647
330
1F
100
AcDbEntity
  8
NETAFIM-L-DETL-025M-TUBING
  6
Continuous
100
AcDbCircle
 10
4.385497408698707
 20
5.961636903496987
 30
0.0
 40
0.0254167327827505
100
AcDbArc
 50
233.2527725720201
 51
252.8143792335199
  0
ARC
  5
1648
330
1F
100
AcDbEntity
  8
NETAFIM-L-DETL-025M-TUBING
  6
Continuous
100
AcDbCircle
 10
4.387695910260262
 20
5.968745429404666
 30
0.0
 40
0.0328574686130486
100
AcDbArc
 50
252.8143792334975
 51
270.0
  0
ARC
  5
1649
330
1F
100
AcDbEntity
  8
NETAFIM-L-DETL-025M-TUBING
  6
Continuous
100
AcDbCircle
 10
4.387695910260262
 20
5.968745429404707
 30
0.0
 40
0.03285746861309
100
AcDbArc
 50
270.0
 51
287.185620766485
  0
ARC
  5
164A
330
1F
100
AcDbEntity
  8
NETAFIM-L-DETL-025M-TUBING
  6
Continuous
100
AcDbCircle
 10
4.389894411821799
 20
5.961636903497005
 30
0.0
 40
0.0254167327827748
100
AcDbArc
 50
287.185620766507
 51
306.7472274279836
  0
ARC
  5
164B
330
1F
100
AcDbEntity
  8
NETAFIM-L-DETL-025M-TUBING
  6
Continuous
100
AcDbCircle
 10
4.39326055407
 20
5.957128637301819
 30
0.0
 40
0.0197904215825478
100
AcDbArc
 50
306.7472274279776
 51
330.9804483706606
  0
ARC
  5
164C
330
1F
100
AcDbEntity
  8
NETAFIM-L-DETL-025M-TUBING
  6
Continuous
100
AcDbCircle
 10
4.398419813466926
 20
5.954266511193395
 30
0.0
 40
0.0138904450245197
100
AcDbArc
 50
330.9804483706659
 51
0.000000000010992
  0
ARC
  5
164D
330
1F
100
AcDbEntity
  8
NETAFIM-L-DETL-025M-TUBING
  6
Continuous
100
AcDbCircle
 10
2.568643992442311
 20
1.193175203297084
 30
0.0
 40
0.0138904450245243
100
AcDbArc
 50
359.9999999999931
 51
29.01955162933436
  0
ARC
  5
164E
330
1F
100
AcDbEntity
  8
NETAFIM-L-DETL-025M-TUBING
  6
Continuous
100
AcDbCircle
 10
2.563484733045381
 20
1.190313077188655
 30
0.0
 40
0.0197904215825562
100
AcDbArc
 50
29.01955162935119
 51
53.25277257202078
  0
ARC
  5
164F
330
1F
100
AcDbEntity
  8
NETAFIM-L-DETL-025M-TUBING
  6
Continuous
100
AcDbCircle
 10
2.560118590797205
 20
1.185804810993495
 30
0.0
 40
0.0254167327827471
100
AcDbArc
 50
53.25277257202152
 51
72.81437923352412
  0
ARC
  5
1650
330
1F
100
AcDbEntity
  8
NETAFIM-L-DETL-025M-TUBING
  6
Continuous
100
AcDbCircle
 10
2.557920089235647
 20
1.178696285085816
 30
0.0
 40
0.032857468613047
100
AcDbArc
 50
72.81437923349642
 51
90.0
  0
ARC
  5
1651
330
1F
100
AcDbEntity
  8
NETAFIM-L-DETL-025M-TUBING
  6
Continuous
100
AcDbCircle
 10
2.557920089235647
 20
1.178696285085806
 30
0.0
 40
0.0328574686130577
100
AcDbArc
 50
90.0
 51
107.1856207665
  0
ARC
  5
1652
330
1F
100
AcDbEntity
  8
NETAFIM-L-DETL-025M-TUBING
  6
Continuous
100
AcDbCircle
 10
2.555721587674099
 20
1.185804810993485
 30
0.0
 40
0.0254167327827591
100
AcDbArc
 50
107.1856207664865
 51
126.7472274279766
  0
ARC
  5
1653
330
1F
100
AcDbEntity
  8
NETAFIM-L-DETL-025M-TUBING
  6
Continuous
100
AcDbCircle
 10
2.552355445425909
 20
1.190313077188664
 30
0.0
 40
0.0197904215825454
100
AcDbArc
 50
126.7472274279828
 51
150.9804483706665
  0
ARC
  5
1654
330
1F
100
AcDbEntity
  8
NETAFIM-L-DETL-025M-TUBING
  6
Continuous
100
AcDbCircle
 10
2.54719618602898
 20
1.193175203297081
 30
0.0
 40
0.013890445024519
100
AcDbArc
 50
150.9804483706485
 51
179.9999999999972
  0
ARC
  5
1655
330
1F
100
AcDbEntity
  8
NETAFIM-L-DETL-025M-TUBING
  6
Continuous
100
AcDbCircle
 10
2.547196186028983
 20
1.193175203297082
 30
0.0
 40
0.0138904450245217
100
AcDbArc
 50
180.0
 51
209.0195516293484
  0
ARC
  5
1656
330
1F
100
AcDbEntity
  8
NETAFIM-L-DETL-025M-TUBING
  6
Continuous
100
AcDbCircle
 10
2.552355445425913
 20
1.196037329405503
 30
0.0
 40
0.0197904215825501
100
AcDbArc
 50
209.0195516293432
 51
233.2527725720177
  0
ARC
  5
1657
330
1F
100
AcDbEntity
  8
NETAFIM-L-DETL-025M-TUBING
  6
Continuous
100
AcDbCircle
 10
2.555721587674096
 20
1.200545595600671
 30
0.0
 40
0.0254167327827513
100
AcDbArc
 50
233.2527725720213
 51
252.8143792335205
  0
ARC
  5
1658
330
1F
100
AcDbEntity
  8
NETAFIM-L-DETL-025M-TUBING
  6
Continuous
100
AcDbCircle
 10
2.557920089235647
 20
1.207654121508348
 30
0.0
 40
0.032857468613048
100
AcDbArc
 50
252.8143792334973
 51
270.0
  0
ARC
  5
1659
330
1F
100
AcDbEntity
  8
NETAFIM-L-DETL-025M-TUBING
  6
Continuous
100
AcDbCircle
 10
2.557920089235647
 20
1.20765412150839
 30
0.0
 40
0.0328574686130897
100
AcDbArc
 50
270.0
 51
287.1856207664853
  0
ARC
  5
165A
330
1F
100
AcDbEntity
  8
NETAFIM-L-DETL-025M-TUBING
  6
Continuous
100
AcDbCircle
 10
2.560118590797184
 20
1.20054559560069
 30
0.0
 40
0.0254167327827754
100
AcDbArc
 50
287.1856207665065
 51
306.7472274279828
  0
ARC
  5
165B
330
1F
100
AcDbEntity
  8
NETAFIM-L-DETL-025M-TUBING
  6
Continuous
100
AcDbCircle
 10
2.563484733045388
 20
1.196037329405502
 30
0.0
 40
0.0197904215825483
100
AcDbArc
 50
306.7472274279765
 51
330.980448370659
  0
ARC
  5
165C
330
1F
100
AcDbEntity
  8
NETAFIM-L-DETL-025M-TUBING
  6
Continuous
100
AcDbCircle
 10
2.568643992442314
 20
1.19317520329708
 30
0.0
 40
0.0138904450245202
100
AcDbArc
 50
330.9804483706622
 51
0.0000000000069209
  0
TEXT
  5
165D
330
1F
100
AcDbEntity
  8
NETAFIM-D-TEXT-025M
  6
Continuous
100
AcDbText
 10
3.543866845644383
 20
0.8525491697385037
 30
0.0
 40
0.1
  1
AF
  7
DETAIL TEXT
 72
     1
 11
3.629581131358669
 21
0.9025491697385037
 31
0.0
100
AcDbText
 73
     2
  0
LINE
  5
165E
330
1F
100
AcDbEntity
  8
NETAFIM-L-DETL-025M-TUBING
  6
Continuous
100
AcDbLine
 10
2.582185971243401
 20
1.198537707275011
 30
0.0
 11
2.581198609443237
 21
3.095678606155515
 31
0.0
  0
ARC
  5
165F
330
1F
100
AcDbEntity
  8
NETAFIM-L-DETL-025M-TUBING
  6
Continuous
100
AcDbCircle
 10
2.872392678528882
 20
5.954266511193397
 30
0.0
 40
0.0138904450245243
100
AcDbArc
 50
0.000000000005496
 51
29.01955162934799
  0
ARC
  5
1660
330
1F
100
AcDbEntity
  8
NETAFIM-L-DETL-025M-TUBING
  6
Continuous
100
AcDbCircle
 10
2.867233419131952
 20
5.951404385084972
 30
0.0
 40
0.0197904215825563
100
AcDbArc
 50
29.01955162935199
 51
53.25277257202152
  0
ARC
  5
1661
330
1F
100
AcDbEntity
  8
NETAFIM-L-DETL-025M-TUBING
  6
Continuous
100
AcDbCircle
 10
2.863867276883777
 20
5.946896118889817
 30
0.0
 40
0.0254167327827436
100
AcDbArc
 50
53.25277257201594
 51
72.81437923351815
  0
ARC
  5
1662
330
1F
100
AcDbEntity
  8
NETAFIM-L-DETL-025M-TUBING
  6
Continuous
100
AcDbCircle
 10
2.861668775322218
 20
5.939787592982133
 30
0.0
 40
0.0328574686130474
100
AcDbArc
 50
72.81437923349685
 51
90.0
  0
ARC
  5
1663
330
1F
100
AcDbEntity
  8
NETAFIM-L-DETL-025M-TUBING
  6
Continuous
100
AcDbCircle
 10
2.861668775322218
 20
5.939787592982119
 30
0.0
 40
0.0328574686130621
100
AcDbArc
 50
90.0
 51
107.1856207665
  0
ARC
  5
1664
330
1F
100
AcDbEntity
  8
NETAFIM-L-DETL-025M-TUBING
  6
Continuous
100
AcDbCircle
 10
2.85947027376067
 20
5.946896118889807
 30
0.0
 40
0.0254167327827547
100
AcDbArc
 50
107.1856207664927
 51
126.7472274279835
  0
ARC
  5
1665
330
1F
100
AcDbEntity
  8
NETAFIM-L-DETL-025M-TUBING
  6
Continuous
100
AcDbCircle
 10
2.856104131512481
 20
5.951404385084979
 30
0.0
 40
0.0197904215825478
100
AcDbArc
 50
126.7472274279777
 51
150.9804483706605
  0
ARC
  5
1666
330
1F
100
AcDbEntity
  8
NETAFIM-L-DETL-025M-TUBING
  6
Continuous
100
AcDbCircle
 10
2.850944872115555
 20
5.954266511193399
 30
0.0
 40
0.0138904450245199
100
AcDbArc
 50
150.9804483706535
 51
180.0
  0
ARC
  5
1667
330
1F
100
AcDbEntity
  8
NETAFIM-L-DETL-025M-TUBING
  6
Continuous
100
AcDbCircle
 10
2.850944872115558
 20
5.954266511193401
 30
0.0
 40
0.013890445024523
100
AcDbArc
 50
180.000000000011
 51
209.0195516293581
  0
ARC
  5
1668
330
1F
100
AcDbEntity
  8
NETAFIM-L-DETL-025M-TUBING
  6
Continuous
100
AcDbCircle
 10
2.856104131512484
 20
5.957128637301821
 30
0.0
 40
0.0197904215825502
100
AcDbArc
 50
209.019551629344
 51
233.2527725720185
  0
ARC
  5
1669
330
1F
100
AcDbEntity
  8
NETAFIM-L-DETL-025M-TUBING
  6
Continuous
100
AcDbCircle
 10
2.859470273760667
 20
5.961636903496984
 30
0.0
 40
0.0254167327827465
100
AcDbArc
 50
233.2527725720169
 51
252.8143792335173
  0
ARC
  5
166A
330
1F
100
AcDbEntity
  8
NETAFIM-L-DETL-025M-TUBING
  6
Continuous
100
AcDbCircle
 10
2.861668775322218
 20
5.96874542940467
 30
0.0
 40
0.0328574686130524
100
AcDbArc
 50
252.8143792334994
 51
270.0000000000022
  0
ARC
  5
166B
330
1F
100
AcDbEntity
  8
NETAFIM-L-DETL-025M-TUBING
  6
Continuous
100
AcDbCircle
 10
2.861668775322218
 20
5.968745429404703
 30
0.0
 40
0.032857468613086
100
AcDbArc
 50
270.0
 51
287.1856207664849
  0
ARC
  5
166C
330
1F
100
AcDbEntity
  8
NETAFIM-L-DETL-025M-TUBING
  6
Continuous
100
AcDbCircle
 10
2.863867276883755
 20
5.961636903497005
 30
0.0
 40
0.0254167327827748
100
AcDbArc
 50
287.185620766507
 51
306.7472274279836
  0
ARC
  5
166D
330
1F
100
AcDbEntity
  8
NETAFIM-L-DETL-025M-TUBING
  6
Continuous
100
AcDbCircle
 10
2.867233419131959
 20
5.957128637301819
 30
0.0
 40
0.0197904215825478
100
AcDbArc
 50
306.7472274279776
 51
330.9804483706606
  0
ARC
  5
166E
330
1F
100
AcDbEntity
  8
NETAFIM-L-DETL-025M-TUBING
  6
Continuous
100
AcDbCircle
 10
2.872392678528886
 20
5.954266511193399
 30
0.0
 40
0.0138904450245199
100
AcDbArc
 50
330.9804483706535
 51
0.0
  0
LINE
  5
166F
330
1F
100
AcDbEntity
  8
NETAFIM-L-DETL-025M-TUBING
  6
Continuous
100
AcDbLine
 10
2.888450918634831
 20
1.198537707275011
 30
0.0
 11
2.887462487825111
 21
3.097732627030651
 31
0.0
  0
LINE
  5
1670
330
1F
100
AcDbEntity
  8
NETAFIM-L-DETL-025M-TUBING
  6
Continuous
100
AcDbLine
 10
2.839204090239729
 20
1.198537707275011
 30
0.0
 11
2.83821566274827
 21
3.097726251242154
 31
0.0
  0
ARC
  5
1671
330
1F
100
AcDbEntity
  8
NETAFIM-L-DETL-025M-TUBING
  6
Continuous
100
AcDbCircle
 10
2.874908939833741
 20
1.19317520329708
 30
0.0
 40
0.0138904450245256
100
AcDbArc
 50
0.0000000000040711
 51
29.01955162934402
  0
ARC
  5
1672
330
1F
100
AcDbEntity
  8
NETAFIM-L-DETL-025M-TUBING
  6
Continuous
100
AcDbCircle
 10
2.869749680436814
 20
1.190313077188658
 30
0.0
 40
0.0197904215825547
100
AcDbArc
 50
29.01955162934362
 51
53.25277257201263
  0
ARC
  5
1673
330
1F
100
AcDbEntity
  8
NETAFIM-L-DETL-025M-TUBING
  6
Continuous
100
AcDbCircle
 10
2.866383538188635
 20
1.185804810993495
 30
0.0
 40
0.0254167327827471
100
AcDbArc
 50
53.25277257202152
 51
72.81437923352412
  0
ARC
  5
1674
330
1F
100
AcDbEntity
  8
NETAFIM-L-DETL-025M-TUBING
  6
Continuous
100
AcDbCircle
 10
2.86418503662708
 20
1.178696285085816
 30
0.0
 40
0.032857468613047
100
AcDbArc
 50
72.81437923349642
 51
90.0
  0
ARC
  5
1675
330
1F
100
AcDbEntity
  8
NETAFIM-L-DETL-025M-TUBING
  6
Continuous
100
AcDbCircle
 10
2.86418503662708
 20
1.178696285085801
 30
0.0
 40
0.0328574686130621
100
AcDbArc
 50
90.0
 51
107.1856207665
  0
ARC
  5
1676
330
1F
100
AcDbEntity
  8
NETAFIM-L-DETL-025M-TUBING
  6
Continuous
100
AcDbCircle
 10
2.861986535065529
 20
1.185804810993489
 30
0.0
 40
0.025416732782756
100
AcDbArc
 50
107.1856207664918
 51
126.7472274279817
  0
ARC
  5
1677
330
1F
100
AcDbEntity
  8
NETAFIM-L-DETL-025M-TUBING
  6
Continuous
100
AcDbCircle
 10
2.858620392817339
 20
1.190313077188662
 30
0.0
 40
0.0197904215825478
100
AcDbArc
 50
126.7472274279777
 51
150.9804483706605
  0
ARC
  5
1678
330
1F
100
AcDbEntity
  8
NETAFIM-L-DETL-025M-TUBING
  6
Continuous
100
AcDbCircle
 10
2.853461133420413
 20
1.193175203297084
 30
0.0
 40
0.0138904450245191
100
AcDbArc
 50
150.9804483706593
 51
180.0000000000068
  0
ARC
  5
1679
330
1F
100
AcDbEntity
  8
NETAFIM-L-DETL-025M-TUBING
  6
Continuous
100
AcDbCircle
 10
2.853461133420417
 20
1.193175203297082
 30
0.0
 40
0.013890445024523
100
AcDbArc
 50
180.0
 51
209.0195516293456
  0
ARC
  5
167A
330
1F
100
AcDbEntity
  8
NETAFIM-L-DETL-025M-TUBING
  6
Continuous
100
AcDbCircle
 10
2.858620392817343
 20
1.196037329405503
 30
0.0
 40
0.0197904215825512
100
AcDbArc
 50
209.0195516293415
 51
233.2527725720147
  0
ARC
  5
167B
330
1F
100
AcDbEntity
  8
NETAFIM-L-DETL-025M-TUBING
  6
Continuous
100
AcDbCircle
 10
2.861986535065526
 20
1.200545595600668
 30
0.0
 40
0.0254167327827484
100
AcDbArc
 50
233.2527725720165
 51
252.8143792335152
  0
ARC
  5
167C
330
1F
100
AcDbEntity
  8
NETAFIM-L-DETL-025M-TUBING
  6
Continuous
100
AcDbCircle
 10
2.86418503662708
 20
1.207654121508353
 30
0.0
 40
0.0328574686130528
100
AcDbArc
 50
252.8143792334973
 51
270.0
  0
ARC
  5
167D
330
1F
100
AcDbEntity
  8
NETAFIM-L-DETL-025M-TUBING
  6
Continuous
100
AcDbCircle
 10
2.86418503662708
 20
1.207654121508385
 30
0.0
 40
0.0328574686130854
100
AcDbArc
 50
270.0000000000022
 51
287.1856207664874
  0
ARC
  5
167E
330
1F
100
AcDbEntity
  8
NETAFIM-L-DETL-025M-TUBING
  6
Continuous
100
AcDbCircle
 10
2.866383538188618
 20
1.200545595600694
 30
0.0
 40
0.025416732782779
100
AcDbArc
 50
287.185620766504
 51
306.7472274279802
  0
ARC
  5
167F
330
1F
100
AcDbEntity
  8
NETAFIM-L-DETL-025M-TUBING
  6
Continuous
100
AcDbCircle
 10
2.869749680436818
 20
1.196037329405499
 30
0.0
 40
0.0197904215825464
100
AcDbArc
 50
306.7472274279853
 51
330.9804483706673
  0
ARC
  5
1680
330
1F
100
AcDbEntity
  8
NETAFIM-L-DETL-025M-TUBING
  6
Continuous
100
AcDbCircle
 10
2.874908939833744
 20
1.193175203297083
 30
0.0
 40
0.0138904450245215
100
AcDbArc
 50
330.9804483706527
 51
359.9999999999959
  0
ARC
  5
1681
330
1F
100
AcDbEntity
  8
NETAFIM-L-DETL-025M-TUBING
  6
Continuous
100
AcDbCircle
 10
3.181892819026561
 20
5.954266511193397
 30
0.0
 40
0.0138904450245243
100
AcDbArc
 50
0.000000000005496
 51
29.01955162934799
  0
ARC
  5
1682
330
1F
100
AcDbEntity
  8
NETAFIM-L-DETL-025M-TUBING
  6
Continuous
100
AcDbCircle
 10
3.176733559629631
 20
5.951404385084975
 30
0.0
 40
0.0197904215825539
100
AcDbArc
 50
29.01955162934718
 51
53.25277257201697
  0
ARC
  5
1683
330
1F
100
AcDbEntity
  8
NETAFIM-L-DETL-025M-TUBING
  6
Continuous
100
AcDbCircle
 10
3.173367417381452
 20
5.946896118889812
 30
0.0
 40
0.0254167327827468
100
AcDbArc
 50
53.25277257202129
 51
72.81437923352391
  0
ARC
  5
1684
330
1F
100
AcDbEntity
  8
NETAFIM-L-DETL-025M-TUBING
  6
Continuous
100
AcDbCircle
 10
3.171168915819897
 20
5.939787592982133
 30
0.0
 40
0.0328574686130474
100
AcDbArc
 50
72.81437923349685
 51
90.0
  0
ARC
  5
1685
330
1F
100
AcDbEntity
  8
NETAFIM-L-DETL-025M-TUBING
  6
Continuous
100
AcDbCircle
 10
3.171168915819897
 20
5.939787592982119
 30
0.0
 40
0.0328574686130621
100
AcDbArc
 50
90.0
 51
107.1856207665
  0
ARC
  5
1686
330
1F
100
AcDbEntity
  8
NETAFIM-L-DETL-025M-TUBING
  6
Continuous
100
AcDbCircle
 10
3.16897041425835
 20
5.946896118889807
 30
0.0
 40
0.0254167327827547
100
AcDbArc
 50
107.1856207664927
 51
126.7472274279835
  0
ARC
  5
1687
330
1F
100
AcDbEntity
  8
NETAFIM-L-DETL-025M-TUBING
  6
Continuous
100
AcDbCircle
 10
3.16560427201016
 20
5.95140438508498
 30
0.0
 40
0.0197904215825456
100
AcDbArc
 50
126.7472274279823
 51
150.9804483706656
  0
ARC
  5
1688
330
1F
100
AcDbEntity
  8
NETAFIM-L-DETL-025M-TUBING
  6
Continuous
100
AcDbCircle
 10
3.16044501261323
 20
5.954266511193399
 30
0.0
 40
0.0138904450245187
100
AcDbArc
 50
150.9804483706509
 51
180.0
  0
ARC
  5
1689
330
1F
100
AcDbEntity
  8
NETAFIM-L-DETL-025M-TUBING
  6
Continuous
100
AcDbCircle
 10
3.160445012613234
 20
5.954266511193399
 30
0.0
 40
0.0138904450245217
100
AcDbArc
 50
180.0
 51
209.0195516293484
  0
ARC
  5
168A
330
1F
100
AcDbEntity
  8
NETAFIM-L-DETL-025M-TUBING
  6
Continuous
100
AcDbCircle
 10
3.16560427201016
 20
5.957128637301821
 30
0.0
 40
0.0197904215825502
100
AcDbArc
 50
209.019551629344
 51
233.2527725720185
  0
ARC
  5
168B
330
1F
100
AcDbEntity
  8
NETAFIM-L-DETL-025M-TUBING
  6
Continuous
100
AcDbCircle
 10
3.168970414258343
 20
5.961636903496984
 30
0.0
 40
0.0254167327827465
100
AcDbArc
 50
233.2527725720169
 51
252.8143792335173
  0
ARC
  5
168C
330
1F
100
AcDbEntity
  8
NETAFIM-L-DETL-025M-TUBING
  6
Continuous
100
AcDbCircle
 10
3.171168915819897
 20
5.96874542940467
 30
0.0
 40
0.0328574686130524
100
AcDbArc
 50
252.8143792334994
 51
270.0000000000022
  0
ARC
  5
168D
330
1F
100
AcDbEntity
  8
NETAFIM-L-DETL-025M-TUBING
  6
Continuous
100
AcDbCircle
 10
3.171168915819897
 20
5.968745429404703
 30
0.0
 40
0.032857468613086
100
AcDbArc
 50
270.0
 51
287.1856207664849
  0
ARC
  5
168E
330
1F
100
AcDbEntity
  8
NETAFIM-L-DETL-025M-TUBING
  6
Continuous
100
AcDbCircle
 10
3.173367417381435
 20
5.96163690349701
 30
0.0
 40
0.0254167327827782
100
AcDbArc
 50
287.1856207665015
 51
306.7472274279782
  0
ARC
  5
168F
330
1F
100
AcDbEntity
  8
NETAFIM-L-DETL-025M-TUBING
  6
Continuous
100
AcDbCircle
 10
3.176733559629639
 20
5.957128637301815
 30
0.0
 40
0.0197904215825456
100
AcDbArc
 50
306.7472274279823
 51
330.9804483706656
  0
ARC
  5
1690
330
1F
100
AcDbEntity
  8
NETAFIM-L-DETL-025M-TUBING
  6
Continuous
100
AcDbCircle
 10
3.181892819026561
 20
5.954266511193399
 30
0.0
 40
0.0138904450245199
100
AcDbArc
 50
330.9804483706535
 51
0.0
  0
LINE
  5
1691
330
1F
100
AcDbEntity
  8
NETAFIM-L-DETL-025M-TUBING
  6
Continuous
100
AcDbLine
 10
3.19795105913251
 20
1.198537707275011
 30
0.0
 11
3.196973019077674
 21
3.077767578699473
 31
0.0
  0
LINE
  5
1692
330
1F
100
AcDbEntity
  8
NETAFIM-L-DETL-025M-TUBING
  6
Continuous
100
AcDbLine
 10
3.148704230737408
 20
1.198537707275011
 30
0.0
 11
3.14771579992769
 21
3.097732627030651
 31
0.0
  0
ARC
  5
1693
330
1F
100
AcDbEntity
  8
NETAFIM-L-DETL-025M-TUBING
  6
Continuous
100
AcDbCircle
 10
3.184409080331416
 20
1.193175203297084
 30
0.0
 40
0.0138904450245243
100
AcDbArc
 50
359.9999999999931
 51
29.01955162933436
  0
ARC
  5
1694
330
1F
100
AcDbEntity
  8
NETAFIM-L-DETL-025M-TUBING
  6
Continuous
100
AcDbCircle
 10
3.17924982093449
 20
1.190313077188655
 30
0.0
 40
0.0197904215825562
100
AcDbArc
 50
29.01955162935119
 51
53.25277257202078
  0
ARC
  5
1695
330
1F
100
AcDbEntity
  8
NETAFIM-L-DETL-025M-TUBING
  6
Continuous
100
AcDbCircle
 10
3.175883678686314
 20
1.185804810993495
 30
0.0
 40
0.0254167327827471
100
AcDbArc
 50
53.25277257202152
 51
72.81437923352412
  0
ARC
  5
1696
330
1F
100
AcDbEntity
  8
NETAFIM-L-DETL-025M-TUBING
  6
Continuous
100
AcDbCircle
 10
3.173685177124756
 20
1.178696285085816
 30
0.0
 40
0.032857468613047
100
AcDbArc
 50
72.81437923349642
 51
90.0
  0
ARC
  5
1697
330
1F
100
AcDbEntity
  8
NETAFIM-L-DETL-025M-TUBING
  6
Continuous
100
AcDbCircle
 10
3.173685177124756
 20
1.178696285085801
 30
0.0
 40
0.0328574686130621
100
AcDbArc
 50
90.0
 51
107.1856207665
  0
ARC
  5
1698
330
1F
100
AcDbEntity
  8
NETAFIM-L-DETL-025M-TUBING
  6
Continuous
100
AcDbCircle
 10
3.171486675563208
 20
1.185804810993489
 30
0.0
 40
0.025416732782756
100
AcDbArc
 50
107.1856207664918
 51
126.7472274279817
  0
ARC
  5
1699
330
1F
100
AcDbEntity
  8
NETAFIM-L-DETL-025M-TUBING
  6
Continuous
100
AcDbCircle
 10
3.168120533315018
 20
1.190313077188664
 30
0.0
 40
0.0197904215825462
100
AcDbArc
 50
126.7472274279858
 51
150.9804483706681
  0
ARC
  5
169A
330
1F
100
AcDbEntity
  8
NETAFIM-L-DETL-025M-TUBING
  6
Continuous
100
AcDbCircle
 10
3.162961273918092
 20
1.193175203297081
 30
0.0
 40
0.0138904450245202
100
AcDbArc
 50
150.980448370651
 51
179.9999999999972
  0
ARC
  5
169B
330
1F
100
AcDbEntity
  8
NETAFIM-L-DETL-025M-TUBING
  6
Continuous
100
AcDbCircle
 10
3.162961273918096
 20
1.193175203297082
 30
0.0
 40
0.013890445024523
100
AcDbArc
 50
180.0
 51
209.0195516293456
  0
ARC
  5
169C
330
1F
100
AcDbEntity
  8
NETAFIM-L-DETL-025M-TUBING
  6
Continuous
100
AcDbCircle
 10
3.168120533315022
 20
1.196037329405503
 30
0.0
 40
0.0197904215825512
100
AcDbArc
 50
209.0195516293415
 51
233.2527725720147
  0
ARC
  5
169D
330
1F
100
AcDbEntity
  8
NETAFIM-L-DETL-025M-TUBING
  6
Continuous
100
AcDbCircle
 10
3.171486675563205
 20
1.200545595600671
 30
0.0
 40
0.0254167327827513
100
AcDbArc
 50
233.2527725720213
 51
252.8143792335205
  0
ARC
  5
169E
330
1F
100
AcDbEntity
  8
NETAFIM-L-DETL-025M-TUBING
  6
Continuous
100
AcDbCircle
 10
3.173685177124756
 20
1.207654121508348
 30
0.0
 40
0.032857468613048
100
AcDbArc
 50
252.8143792334973
 51
270.0
  0
ARC
  5
169F
330
1F
100
AcDbEntity
  8
NETAFIM-L-DETL-025M-TUBING
  6
Continuous
100
AcDbCircle
 10
3.173685177124756
 20
1.20765412150839
 30
0.0
 40
0.0328574686130897
100
AcDbArc
 50
270.0
 51
287.1856207664853
  0
ARC
  5
16A0
330
1F
100
AcDbEntity
  8
NETAFIM-L-DETL-025M-TUBING
  6
Continuous
100
AcDbCircle
 10
3.175883678686293
 20
1.20054559560069
 30
0.0
 40
0.0254167327827754
100
AcDbArc
 50
287.1856207665065
 51
306.7472274279828
  0
ARC
  5
16A1
330
1F
100
AcDbEntity
  8
NETAFIM-L-DETL-025M-TUBING
  6
Continuous
100
AcDbCircle
 10
3.179249820934497
 20
1.196037329405502
 30
0.0
 40
0.0197904215825483
100
AcDbArc
 50
306.7472274279765
 51
330.980448370659
  0
ARC
  5
16A2
330
1F
100
AcDbEntity
  8
NETAFIM-L-DETL-025M-TUBING
  6
Continuous
100
AcDbCircle
 10
3.184409080331423
 20
1.19317520329708
 30
0.0
 40
0.0138904450245202
100
AcDbArc
 50
330.9804483706622
 51
0.0000000000069209
  0
ARC
  5
16A3
330
1F
100
AcDbEntity
  8
NETAFIM-L-DETL-025M-TUBING
  6
Continuous
100
AcDbCircle
 10
3.475216993992997
 20
5.954266511193397
 30
0.0
 40
0.0138904450245256
100
AcDbArc
 50
0.000000000005496
 51
29.01955162934527
  0
ARC
  5
16A4
330
1F
100
AcDbEntity
  8
NETAFIM-L-DETL-025M-TUBING
  6
Continuous
100
AcDbCircle
 10
3.470057734596071
 20
5.951404385084972
 30
0.0
 40
0.0197904215825563
100
AcDbArc
 50
29.01955162935199
 51
53.25277257202152
  0
ARC
  5
16A5
330
1F
100
AcDbEntity
  8
NETAFIM-L-DETL-025M-TUBING
  6
Continuous
100
AcDbCircle
 10
3.466691592347896
 20
5.946896118889817
 30
0.0
 40
0.0254167327827428
100
AcDbArc
 50
53.25277257201823
 51
72.81437923352114
  0
ARC
  5
16A6
330
1F
100
AcDbEntity
  8
NETAFIM-L-DETL-025M-TUBING
  6
Continuous
100
AcDbCircle
 10
3.464493090786337
 20
5.939787592982133
 30
0.0
 40
0.0328574686130474
100
AcDbArc
 50
72.81437923349685
 51
90.0
  0
ARC
  5
16A7
330
1F
100
AcDbEntity
  8
NETAFIM-L-DETL-025M-TUBING
  6
Continuous
100
AcDbCircle
 10
3.464493090786337
 20
5.939787592982119
 30
0.0
 40
0.0328574686130621
100
AcDbArc
 50
90.0
 51
107.1856207665
  0
ARC
  5
16A8
330
1F
100
AcDbEntity
  8
NETAFIM-L-DETL-025M-TUBING
  6
Continuous
100
AcDbCircle
 10
3.462294589224789
 20
5.946896118889807
 30
0.0
 40
0.0254167327827547
100
AcDbArc
 50
107.1856207664927
 51
126.7472274279835
  0
ARC
  5
16A9
330
1F
100
AcDbEntity
  8
NETAFIM-L-DETL-025M-TUBING
  6
Continuous
100
AcDbCircle
 10
3.458928446976599
 20
5.951404385084979
 30
0.0
 40
0.0197904215825478
100
AcDbArc
 50
126.7472274279777
 51
150.9804483706605
  0
ARC
  5
16AA
330
1F
100
AcDbEntity
  8
NETAFIM-L-DETL-025M-TUBING
  6
Continuous
100
AcDbCircle
 10
3.45376918757967
 20
5.954266511193401
 30
0.0
 40
0.0138904450245186
100
AcDbArc
 50
150.9804483706631
 51
180.000000000011
  0
ARC
  5
16AB
330
1F
100
AcDbEntity
  8
NETAFIM-L-DETL-025M-TUBING
  6
Continuous
100
AcDbCircle
 10
3.453769187579677
 20
5.954266511193395
 30
0.0
 40
0.0138904450245217
100
AcDbArc
 50
179.999999999989
 51
209.019551629336
  0
ARC
  5
16AC
330
1F
100
AcDbEntity
  8
NETAFIM-L-DETL-025M-TUBING
  6
Continuous
100
AcDbCircle
 10
3.458928446976603
 20
5.957128637301824
 30
0.0
 40
0.0197904215825533
100
AcDbArc
 50
209.0195516293524
 51
233.2527725720253
  0
ARC
  5
16AD
330
1F
100
AcDbEntity
  8
NETAFIM-L-DETL-025M-TUBING
  6
Continuous
100
AcDbCircle
 10
3.462294589224786
 20
5.961636903496984
 30
0.0
 40
0.0254167327827473
100
AcDbArc
 50
233.2527725720147
 51
252.8143792335143
  0
ARC
  5
16AE
330
1F
100
AcDbEntity
  8
NETAFIM-L-DETL-025M-TUBING
  6
Continuous
100
AcDbCircle
 10
3.464493090786337
 20
5.96874542940467
 30
0.0
 40
0.0328574686130528
100
AcDbArc
 50
252.8143792334973
 51
270.0
  0
ARC
  5
16AF
330
1F
100
AcDbEntity
  8
NETAFIM-L-DETL-025M-TUBING
  6
Continuous
100
AcDbCircle
 10
3.464493090786337
 20
5.968745429404703
 30
0.0
 40
0.032857468613086
100
AcDbArc
 50
270.0000000000022
 51
287.1856207664872
  0
ARC
  5
16B0
330
1F
100
AcDbEntity
  8
NETAFIM-L-DETL-025M-TUBING
  6
Continuous
100
AcDbCircle
 10
3.466691592347874
 20
5.961636903497005
 30
0.0
 40
0.0254167327827748
100
AcDbArc
 50
287.185620766507
 51
306.7472274279836
  0
ARC
  5
16B1
330
1F
100
AcDbEntity
  8
NETAFIM-L-DETL-025M-TUBING
  6
Continuous
100
AcDbCircle
 10
3.470057734596078
 20
5.957128637301819
 30
0.0
 40
0.0197904215825478
100
AcDbArc
 50
306.7472274279776
 51
330.9804483706606
  0
ARC
  5
16B2
330
1F
100
AcDbEntity
  8
NETAFIM-L-DETL-025M-TUBING
  6
Continuous
100
AcDbCircle
 10
3.475216993993004
 20
5.954266511193399
 30
0.0
 40
0.013890445024521
100
AcDbArc
 50
330.9804483706563
 51
0.0
  0
LINE
  5
16B3
330
1F
100
AcDbEntity
  8
NETAFIM-L-DETL-025M-TUBING
  6
Continuous
100
AcDbLine
 10
3.491275234098949
 20
1.198537707275011
 30
0.0
 11
3.490286806607489
 21
3.097726251242155
 31
0.0
  0
LINE
  5
16B4
330
1F
100
AcDbEntity
  8
NETAFIM-L-DETL-025M-TUBING
  6
Continuous
100
AcDbLine
 10
3.442028405703847
 20
1.198537707275011
 30
0.0
 11
3.441052612925224
 21
3.073449607708721
 31
0.0
  0
LINE
  5
16B5
330
1F
100
AcDbEntity
  8
NETAFIM-L-DETL-025M-TUBING
  6
Continuous
100
AcDbLine
 10
3.441003859217548
 20
3.167126163543851
 30
0.0
 11
3.439553405703851
 21
5.95406270727501
 31
0.0
  0
ARC
  5
16B6
330
1F
100
AcDbEntity
  8
NETAFIM-L-DETL-025M-TUBING
  6
Continuous
100
AcDbCircle
 10
3.477733255297859
 20
1.193175203297084
 30
0.0
 40
0.0138904450245243
100
AcDbArc
 50
359.9999999999931
 51
29.01955162933436
  0
ARC
  5
16B7
330
1F
100
AcDbEntity
  8
NETAFIM-L-DETL-025M-TUBING
  6
Continuous
100
AcDbCircle
 10
3.472573995900933
 20
1.190313077188655
 30
0.0
 40
0.0197904215825562
100
AcDbArc
 50
29.01955162935119
 51
53.25277257202078
  0
ARC
  5
16B8
330
1F
100
AcDbEntity
  8
NETAFIM-L-DETL-025M-TUBING
  6
Continuous
100
AcDbCircle
 10
3.469207853652751
 20
1.185804810993499
 30
0.0
 40
0.0254167327827439
100
AcDbArc
 50
53.25277257201633
 51
72.81437923351858
  0
ARC
  5
16B9
330
1F
100
AcDbEntity
  8
NETAFIM-L-DETL-025M-TUBING
  6
Continuous
100
AcDbCircle
 10
3.467009352091196
 20
1.178696285085812
 30
0.0
 40
0.0328574686130516
100
AcDbArc
 50
72.81437923349662
 51
90.0
  0
ARC
  5
16BA
330
1F
100
AcDbEntity
  8
NETAFIM-L-DETL-025M-TUBING
  6
Continuous
100
AcDbCircle
 10
3.467009352091199
 20
1.178696285085806
 30
0.0
 40
0.0328574686130577
100
AcDbArc
 50
90.0000000000022
 51
107.1856207665023
  0
ARC
  5
16BB
330
1F
100
AcDbEntity
  8
NETAFIM-L-DETL-025M-TUBING
  6
Continuous
100
AcDbCircle
 10
3.464810850529648
 20
1.185804810993489
 30
0.0
 40
0.025416732782756
100
AcDbArc
 50
107.1856207664918
 51
126.7472274279817
  0
ARC
  5
16BC
330
1F
100
AcDbEntity
  8
NETAFIM-L-DETL-025M-TUBING
  6
Continuous
100
AcDbCircle
 10
3.461444708281458
 20
1.190313077188662
 30
0.0
 40
0.0197904215825478
100
AcDbArc
 50
126.7472274279777
 51
150.9804483706605
  0
ARC
  5
16BD
330
1F
100
AcDbEntity
  8
NETAFIM-L-DETL-025M-TUBING
  6
Continuous
100
AcDbCircle
 10
3.456285448884532
 20
1.193175203297081
 30
0.0
 40
0.0138904450245202
100
AcDbArc
 50
150.980448370651
 51
179.9999999999972
  0
ARC
  5
16BE
330
1F
100
AcDbEntity
  8
NETAFIM-L-DETL-025M-TUBING
  6
Continuous
100
AcDbCircle
 10
3.456285448884532
 20
1.193175203297085
 30
0.0
 40
0.013890445024523
100
AcDbArc
 50
180.000000000011
 51
209.0195516293581
  0
ARC
  5
16BF
330
1F
100
AcDbEntity
  8
NETAFIM-L-DETL-025M-TUBING
  6
Continuous
100
AcDbCircle
 10
3.461444708281462
 20
1.196037329405503
 30
0.0
 40
0.0197904215825501
100
AcDbArc
 50
209.0195516293432
 51
233.2527725720177
  0
ARC
  5
16C0
330
1F
100
AcDbEntity
  8
NETAFIM-L-DETL-025M-TUBING
  6
Continuous
100
AcDbCircle
 10
3.464810850529644
 20
1.200545595600668
 30
0.0
 40
0.0254167327827476
100
AcDbArc
 50
233.2527725720188
 51
252.8143792335179
  0
ARC
  5
16C1
330
1F
100
AcDbEntity
  8
NETAFIM-L-DETL-025M-TUBING
  6
Continuous
100
AcDbCircle
 10
3.467009352091196
 20
1.207654121508348
 30
0.0
 40
0.032857468613048
100
AcDbArc
 50
252.8143792334973
 51
270.0
  0
ARC
  5
16C2
330
1F
100
AcDbEntity
  8
NETAFIM-L-DETL-025M-TUBING
  6
Continuous
100
AcDbCircle
 10
3.467009352091196
 20
1.20765412150839
 30
0.0
 40
0.0328574686130897
100
AcDbArc
 50
270.0
 51
287.1856207664853
  0
ARC
  5
16C3
330
1F
100
AcDbEntity
  8
NETAFIM-L-DETL-025M-TUBING
  6
Continuous
100
AcDbCircle
 10
3.469207853652733
 20
1.20054559560069
 30
0.0
 40
0.0254167327827754
100
AcDbArc
 50
287.1856207665065
 51
306.7472274279828
  0
ARC
  5
16C4
330
1F
100
AcDbEntity
  8
NETAFIM-L-DETL-025M-TUBING
  6
Continuous
100
AcDbCircle
 10
3.472573995900937
 20
1.196037329405502
 30
0.0
 40
0.0197904215825483
100
AcDbArc
 50
306.7472274279765
 51
330.980448370659
  0
ARC
  5
16C5
330
1F
100
AcDbEntity
  8
NETAFIM-L-DETL-025M-TUBING
  6
Continuous
100
AcDbCircle
 10
3.477733255297863
 20
1.19317520329708
 30
0.0
 40
0.0138904450245202
100
AcDbArc
 50
330.9804483706622
 51
0.0000000000069209
  0
ARC
  5
16C6
330
1F
100
AcDbEntity
  8
NETAFIM-L-DETL-025M-TUBING
  6
Continuous
100
AcDbCircle
 10
3.790109123001091
 20
5.954266511193397
 30
0.0
 40
0.0138904450245243
100
AcDbArc
 50
0.000000000005496
 51
29.01955162934799
  0
ARC
  5
16C7
330
1F
100
AcDbEntity
  8
NETAFIM-L-DETL-025M-TUBING
  6
Continuous
100
AcDbCircle
 10
3.784949863604165
 20
5.951404385084972
 30
0.0
 40
0.0197904215825563
100
AcDbArc
 50
29.01955162935199
 51
53.25277257202152
  0
ARC
  5
16C8
330
1F
100
AcDbEntity
  8
NETAFIM-L-DETL-025M-TUBING
  6
Continuous
100
AcDbCircle
 10
3.781583721355982
 20
5.946896118889817
 30
0.0
 40
0.0254167327827436
100
AcDbArc
 50
53.25277257201594
 51
72.81437923351815
  0
ARC
  5
16C9
330
1F
100
AcDbEntity
  8
NETAFIM-L-DETL-025M-TUBING
  6
Continuous
100
AcDbCircle
 10
3.779385219794431
 20
5.939787592982133
 30
0.0
 40
0.0328574686130474
100
AcDbArc
 50
72.81437923349685
 51
90.0
  0
ARC
  5
16CA
330
1F
100
AcDbEntity
  8
NETAFIM-L-DETL-025M-TUBING
  6
Continuous
100
AcDbCircle
 10
3.779385219794431
 20
5.939787592982119
 30
0.0
 40
0.0328574686130621
100
AcDbArc
 50
90.0
 51
107.1856207665
  0
ARC
  5
16CB
330
1F
100
AcDbEntity
  8
NETAFIM-L-DETL-025M-TUBING
  6
Continuous
100
AcDbCircle
 10
3.777186718232879
 20
5.946896118889807
 30
0.0
 40
0.0254167327827547
100
AcDbArc
 50
107.1856207664927
 51
126.7472274279835
  0
ARC
  5
16CC
330
1F
100
AcDbEntity
  8
NETAFIM-L-DETL-025M-TUBING
  6
Continuous
100
AcDbCircle
 10
3.773820575984689
 20
5.95140438508498
 30
0.0
 40
0.0197904215825456
100
AcDbArc
 50
126.7472274279823
 51
150.9804483706656
  0
ARC
  5
16CD
330
1F
100
AcDbEntity
  8
NETAFIM-L-DETL-025M-TUBING
  6
Continuous
100
AcDbCircle
 10
3.76866131658776
 20
5.954266511193393
 30
0.0
 40
0.01389044502452
100
AcDbArc
 50
150.9804483706413
 51
179.999999999989
  0
ARC
  5
16CE
330
1F
100
AcDbEntity
  8
NETAFIM-L-DETL-025M-TUBING
  6
Continuous
100
AcDbCircle
 10
3.768661316587763
 20
5.954266511193399
 30
0.0
 40
0.013890445024523
100
AcDbArc
 50
180.000000000011
 51
209.0195516293581
  0
ARC
  5
16CF
330
1F
100
AcDbEntity
  8
NETAFIM-L-DETL-025M-TUBING
  6
Continuous
100
AcDbCircle
 10
3.773820575984693
 20
5.957128637301821
 30
0.0
 40
0.0197904215825502
100
AcDbArc
 50
209.019551629344
 51
233.2527725720185
  0
ARC
  5
16D0
330
1F
100
AcDbEntity
  8
NETAFIM-L-DETL-025M-TUBING
  6
Continuous
100
AcDbCircle
 10
3.777186718232876
 20
5.961636903496984
 30
0.0
 40
0.0254167327827465
100
AcDbArc
 50
233.2527725720169
 51
252.8143792335173
  0
ARC
  5
16D1
330
1F
100
AcDbEntity
  8
NETAFIM-L-DETL-025M-TUBING
  6
Continuous
100
AcDbCircle
 10
3.779385219794427
 20
5.96874542940467
 30
0.0
 40
0.0328574686130524
100
AcDbArc
 50
252.8143792334994
 51
270.0000000000022
  0
ARC
  5
16D2
330
1F
100
AcDbEntity
  8
NETAFIM-L-DETL-025M-TUBING
  6
Continuous
100
AcDbCircle
 10
3.779385219794431
 20
5.968745429404703
 30
0.0
 40
0.032857468613086
100
AcDbArc
 50
270.0
 51
287.1856207664849
  0
ARC
  5
16D3
330
1F
100
AcDbEntity
  8
NETAFIM-L-DETL-025M-TUBING
  6
Continuous
100
AcDbCircle
 10
3.781583721355964
 20
5.961636903497005
 30
0.0
 40
0.0254167327827748
100
AcDbArc
 50
287.185620766507
 51
306.7472274279836
  0
ARC
  5
16D4
330
1F
100
AcDbEntity
  8
NETAFIM-L-DETL-025M-TUBING
  6
Continuous
100
AcDbCircle
 10
3.784949863604168
 20
5.957128637301819
 30
0.0
 40
0.0197904215825478
100
AcDbArc
 50
306.7472274279776
 51
330.9804483706606
  0
ARC
  5
16D5
330
1F
100
AcDbEntity
  8
NETAFIM-L-DETL-025M-TUBING
  6
Continuous
100
AcDbCircle
 10
3.790109123001094
 20
5.954266511193399
 30
0.0
 40
0.0138904450245199
100
AcDbArc
 50
330.9804483706535
 51
0.0
  0
LINE
  5
16D6
330
1F
100
AcDbEntity
  8
NETAFIM-L-DETL-025M-TUBING
  6
Continuous
100
AcDbLine
 10
3.806167363107039
 20
1.198537707275011
 30
0.0
 11
3.805178935615582
 21
3.097726251242157
 31
0.0
  0
LINE
  5
16D7
330
1F
100
AcDbEntity
  8
NETAFIM-L-DETL-025M-TUBING
  6
Continuous
100
AcDbLine
 10
3.756920534711941
 20
1.198537707275011
 30
0.0
 11
3.755933172911774
 21
3.095678606155516
 31
0.0
  0
ARC
  5
16D8
330
1F
100
AcDbEntity
  8
NETAFIM-L-DETL-025M-TUBING
  6
Continuous
100
AcDbCircle
 10
3.792625384305949
 20
1.19317520329708
 30
0.0
 40
0.0138904450245256
100
AcDbArc
 50
0.0000000000040711
 51
29.01955162934402
  0
ARC
  5
16D9
330
1F
100
AcDbEntity
  8
NETAFIM-L-DETL-025M-TUBING
  6
Continuous
100
AcDbCircle
 10
3.78746612490902
 20
1.190313077188658
 30
0.0
 40
0.0197904215825547
100
AcDbArc
 50
29.01955162934362
 51
53.25277257201263
  0
ARC
  5
16DA
330
1F
100
AcDbEntity
  8
NETAFIM-L-DETL-025M-TUBING
  6
Continuous
100
AcDbCircle
 10
3.784099982660844
 20
1.185804810993495
 30
0.0
 40
0.0254167327827471
100
AcDbArc
 50
53.25277257202152
 51
72.81437923352412
  0
ARC
  5
16DB
330
1F
100
AcDbEntity
  8
NETAFIM-L-DETL-025M-TUBING
  6
Continuous
100
AcDbCircle
 10
3.781901481099289
 20
1.178696285085816
 30
0.0
 40
0.032857468613047
100
AcDbArc
 50
72.81437923349642
 51
90.0
  0
ARC
  5
16DC
330
1F
100
AcDbEntity
  8
NETAFIM-L-DETL-025M-TUBING
  6
Continuous
100
AcDbCircle
 10
3.781901481099289
 20
1.178696285085801
 30
0.0
 40
0.0328574686130621
100
AcDbArc
 50
90.0
 51
107.1856207665
  0
ARC
  5
16DD
330
1F
100
AcDbEntity
  8
NETAFIM-L-DETL-025M-TUBING
  6
Continuous
100
AcDbCircle
 10
3.779702979537741
 20
1.185804810993489
 30
0.0
 40
0.025416732782756
100
AcDbArc
 50
107.1856207664918
 51
126.7472274279817
  0
ARC
  5
16DE
330
1F
100
AcDbEntity
  8
NETAFIM-L-DETL-025M-TUBING
  6
Continuous
100
AcDbCircle
 10
3.776336837289548
 20
1.190313077188662
 30
0.0
 40
0.0197904215825478
100
AcDbArc
 50
126.7472274279777
 51
150.9804483706605
  0
ARC
  5
16DF
330
1F
100
AcDbEntity
  8
NETAFIM-L-DETL-025M-TUBING
  6
Continuous
100
AcDbCircle
 10
3.771177577892622
 20
1.193175203297084
 30
0.0
 40
0.0138904450245191
100
AcDbArc
 50
150.9804483706593
 51
180.0000000000068
  0
ARC
  5
16E0
330
1F
100
AcDbEntity
  8
NETAFIM-L-DETL-025M-TUBING
  6
Continuous
100
AcDbCircle
 10
3.771177577892625
 20
1.193175203297082
 30
0.0
 40
0.013890445024523
100
AcDbArc
 50
180.0
 51
209.0195516293456
  0
ARC
  5
16E1
330
1F
100
AcDbEntity
  8
NETAFIM-L-DETL-025M-TUBING
  6
Continuous
100
AcDbCircle
 10
3.776336837289552
 20
1.196037329405503
 30
0.0
 40
0.0197904215825512
100
AcDbArc
 50
209.0195516293415
 51
233.2527725720147
  0
ARC
  5
16E2
330
1F
100
AcDbEntity
  8
NETAFIM-L-DETL-025M-TUBING
  6
Continuous
100
AcDbCircle
 10
3.779702979537734
 20
1.200545595600668
 30
0.0
 40
0.0254167327827484
100
AcDbArc
 50
233.2527725720165
 51
252.8143792335152
  0
ARC
  5
16E3
330
1F
100
AcDbEntity
  8
NETAFIM-L-DETL-025M-TUBING
  6
Continuous
100
AcDbCircle
 10
3.781901481099289
 20
1.207654121508353
 30
0.0
 40
0.0328574686130528
100
AcDbArc
 50
252.8143792334973
 51
270.0
  0
ARC
  5
16E4
330
1F
100
AcDbEntity
  8
NETAFIM-L-DETL-025M-TUBING
  6
Continuous
100
AcDbCircle
 10
3.781901481099286
 20
1.207654121508385
 30
0.0
 40
0.0328574686130854
100
AcDbArc
 50
270.0000000000022
 51
287.1856207664874
  0
ARC
  5
16E5
330
1F
100
AcDbEntity
  8
NETAFIM-L-DETL-025M-TUBING
  6
Continuous
100
AcDbCircle
 10
3.784099982660823
 20
1.200545595600694
 30
0.0
 40
0.025416732782779
100
AcDbArc
 50
287.185620766504
 51
306.7472274279802
  0
ARC
  5
16E6
330
1F
100
AcDbEntity
  8
NETAFIM-L-DETL-025M-TUBING
  6
Continuous
100
AcDbCircle
 10
3.787466124909027
 20
1.196037329405499
 30
0.0
 40
0.0197904215825464
100
AcDbArc
 50
306.7472274279853
 51
330.9804483706673
  0
ARC
  5
16E7
330
1F
100
AcDbEntity
  8
NETAFIM-L-DETL-025M-TUBING
  6
Continuous
100
AcDbCircle
 10
3.792625384305953
 20
1.193175203297083
 30
0.0
 40
0.0138904450245215
100
AcDbArc
 50
330.9804483706527
 51
359.9999999999959
  0
ARC
  5
16E8
330
1F
100
AcDbEntity
  8
NETAFIM-L-DETL-025M-TUBING
  6
Continuous
100
AcDbCircle
 10
4.104641786108487
 20
5.954266511193397
 30
0.0
 40
0.0138904450245243
100
AcDbArc
 50
0.000000000005496
 51
29.01955162934799
  0
ARC
  5
16E9
330
1F
100
AcDbEntity
  8
NETAFIM-L-DETL-025M-TUBING
  6
Continuous
100
AcDbCircle
 10
4.099482526711557
 20
5.951404385084975
 30
0.0
 40
0.0197904215825539
100
AcDbArc
 50
29.01955162934718
 51
53.25277257201697
  0
ARC
  5
16EA
330
1F
100
AcDbEntity
  8
NETAFIM-L-DETL-025M-TUBING
  6
Continuous
100
AcDbCircle
 10
4.096116384463382
 20
5.946896118889812
 30
0.0
 40
0.0254167327827468
100
AcDbArc
 50
53.25277257202129
 51
72.81437923352391
  0
ARC
  5
16EB
330
1F
100
AcDbEntity
  8
NETAFIM-L-DETL-025M-TUBING
  6
Continuous
100
AcDbCircle
 10
4.093917882901823
 20
5.939787592982133
 30
0.0
 40
0.0328574686130474
100
AcDbArc
 50
72.81437923349685
 51
90.0
  0
ARC
  5
16EC
330
1F
100
AcDbEntity
  8
NETAFIM-L-DETL-025M-TUBING
  6
Continuous
100
AcDbCircle
 10
4.093917882901823
 20
5.939787592982122
 30
0.0
 40
0.0328574686130581
100
AcDbArc
 50
90.0
 51
107.1856207665
  0
ARC
  5
16ED
330
1F
100
AcDbEntity
  8
NETAFIM-L-DETL-025M-TUBING
  6
Continuous
100
AcDbCircle
 10
4.091719381340276
 20
5.946896118889803
 30
0.0
 40
0.0254167327827581
100
AcDbArc
 50
107.1856207664871
 51
126.7472274279782
  0
ARC
  5
16EE
330
1F
100
AcDbEntity
  8
NETAFIM-L-DETL-025M-TUBING
  6
Continuous
100
AcDbCircle
 10
4.088353239092086
 20
5.95140438508498
 30
0.0
 40
0.0197904215825456
100
AcDbArc
 50
126.7472274279823
 51
150.9804483706656
  0
ARC
  5
16EF
330
1F
100
AcDbEntity
  8
NETAFIM-L-DETL-025M-TUBING
  6
Continuous
100
AcDbCircle
 10
4.083193979695156
 20
5.954266511193399
 30
0.0
 40
0.0138904450245187
100
AcDbArc
 50
150.9804483706509
 51
180.0
  0
ARC
  5
16F0
330
1F
100
AcDbEntity
  8
NETAFIM-L-DETL-025M-TUBING
  6
Continuous
100
AcDbCircle
 10
4.08319397969516
 20
5.954266511193399
 30
0.0
 40
0.0138904450245217
100
AcDbArc
 50
180.0
 51
209.0195516293484
  0
ARC
  5
16F1
330
1F
100
AcDbEntity
  8
NETAFIM-L-DETL-025M-TUBING
  6
Continuous
100
AcDbCircle
 10
4.088353239092089
 20
5.957128637301821
 30
0.0
 40
0.0197904215825502
100
AcDbArc
 50
209.019551629344
 51
233.2527725720185
  0
ARC
  5
16F2
330
1F
100
AcDbEntity
  8
NETAFIM-L-DETL-025M-TUBING
  6
Continuous
100
AcDbCircle
 10
4.091719381340272
 20
5.961636903496984
 30
0.0
 40
0.0254167327827465
100
AcDbArc
 50
233.2527725720169
 51
252.8143792335173
  0
ARC
  5
16F3
330
1F
100
AcDbEntity
  8
NETAFIM-L-DETL-025M-TUBING
  6
Continuous
100
AcDbCircle
 10
4.093917882901823
 20
5.96874542940467
 30
0.0
 40
0.0328574686130524
100
AcDbArc
 50
252.8143792334994
 51
270.0000000000022
  0
ARC
  5
16F4
330
1F
100
AcDbEntity
  8
NETAFIM-L-DETL-025M-TUBING
  6
Continuous
100
AcDbCircle
 10
4.093917882901823
 20
5.968745429404703
 30
0.0
 40
0.032857468613086
100
AcDbArc
 50
270.0
 51
287.1856207664849
  0
ARC
  5
16F5
330
1F
100
AcDbEntity
  8
NETAFIM-L-DETL-025M-TUBING
  6
Continuous
100
AcDbCircle
 10
4.096116384463361
 20
5.96163690349701
 30
0.0
 40
0.0254167327827782
100
AcDbArc
 50
287.1856207665015
 51
306.7472274279782
  0
ARC
  5
16F6
330
1F
100
AcDbEntity
  8
NETAFIM-L-DETL-025M-TUBING
  6
Continuous
100
AcDbCircle
 10
4.099482526711565
 20
5.957128637301815
 30
0.0
 40
0.0197904215825456
100
AcDbArc
 50
306.7472274279823
 51
330.9804483706656
  0
ARC
  5
16F7
330
1F
100
AcDbEntity
  8
NETAFIM-L-DETL-025M-TUBING
  6
Continuous
100
AcDbCircle
 10
4.104641786108491
 20
5.954266511193399
 30
0.0
 40
0.0138904450245199
100
AcDbArc
 50
330.9804483706535
 51
0.0
  0
LINE
  5
16F8
330
1F
100
AcDbEntity
  8
NETAFIM-L-DETL-025M-TUBING
  6
Continuous
100
AcDbLine
 10
4.120700026214436
 20
1.198537707275011
 30
0.0
 11
4.119711598722977
 21
3.097726251242155
 31
0.0
  0
LINE
  5
16F9
330
1F
100
AcDbEntity
  8
NETAFIM-L-DETL-025M-TUBING
  6
Continuous
100
AcDbLine
 10
4.071453197819334
 20
1.198537707275011
 30
0.0
 11
4.07046583601917
 21
3.095678606155516
 31
0.0
  0
ARC
  5
16FA
330
1F
100
AcDbEntity
  8
NETAFIM-L-DETL-025M-TUBING
  6
Continuous
100
AcDbCircle
 10
4.107158047413346
 20
1.193175203297084
 30
0.0
 40
0.0138904450245243
100
AcDbArc
 50
359.9999999999931
 51
29.01955162933436
  0
ARC
  5
16FB
330
1F
100
AcDbEntity
  8
NETAFIM-L-DETL-025M-TUBING
  6
Continuous
100
AcDbCircle
 10
4.10199878801642
 20
1.190313077188655
 30
0.0
 40
0.0197904215825562
100
AcDbArc
 50
29.01955162935119
 51
53.25277257202078
  0
ARC
  5
16FC
330
1F
100
AcDbEntity
  8
NETAFIM-L-DETL-025M-TUBING
  6
Continuous
100
AcDbCircle
 10
4.09863264576824
 20
1.185804810993495
 30
0.0
 40
0.0254167327827471
100
AcDbArc
 50
53.25277257202152
 51
72.81437923352412
  0
ARC
  5
16FD
330
1F
100
AcDbEntity
  8
NETAFIM-L-DETL-025M-TUBING
  6
Continuous
100
AcDbCircle
 10
4.096434144206686
 20
1.178696285085816
 30
0.0
 40
0.032857468613047
100
AcDbArc
 50
72.81437923349642
 51
90.0
  0
ARC
  5
16FE
330
1F
100
AcDbEntity
  8
NETAFIM-L-DETL-025M-TUBING
  6
Continuous
100
AcDbCircle
 10
4.096434144206686
 20
1.178696285085801
 30
0.0
 40
0.0328574686130621
100
AcDbArc
 50
90.0
 51
107.1856207665
  0
ARC
  5
16FF
330
1F
100
AcDbEntity
  8
NETAFIM-L-DETL-025M-TUBING
  6
Continuous
100
AcDbCircle
 10
4.094235642645134
 20
1.185804810993489
 30
0.0
 40
0.025416732782756
100
AcDbArc
 50
107.1856207664918
 51
126.7472274279817
  0
ARC
  5
1700
330
1F
100
AcDbEntity
  8
NETAFIM-L-DETL-025M-TUBING
  6
Continuous
100
AcDbCircle
 10
4.090869500396944
 20
1.190313077188664
 30
0.0
 40
0.0197904215825462
100
AcDbArc
 50
126.7472274279858
 51
150.9804483706681
  0
ARC
  5
1701
330
1F
100
AcDbEntity
  8
NETAFIM-L-DETL-025M-TUBING
  6
Continuous
100
AcDbCircle
 10
4.085710241000018
 20
1.193175203297081
 30
0.0
 40
0.0138904450245202
100
AcDbArc
 50
150.980448370651
 51
179.9999999999972
  0
ARC
  5
1702
330
1F
100
AcDbEntity
  8
NETAFIM-L-DETL-025M-TUBING
  6
Continuous
100
AcDbCircle
 10
4.085710241000022
 20
1.193175203297082
 30
0.0
 40
0.013890445024523
100
AcDbArc
 50
180.0
 51
209.0195516293456
  0
ARC
  5
1703
330
1F
100
AcDbEntity
  8
NETAFIM-L-DETL-025M-TUBING
  6
Continuous
100
AcDbCircle
 10
4.090869500396948
 20
1.196037329405503
 30
0.0
 40
0.0197904215825512
100
AcDbArc
 50
209.0195516293415
 51
233.2527725720147
  0
ARC
  5
1704
330
1F
100
AcDbEntity
  8
NETAFIM-L-DETL-025M-TUBING
  6
Continuous
100
AcDbCircle
 10
4.094235642645131
 20
1.200545595600671
 30
0.0
 40
0.0254167327827513
100
AcDbArc
 50
233.2527725720213
 51
252.8143792335205
  0
ARC
  5
1705
330
1F
100
AcDbEntity
  8
NETAFIM-L-DETL-025M-TUBING
  6
Continuous
100
AcDbCircle
 10
4.096434144206686
 20
1.207654121508348
 30
0.0
 40
0.032857468613048
100
AcDbArc
 50
252.8143792334973
 51
270.0
  0
ARC
  5
1706
330
1F
100
AcDbEntity
  8
NETAFIM-L-DETL-025M-TUBING
  6
Continuous
100
AcDbCircle
 10
4.096434144206686
 20
1.20765412150839
 30
0.0
 40
0.0328574686130897
100
AcDbArc
 50
270.0
 51
287.1856207664853
  0
ARC
  5
1707
330
1F
100
AcDbEntity
  8
NETAFIM-L-DETL-025M-TUBING
  6
Continuous
100
AcDbCircle
 10
4.098632645768223
 20
1.20054559560069
 30
0.0
 40
0.0254167327827754
100
AcDbArc
 50
287.1856207665065
 51
306.7472274279828
  0
ARC
  5
1708
330
1F
100
AcDbEntity
  8
NETAFIM-L-DETL-025M-TUBING
  6
Continuous
100
AcDbCircle
 10
4.101998788016423
 20
1.196037329405502
 30
0.0
 40
0.0197904215825483
100
AcDbArc
 50
306.7472274279765
 51
330.980448370659
  0
ARC
  5
1709
330
1F
100
AcDbEntity
  8
NETAFIM-L-DETL-025M-TUBING
  6
Continuous
100
AcDbCircle
 10
4.107158047413349
 20
1.19317520329708
 30
0.0
 40
0.0138904450245202
100
AcDbArc
 50
330.9804483706622
 51
0.0000000000069209
  0
LINE
  5
170A
330
1F
100
AcDbEntity
  8
NETAFIM-L-DETL-025M-TUBING
  6
Continuous
100
AcDbLine
 10
4.414743132982266
 20
1.198537707275011
 30
0.0
 11
4.413754705490804
 21
3.097726251242156
 31
0.0
  0
LINE
  5
170B
330
1F
100
AcDbEntity
  8
NETAFIM-L-DETL-025M-TUBING
  6
Continuous
100
AcDbLine
 10
4.365496304587164
 20
1.198537707275011
 30
0.0
 11
4.364508942787001
 21
3.095678606155516
 31
0.0
  0
ARC
  5
170C
330
1F
100
AcDbEntity
  8
NETAFIM-L-DETL-025M-TUBING
  6
Continuous
100
AcDbCircle
 10
4.401201154181173
 20
1.19317520329708
 30
0.0
 40
0.0138904450245256
100
AcDbArc
 50
0.0000000000040711
 51
29.01955162934402
  0
ARC
  5
170D
330
1F
100
AcDbEntity
  8
NETAFIM-L-DETL-025M-TUBING
  6
Continuous
100
AcDbCircle
 10
4.396041894784247
 20
1.190313077188658
 30
0.0
 40
0.0197904215825547
100
AcDbArc
 50
29.01955162934362
 51
53.25277257201263
  0
ARC
  5
170E
330
1F
100
AcDbEntity
  8
NETAFIM-L-DETL-025M-TUBING
  6
Continuous
100
AcDbCircle
 10
4.392675752536067
 20
1.185804810993495
 30
0.0
 40
0.0254167327827471
100
AcDbArc
 50
53.25277257202152
 51
72.81437923352412
  0
ARC
  5
170F
330
1F
100
AcDbEntity
  8
NETAFIM-L-DETL-025M-TUBING
  6
Continuous
100
AcDbCircle
 10
4.390477250974512
 20
1.178696285085816
 30
0.0
 40
0.032857468613047
100
AcDbArc
 50
72.81437923349642
 51
90.0
  0
ARC
  5
1710
330
1F
100
AcDbEntity
  8
NETAFIM-L-DETL-025M-TUBING
  6
Continuous
100
AcDbCircle
 10
4.390477250974512
 20
1.178696285085801
 30
0.0
 40
0.0328574686130621
100
AcDbArc
 50
90.0
 51
107.1856207665
  0
ARC
  5
1711
330
1F
100
AcDbEntity
  8
NETAFIM-L-DETL-025M-TUBING
  6
Continuous
100
AcDbCircle
 10
4.388278749412965
 20
1.185804810993489
 30
0.0
 40
0.025416732782756
100
AcDbArc
 50
107.1856207664918
 51
126.7472274279817
  0
ARC
  5
1712
330
1F
100
AcDbEntity
  8
NETAFIM-L-DETL-025M-TUBING
  6
Continuous
100
AcDbCircle
 10
4.384912607164775
 20
1.190313077188662
 30
0.0
 40
0.0197904215825478
100
AcDbArc
 50
126.7472274279777
 51
150.9804483706605
  0
ARC
  5
1713
330
1F
100
AcDbEntity
  8
NETAFIM-L-DETL-025M-TUBING
  6
Continuous
100
AcDbCircle
 10
4.379753347767849
 20
1.193175203297084
 30
0.0
 40
0.0138904450245191
100
AcDbArc
 50
150.9804483706593
 51
180.0000000000068
  0
ARC
  5
1714
330
1F
100
AcDbEntity
  8
NETAFIM-L-DETL-025M-TUBING
  6
Continuous
100
AcDbCircle
 10
4.379753347767849
 20
1.193175203297079
 30
0.0
 40
0.0138904450245217
100
AcDbArc
 50
179.9999999999903
 51
209.0195516293372
  0
ARC
  5
1715
330
1F
100
AcDbEntity
  8
NETAFIM-L-DETL-025M-TUBING
  6
Continuous
100
AcDbCircle
 10
4.384912607164775
 20
1.196037329405506
 30
0.0
 40
0.0197904215825527
100
AcDbArc
 50
209.0195516293491
 51
233.252772572023
  0
ARC
  5
1716
330
1F
100
AcDbEntity
  8
NETAFIM-L-DETL-025M-TUBING
  6
Continuous
100
AcDbCircle
 10
4.388278749412961
 20
1.200545595600668
 30
0.0
 40
0.0254167327827484
100
AcDbArc
 50
233.2527725720165
 51
252.8143792335152
  0
ARC
  5
1717
330
1F
100
AcDbEntity
  8
NETAFIM-L-DETL-025M-TUBING
  6
Continuous
100
AcDbCircle
 10
4.390477250974512
 20
1.207654121508353
 30
0.0
 40
0.0328574686130528
100
AcDbArc
 50
252.8143792334973
 51
270.0
  0
ARC
  5
1718
330
1F
100
AcDbEntity
  8
NETAFIM-L-DETL-025M-TUBING
  6
Continuous
100
AcDbCircle
 10
4.390477250974512
 20
1.207654121508385
 30
0.0
 40
0.0328574686130854
100
AcDbArc
 50
270.0000000000022
 51
287.1856207664874
  0
ARC
  5
1719
330
1F
100
AcDbEntity
  8
NETAFIM-L-DETL-025M-TUBING
  6
Continuous
100
AcDbCircle
 10
4.39267575253605
 20
1.200545595600694
 30
0.0
 40
0.025416732782779
100
AcDbArc
 50
287.185620766504
 51
306.7472274279802
  0
ARC
  5
171A
330
1F
100
AcDbEntity
  8
NETAFIM-L-DETL-025M-TUBING
  6
Continuous
100
AcDbCircle
 10
4.39604189478425
 20
1.196037329405499
 30
0.0
 40
0.0197904215825464
100
AcDbArc
 50
306.7472274279853
 51
330.9804483706673
  0
ARC
  5
171B
330
1F
100
AcDbEntity
  8
NETAFIM-L-DETL-025M-TUBING
  6
Continuous
100
AcDbCircle
 10
4.401201154181176
 20
1.193175203297083
 30
0.0
 40
0.0138904450245215
100
AcDbArc
 50
330.9804483706527
 51
359.9999999999959
  0
ARC
  5
171C
330
1F
100
AcDbEntity
  8
NETAFIM-L-DETL-025M-TUBING
  6
Continuous
100
AcDbCircle
 10
4.705668772069135
 20
5.954266511193401
 30
0.0
 40
0.0138904450245243
100
AcDbArc
 50
359.9999999999945
 51
29.01955162933561
  0
ARC
  5
171D
330
1F
100
AcDbEntity
  8
NETAFIM-L-DETL-025M-TUBING
  6
Continuous
100
AcDbCircle
 10
4.700509512672208
 20
5.951404385084972
 30
0.0
 40
0.0197904215825563
100
AcDbArc
 50
29.01955162935199
 51
53.25277257202152
  0
ARC
  5
171E
330
1F
100
AcDbEntity
  8
NETAFIM-L-DETL-025M-TUBING
  6
Continuous
100
AcDbCircle
 10
4.697143370424029
 20
5.946896118889812
 30
0.0
 40
0.0254167327827468
100
AcDbArc
 50
53.25277257202129
 51
72.81437923352391
  0
ARC
  5
171F
330
1F
100
AcDbEntity
  8
NETAFIM-L-DETL-025M-TUBING
  6
Continuous
100
AcDbCircle
 10
4.694944868862474
 20
5.939787592982133
 30
0.0
 40
0.0328574686130474
100
AcDbArc
 50
72.81437923349685
 51
90.0
  0
ARC
  5
1720
330
1F
100
AcDbEntity
  8
NETAFIM-L-DETL-025M-TUBING
  6
Continuous
100
AcDbCircle
 10
4.694944868862474
 20
5.939787592982119
 30
0.0
 40
0.0328574686130621
100
AcDbArc
 50
90.0
 51
107.1856207665
  0
ARC
  5
1721
330
1F
100
AcDbEntity
  8
NETAFIM-L-DETL-025M-TUBING
  6
Continuous
100
AcDbCircle
 10
4.692746367300923
 20
5.946896118889807
 30
0.0
 40
0.0254167327827547
100
AcDbArc
 50
107.1856207664927
 51
126.7472274279835
  0
ARC
  5
1722
330
1F
100
AcDbEntity
  8
NETAFIM-L-DETL-025M-TUBING
  6
Continuous
100
AcDbCircle
 10
4.689380225052733
 20
5.95140438508498
 30
0.0
 40
0.0197904215825464
100
AcDbArc
 50
126.7472274279853
 51
150.9804483706673
  0
ARC
  5
1723
330
1F
100
AcDbEntity
  8
NETAFIM-L-DETL-025M-TUBING
  6
Continuous
100
AcDbCircle
 10
4.684220965655807
 20
5.954266511193399
 30
0.0
 40
0.0138904450245199
100
AcDbArc
 50
150.9804483706535
 51
180.0
  0
ARC
  5
1724
330
1F
100
AcDbEntity
  8
NETAFIM-L-DETL-025M-TUBING
  6
Continuous
100
AcDbCircle
 10
4.684220965655811
 20
5.954266511193399
 30
0.0
 40
0.013890445024523
100
AcDbArc
 50
180.0
 51
209.0195516293456
  0
ARC
  5
1725
330
1F
100
AcDbEntity
  8
NETAFIM-L-DETL-025M-TUBING
  6
Continuous
100
AcDbCircle
 10
4.689380225052737
 20
5.957128637301821
 30
0.0
 40
0.0197904215825514
100
AcDbArc
 50
209.0195516293424
 51
233.2527725720154
  0
ARC
  5
1726
330
1F
100
AcDbEntity
  8
NETAFIM-L-DETL-025M-TUBING
  6
Continuous
100
AcDbCircle
 10
4.692746367300919
 20
5.961636903496987
 30
0.0
 40
0.0254167327827505
100
AcDbArc
 50
233.2527725720201
 51
252.8143792335199
  0
ARC
  5
1727
330
1F
100
AcDbEntity
  8
NETAFIM-L-DETL-025M-TUBING
  6
Continuous
100
AcDbCircle
 10
4.694944868862474
 20
5.968745429404666
 30
0.0
 40
0.0328574686130486
100
AcDbArc
 50
252.8143792334975
 51
270.0
  0
ARC
  5
1728
330
1F
100
AcDbEntity
  8
NETAFIM-L-DETL-025M-TUBING
  6
Continuous
100
AcDbCircle
 10
4.694944868862474
 20
5.968745429404707
 30
0.0
 40
0.03285746861309
100
AcDbArc
 50
270.0
 51
287.185620766485
  0
ARC
  5
1729
330
1F
100
AcDbEntity
  8
NETAFIM-L-DETL-025M-TUBING
  6
Continuous
100
AcDbCircle
 10
4.697143370424011
 20
5.961636903497005
 30
0.0
 40
0.0254167327827748
100
AcDbArc
 50
287.185620766507
 51
306.7472274279836
  0
ARC
  5
172A
330
1F
100
AcDbEntity
  8
NETAFIM-L-DETL-025M-TUBING
  6
Continuous
100
AcDbCircle
 10
4.700509512672212
 20
5.957128637301819
 30
0.0
 40
0.0197904215825478
100
AcDbArc
 50
306.7472274279776
 51
330.9804483706606
  0
ARC
  5
172B
330
1F
100
AcDbEntity
  8
NETAFIM-L-DETL-025M-TUBING
  6
Continuous
100
AcDbCircle
 10
4.705668772069138
 20
5.954266511193395
 30
0.0
 40
0.0138904450245197
100
AcDbArc
 50
330.9804483706659
 51
0.000000000010992
  0
LINE
  5
172C
330
1F
100
AcDbEntity
  8
NETAFIM-L-DETL-025M-TUBING
  6
Continuous
100
AcDbLine
 10
4.721727012175083
 20
1.198537707275011
 30
0.0
 11
4.719252012175083
 21
5.95406270727501
 31
0.0
  0
LINE
  5
172D
330
1F
100
AcDbEntity
  8
NETAFIM-L-DETL-025M-TUBING
  6
Continuous
100
AcDbLine
 10
4.672480183779981
 20
1.198537707275011
 30
0.0
 11
4.671492821979818
 21
3.095678606155516
 31
0.0
  0
ARC
  5
172E
330
1F
100
AcDbEntity
  8
NETAFIM-L-DETL-025M-TUBING
  6
Continuous
100
AcDbCircle
 10
4.708185033373993
 20
1.19317520329708
 30
0.0
 40
0.0138904450245243
100
AcDbArc
 50
0.0000000000040711
 51
29.01955162934673
  0
ARC
  5
172F
330
1F
100
AcDbEntity
  8
NETAFIM-L-DETL-025M-TUBING
  6
Continuous
100
AcDbCircle
 10
4.703025773977067
 20
1.190313077188658
 30
0.0
 40
0.0197904215825535
100
AcDbArc
 50
29.01955162934548
 51
53.25277257201569
  0
ARC
  5
1730
330
1F
100
AcDbEntity
  8
NETAFIM-L-DETL-025M-TUBING
  6
Continuous
100
AcDbCircle
 10
4.699659631728888
 20
1.185804810993499
 30
0.0
 40
0.0254167327827431
100
AcDbArc
 50
53.25277257201874
 51
72.81437923352135
  0
ARC
  5
1731
330
1F
100
AcDbEntity
  8
NETAFIM-L-DETL-025M-TUBING
  6
Continuous
100
AcDbCircle
 10
4.697461130167333
 20
1.178696285085812
 30
0.0
 40
0.0328574686130512
100
AcDbArc
 50
72.81437923349876
 51
90.0000000000022
  0
ARC
  5
1732
330
1F
100
AcDbEntity
  8
NETAFIM-L-DETL-025M-TUBING
  6
Continuous
100
AcDbCircle
 10
4.697461130167329
 20
1.178696285085806
 30
0.0
 40
0.0328574686130577
100
AcDbArc
 50
90.0
 51
107.1856207665
  0
ARC
  5
1733
330
1F
100
AcDbEntity
  8
NETAFIM-L-DETL-025M-TUBING
  6
Continuous
100
AcDbCircle
 10
4.695262628605785
 20
1.185804810993489
 30
0.0
 40
0.025416732782756
100
AcDbArc
 50
107.1856207664918
 51
126.7472274279817
  0
ARC
  5
1734
330
1F
100
AcDbEntity
  8
NETAFIM-L-DETL-025M-TUBING
  6
Continuous
100
AcDbCircle
 10
4.691896486357595
 20
1.190313077188662
 30
0.0
 40
0.0197904215825478
100
AcDbArc
 50
126.7472274279777
 51
150.9804483706605
  0
ARC
  5
1735
330
1F
100
AcDbEntity
  8
NETAFIM-L-DETL-025M-TUBING
  6
Continuous
100
AcDbCircle
 10
4.686737226960666
 20
1.193175203297081
 30
0.0
 40
0.013890445024519
100
AcDbArc
 50
150.9804483706485
 51
179.9999999999972
  0
ARC
  5
1736
330
1F
100
AcDbEntity
  8
NETAFIM-L-DETL-025M-TUBING
  6
Continuous
100
AcDbCircle
 10
4.686737226960669
 20
1.193175203297082
 30
0.0
 40
0.0138904450245217
100
AcDbArc
 50
180.0
 51
209.0195516293484
  0
ARC
  5
1737
330
1F
100
AcDbEntity
  8
NETAFIM-L-DETL-025M-TUBING
  6
Continuous
100
AcDbCircle
 10
4.691896486357595
 20
1.196037329405506
 30
0.0
 40
0.0197904215825527
100
AcDbArc
 50
209.0195516293491
 51
233.252772572023
  0
ARC
  5
1738
330
1F
100
AcDbEntity
  8
NETAFIM-L-DETL-025M-TUBING
  6
Continuous
100
AcDbCircle
 10
4.695262628605778
 20
1.200545595600663
 30
0.0
 40
0.0254167327827444
100
AcDbArc
 50
233.2527725720134
 51
252.8143792335126
  0
ARC
  5
1739
330
1F
100
AcDbEntity
  8
NETAFIM-L-DETL-025M-TUBING
  6
Continuous
100
AcDbCircle
 10
4.697461130167329
 20
1.207654121508353
 30
0.0
 40
0.0328574686130524
100
AcDbArc
 50
252.8143792334994
 51
270.0000000000022
  0
ARC
  5
173A
330
1F
100
AcDbEntity
  8
NETAFIM-L-DETL-025M-TUBING
  6
Continuous
100
AcDbCircle
 10
4.697461130167329
 20
1.207654121508385
 30
0.0
 40
0.0328574686130854
100
AcDbArc
 50
270.0
 51
287.1856207664853
  0
ARC
  5
173B
330
1F
100
AcDbEntity
  8
NETAFIM-L-DETL-025M-TUBING
  6
Continuous
100
AcDbCircle
 10
4.699659631728867
 20
1.200545595600694
 30
0.0
 40
0.0254167327827786
100
AcDbArc
 50
287.1856207665013
 51
306.7472274279776
  0
ARC
  5
173C
330
1F
100
AcDbEntity
  8
NETAFIM-L-DETL-025M-TUBING
  6
Continuous
100
AcDbCircle
 10
4.703025773977071
 20
1.196037329405499
 30
0.0
 40
0.0197904215825456
100
AcDbArc
 50
306.7472274279823
 51
330.9804483706656
  0
ARC
  5
173D
330
1F
100
AcDbEntity
  8
NETAFIM-L-DETL-025M-TUBING
  6
Continuous
100
AcDbCircle
 10
4.708185033373997
 20
1.193175203297083
 30
0.0
 40
0.0138904450245203
100
AcDbArc
 50
330.9804483706499
 51
359.9999999999959
  0
LINE
  5
173E
330
1F
100
AcDbEntity
  8
NETAFIM-L-DETL-025M-TUBING
  6
Continuous
100
AcDbLine
 10
3.196928892146578
 20
3.162554133844903
 30
0.0
 11
3.195476059132509
 21
5.95406270727501
 31
0.0
  0
LINE
  5
173F
330
1F
100
AcDbEntity
  8
NETAFIM-L-DETL-025M-TUBING
  6
Continuous
100
AcDbLine
 10
2.581171967160894
 20
3.146869733321522
 30
0.0
 11
2.5797109712434
 21
5.95406270727501
 31
0.0
  0
LINE
  5
1740
330
1F
100
AcDbEntity
  8
NETAFIM-L-DETL-025M-TUBING
  6
Continuous
100
AcDbLine
 10
2.838190086157222
 20
3.146869733321522
 30
0.0
 11
2.836729090239732
 21
5.95406270727501
 31
0.0
  0
LINE
  5
1741
330
1F
100
AcDbEntity
  8
NETAFIM-L-DETL-025M-TUBING
  6
Continuous
100
AcDbLine
 10
2.887436914552324
 20
3.146869733321522
 30
0.0
 11
2.88597591863483
 21
5.95406270727501
 31
0.0
  0
LINE
  5
1742
330
1F
100
AcDbEntity
  8
NETAFIM-L-DETL-025M-TUBING
  6
Continuous
100
AcDbLine
 10
3.147690226654901
 20
3.146869733321522
 30
0.0
 11
3.146229230737407
 21
5.95406270727501
 31
0.0
  0
LINE
  5
1743
330
1F
100
AcDbEntity
  8
NETAFIM-L-DETL-025M-TUBING
  6
Continuous
100
AcDbLine
 10
3.490261230016439
 20
3.146869733321523
 30
0.0
 11
3.488800234098949
 21
5.95406270727501
 31
0.0
  0
LINE
  5
1744
330
1F
100
AcDbEntity
  8
NETAFIM-L-DETL-025M-TUBING
  6
Continuous
100
AcDbLine
 10
3.805153359024533
 20
3.146869733321523
 30
0.0
 11
3.803692363107039
 21
5.95406270727501
 31
0.0
  0
LINE
  5
1745
330
1F
100
AcDbEntity
  8
NETAFIM-L-DETL-025M-TUBING
  6
Continuous
100
AcDbLine
 10
3.755906530629431
 20
3.146869733321523
 30
0.0
 11
3.754445534711937
 21
5.95406270727501
 31
0.0
  0
LINE
  5
1746
330
1F
100
AcDbEntity
  8
NETAFIM-L-DETL-025M-TUBING
  6
Continuous
100
AcDbLine
 10
4.070439193736827
 20
3.146869733321523
 30
0.0
 11
4.068978197819337
 21
5.95406270727501
 31
0.0
  0
LINE
  5
1747
330
1F
100
AcDbEntity
  8
NETAFIM-L-DETL-025M-TUBING
  6
Continuous
100
AcDbLine
 10
4.119686022131929
 20
3.146869733321523
 30
0.0
 11
4.118225026214435
 21
5.95406270727501
 31
0.0
  0
LINE
  5
1748
330
1F
100
AcDbEntity
  8
NETAFIM-L-DETL-025M-TUBING
  6
Continuous
100
AcDbLine
 10
4.413729128899756
 20
3.146869733321523
 30
0.0
 11
4.412268132982266
 21
5.95406270727501
 31
0.0
  0
LINE
  5
1749
330
1F
100
AcDbEntity
  8
NETAFIM-L-DETL-025M-TUBING
  6
Continuous
100
AcDbLine
 10
4.364482300504658
 20
3.146869733321523
 30
0.0
 11
4.363021304587164
 21
5.95406270727501
 31
0.0
  0
LINE
  5
174A
330
1F
100
AcDbEntity
  8
NETAFIM-L-DETL-025M-TUBING
  6
Continuous
100
AcDbLine
 10
4.671466179697475
 20
3.146869733321523
 30
0.0
 11
4.670005183779981
 21
5.95406270727501
 31
0.0
  0
LINE
  5
174B
330
1F
100
AcDbEntity
  8
NETAFIM-L-DETL-035M
  6
Continuous
100
AcDbLine
 10
3.61624840525533
 20
6.830324169738519
 30
0.0
 11
3.622173405255328
 21
6.830324169738519
 31
0.0
  0
LINE
  5
174C
330
1F
100
AcDbEntity
  8
NETAFIM-L-DETL-035M
  6
Continuous
100
AcDbLine
 10
3.622173405255328
 20
6.830324169738519
 30
0.0
 11
3.637623405255329
 21
6.830324169738519
 31
0.0
  0
LINE
  5
174D
330
1F
100
AcDbEntity
  8
NETAFIM-L-DETL-035M
  6
Continuous
100
AcDbLine
 10
3.637623405255329
 20
6.830324169738519
 30
0.0
 11
3.659523405255328
 21
6.830324169738519
 31
0.0
  0
LINE
  5
174E
330
1F
100
AcDbEntity
  8
NETAFIM-L-DETL-035M
  6
Continuous
100
AcDbLine
 10
3.659523405255328
 20
6.830324169738519
 30
0.0
 11
3.684648405255327
 21
6.830324169738519
 31
0.0
  0
LINE
  5
174F
330
1F
100
AcDbEntity
  8
NETAFIM-L-DETL-035M
  6
Continuous
100
AcDbLine
 10
3.684648405255327
 20
6.830324169738519
 30
0.0
 11
3.709773405255329
 21
6.830324169738519
 31
0.0
  0
LINE
  5
1750
330
1F
100
AcDbEntity
  8
NETAFIM-L-DETL-035M
  6
Continuous
100
AcDbLine
 10
3.709773405255329
 20
6.830324169738519
 30
0.0
 11
3.731598405255329
 21
6.830324169738519
 31
0.0
  0
LINE
  5
1751
330
1F
100
AcDbEntity
  8
NETAFIM-L-DETL-035M
  6
Continuous
100
AcDbLine
 10
3.731598405255329
 20
6.830324169738519
 30
0.0
 11
3.747123405255326
 21
6.830324169738519
 31
0.0
  0
LINE
  5
1752
330
1F
100
AcDbEntity
  8
NETAFIM-L-DETL-035M
  6
Continuous
100
AcDbLine
 10
3.747123405255326
 20
6.830324169738519
 30
0.0
 11
3.752973405255328
 21
6.830324169738519
 31
0.0
  0
LINE
  5
1753
330
1F
100
AcDbEntity
  8
NETAFIM-L-DETL-035M
  6
Continuous
100
AcDbLine
 10
3.752973405255328
 20
6.830324169738519
 30
0.0
 11
3.772548405255328
 21
6.828374169738518
 31
0.0
  0
LINE
  5
1754
330
1F
100
AcDbEntity
  8
NETAFIM-L-DETL-035M
  6
Continuous
100
AcDbLine
 10
3.772548405255328
 20
6.828374169738518
 30
0.0
 11
3.790848405255328
 21
6.822599169738518
 31
0.0
  0
LINE
  5
1755
330
1F
100
AcDbEntity
  8
NETAFIM-L-DETL-035M
  6
Continuous
100
AcDbLine
 10
3.790848405255328
 20
6.822599169738518
 30
0.0
 11
3.807423405255327
 21
6.81359916973852
 31
0.0
  0
LINE
  5
1756
330
1F
100
AcDbEntity
  8
NETAFIM-L-DETL-035M
  6
Continuous
100
AcDbLine
 10
3.807423405255327
 20
6.81359916973852
 30
0.0
 11
3.821898405255328
 21
6.801599169738519
 31
0.0
  0
LINE
  5
1757
330
1F
100
AcDbEntity
  8
NETAFIM-L-DETL-035M
  6
Continuous
100
AcDbLine
 10
3.821898405255328
 20
6.801599169738519
 30
0.0
 11
3.833898405255329
 21
6.787124169738518
 31
0.0
  0
LINE
  5
1758
330
1F
100
AcDbEntity
  8
NETAFIM-L-DETL-035M
  6
Continuous
100
AcDbLine
 10
3.833898405255329
 20
6.787124169738518
 30
0.0
 11
3.842898405255329
 21
6.770549169738519
 31
0.0
  0
LINE
  5
1759
330
1F
100
AcDbEntity
  8
NETAFIM-L-DETL-035M
  6
Continuous
100
AcDbLine
 10
3.842898405255329
 20
6.770549169738519
 30
0.0
 11
3.848673405255329
 21
6.752249169738519
 31
0.0
  0
LINE
  5
175A
330
1F
100
AcDbEntity
  8
NETAFIM-L-DETL-035M
  6
Continuous
100
AcDbLine
 10
3.848673405255329
 20
6.752249169738519
 30
0.0
 11
3.85062340525533
 21
6.732674169738519
 31
0.0
  0
LINE
  5
175B
330
1F
100
AcDbEntity
  8
NETAFIM-L-DETL-035M
  6
Continuous
100
AcDbLine
 10
3.85062340525533
 20
6.732674169738519
 30
0.0
 11
3.85062340525533
 21
6.711224169738519
 31
0.0
  0
LINE
  5
175C
330
1F
100
AcDbEntity
  8
NETAFIM-L-DETL-035M
  6
Continuous
100
AcDbLine
 10
3.85062340525533
 20
6.711224169738519
 30
0.0
 11
3.85062340525533
 21
6.654599169738519
 31
0.0
  0
LINE
  5
175D
330
1F
100
AcDbEntity
  8
NETAFIM-L-DETL-035M
  6
Continuous
100
AcDbLine
 10
3.85062340525533
 20
6.654599169738519
 30
0.0
 11
3.85062340525533
 21
6.574499169738519
 31
0.0
  0
LINE
  5
175E
330
1F
100
AcDbEntity
  8
NETAFIM-L-DETL-035M
  6
Continuous
100
AcDbLine
 10
3.85062340525533
 20
6.574499169738519
 30
0.0
 11
3.85062340525533
 21
6.48269916973852
 31
0.0
  0
LINE
  5
175F
330
1F
100
AcDbEntity
  8
NETAFIM-L-DETL-035M
  6
Continuous
100
AcDbLine
 10
3.85062340525533
 20
6.48269916973852
 30
0.0
 11
3.85062340525533
 21
6.390899169738519
 31
0.0
  0
LINE
  5
1760
330
1F
100
AcDbEntity
  8
NETAFIM-L-DETL-035M
  6
Continuous
100
AcDbLine
 10
3.85062340525533
 20
6.390899169738519
 30
0.0
 11
3.85062340525533
 21
6.310799169738519
 31
0.0
  0
LINE
  5
1761
330
1F
100
AcDbEntity
  8
NETAFIM-L-DETL-035M
  6
Continuous
100
AcDbLine
 10
3.85062340525533
 20
6.310799169738519
 30
0.0
 11
3.85062340525533
 21
6.254174169738519
 31
0.0
  0
LINE
  5
1762
330
1F
100
AcDbEntity
  8
NETAFIM-L-DETL-035M
  6
Continuous
100
AcDbLine
 10
3.85062340525533
 20
6.254174169738519
 30
0.0
 11
3.85062340525533
 21
6.232724169738519
 31
0.0
  0
LINE
  5
1763
330
1F
100
AcDbEntity
  8
NETAFIM-L-DETL-035M
  6
Continuous
100
AcDbLine
 10
3.85062340525533
 20
6.232724169738519
 30
0.0
 11
3.848673405255329
 21
6.213074169738519
 31
0.0
  0
LINE
  5
1764
330
1F
100
AcDbEntity
  8
NETAFIM-L-DETL-035M
  6
Continuous
100
AcDbLine
 10
3.848673405255329
 20
6.213074169738519
 30
0.0
 11
3.842898405255329
 21
6.194849169738519
 31
0.0
  0
LINE
  5
1765
330
1F
100
AcDbEntity
  8
NETAFIM-L-DETL-035M
  6
Continuous
100
AcDbLine
 10
3.842898405255329
 20
6.194849169738519
 30
0.0
 11
3.833898405255329
 21
6.178274169738518
 31
0.0
  0
LINE
  5
1766
330
1F
100
AcDbEntity
  8
NETAFIM-L-DETL-035M
  6
Continuous
100
AcDbLine
 10
3.833898405255329
 20
6.178274169738518
 30
0.0
 11
3.821898405255328
 21
6.163799169738519
 31
0.0
  0
LINE
  5
1767
330
1F
100
AcDbEntity
  8
NETAFIM-L-DETL-035M
  6
Continuous
100
AcDbLine
 10
3.821898405255328
 20
6.163799169738519
 30
0.0
 11
3.807423405255327
 21
6.151799169738518
 31
0.0
  0
LINE
  5
1768
330
1F
100
AcDbEntity
  8
NETAFIM-L-DETL-035M
  6
Continuous
100
AcDbLine
 10
3.807423405255327
 20
6.151799169738518
 30
0.0
 11
3.790848405255328
 21
6.142724169738519
 31
0.0
  0
LINE
  5
1769
330
1F
100
AcDbEntity
  8
NETAFIM-L-DETL-035M
  6
Continuous
100
AcDbLine
 10
3.790848405255328
 20
6.142724169738519
 30
0.0
 11
3.772548405255328
 21
6.137024169738518
 31
0.0
  0
LINE
  5
176A
330
1F
100
AcDbEntity
  8
NETAFIM-L-DETL-035M
  6
Continuous
100
AcDbLine
 10
3.772548405255328
 20
6.137024169738518
 30
0.0
 11
3.752973405255328
 21
6.13499916973852
 31
0.0
  0
LINE
  5
176B
330
1F
100
AcDbEntity
  8
NETAFIM-L-DETL-035M
  6
Continuous
100
AcDbLine
 10
3.752973405255328
 20
6.13499916973852
 30
0.0
 11
3.741273405255327
 21
6.13499916973852
 31
0.0
  0
LINE
  5
176C
330
1F
100
AcDbEntity
  8
NETAFIM-L-DETL-035M
  6
Continuous
100
AcDbLine
 10
3.741273405255327
 20
6.13499916973852
 30
0.0
 11
3.710298405255326
 21
6.13499916973852
 31
0.0
  0
LINE
  5
176D
330
1F
100
AcDbEntity
  8
NETAFIM-L-DETL-035M
  6
Continuous
100
AcDbLine
 10
3.710298405255326
 20
6.13499916973852
 30
0.0
 11
3.666498405255328
 21
6.13499916973852
 31
0.0
  0
LINE
  5
176E
330
1F
100
AcDbEntity
  8
NETAFIM-L-DETL-035M
  6
Continuous
100
AcDbLine
 10
3.666498405255328
 20
6.13499916973852
 30
0.0
 11
3.61624840525533
 21
6.13499916973852
 31
0.0
  0
LINE
  5
176F
330
1F
100
AcDbEntity
  8
NETAFIM-L-DETL-035M
  6
Continuous
100
AcDbLine
 10
3.61624840525533
 20
6.13499916973852
 30
0.0
 11
3.566073405255327
 21
6.13499916973852
 31
0.0
  0
LINE
  5
1770
330
1F
100
AcDbEntity
  8
NETAFIM-L-DETL-035M
  6
Continuous
100
AcDbLine
 10
3.566073405255327
 20
6.13499916973852
 30
0.0
 11
3.522273405255329
 21
6.13499916973852
 31
0.0
  0
LINE
  5
1771
330
1F
100
AcDbEntity
  8
NETAFIM-L-DETL-035M
  6
Continuous
100
AcDbLine
 10
3.522273405255329
 20
6.13499916973852
 30
0.0
 11
3.491298405255328
 21
6.13499916973852
 31
0.0
  0
LINE
  5
1772
330
1F
100
AcDbEntity
  8
NETAFIM-L-DETL-035M
  6
Continuous
100
AcDbLine
 10
3.491298405255328
 20
6.13499916973852
 30
0.0
 11
3.479598405255327
 21
6.13499916973852
 31
0.0
  0
LINE
  5
1773
330
1F
100
AcDbEntity
  8
NETAFIM-L-DETL-035M
  6
Continuous
100
AcDbLine
 10
3.479598405255327
 20
6.13499916973852
 30
0.0
 11
3.459948405255328
 21
6.137024169738518
 31
0.0
  0
LINE
  5
1774
330
1F
100
AcDbEntity
  8
NETAFIM-L-DETL-035M
  6
Continuous
100
AcDbLine
 10
3.459948405255328
 20
6.137024169738518
 30
0.0
 11
3.441723405255327
 21
6.142724169738519
 31
0.0
  0
LINE
  5
1775
330
1F
100
AcDbEntity
  8
NETAFIM-L-DETL-035M
  6
Continuous
100
AcDbLine
 10
3.441723405255327
 20
6.142724169738519
 30
0.0
 11
3.425148405255328
 21
6.151799169738518
 31
0.0
  0
LINE
  5
1776
330
1F
100
AcDbEntity
  8
NETAFIM-L-DETL-035M
  6
Continuous
100
AcDbLine
 10
3.425148405255328
 20
6.151799169738518
 30
0.0
 11
3.410673405255327
 21
6.163799169738519
 31
0.0
  0
LINE
  5
1777
330
1F
100
AcDbEntity
  8
NETAFIM-L-DETL-035M
  6
Continuous
100
AcDbLine
 10
3.410673405255327
 20
6.163799169738519
 30
0.0
 11
3.398673405255326
 21
6.178274169738518
 31
0.0
  0
LINE
  5
1778
330
1F
100
AcDbEntity
  8
NETAFIM-L-DETL-035M
  6
Continuous
100
AcDbLine
 10
3.398673405255326
 20
6.178274169738518
 30
0.0
 11
3.389598405255327
 21
6.194849169738519
 31
0.0
  0
LINE
  5
1779
330
1F
100
AcDbEntity
  8
NETAFIM-L-DETL-035M
  6
Continuous
100
AcDbLine
 10
3.389598405255327
 20
6.194849169738519
 30
0.0
 11
3.383898405255326
 21
6.213074169738519
 31
0.0
  0
LINE
  5
177A
330
1F
100
AcDbEntity
  8
NETAFIM-L-DETL-035M
  6
Continuous
100
AcDbLine
 10
3.383898405255326
 20
6.213074169738519
 30
0.0
 11
3.38187340525533
 21
6.232724169738519
 31
0.0
  0
LINE
  5
177B
330
1F
100
AcDbEntity
  8
NETAFIM-L-DETL-035M
  6
Continuous
100
AcDbLine
 10
3.38187340525533
 20
6.232724169738519
 30
0.0
 11
3.38187340525533
 21
6.254174169738519
 31
0.0
  0
LINE
  5
177C
330
1F
100
AcDbEntity
  8
NETAFIM-L-DETL-035M
  6
Continuous
100
AcDbLine
 10
3.38187340525533
 20
6.254174169738519
 30
0.0
 11
3.38187340525533
 21
6.310799169738519
 31
0.0
  0
LINE
  5
177D
330
1F
100
AcDbEntity
  8
NETAFIM-L-DETL-035M
  6
Continuous
100
AcDbLine
 10
3.38187340525533
 20
6.310799169738519
 30
0.0
 11
3.38187340525533
 21
6.390899169738519
 31
0.0
  0
LINE
  5
177E
330
1F
100
AcDbEntity
  8
NETAFIM-L-DETL-035M
  6
Continuous
100
AcDbLine
 10
3.38187340525533
 20
6.390899169738519
 30
0.0
 11
3.38187340525533
 21
6.48269916973852
 31
0.0
  0
LINE
  5
177F
330
1F
100
AcDbEntity
  8
NETAFIM-L-DETL-035M
  6
Continuous
100
AcDbLine
 10
3.38187340525533
 20
6.48269916973852
 30
0.0
 11
3.38187340525533
 21
6.574499169738519
 31
0.0
  0
LINE
  5
1780
330
1F
100
AcDbEntity
  8
NETAFIM-L-DETL-035M
  6
Continuous
100
AcDbLine
 10
3.38187340525533
 20
6.574499169738519
 30
0.0
 11
3.38187340525533
 21
6.654599169738519
 31
0.0
  0
LINE
  5
1781
330
1F
100
AcDbEntity
  8
NETAFIM-L-DETL-035M
  6
Continuous
100
AcDbLine
 10
3.38187340525533
 20
6.654599169738519
 30
0.0
 11
3.38187340525533
 21
6.711224169738519
 31
0.0
  0
LINE
  5
1782
330
1F
100
AcDbEntity
  8
NETAFIM-L-DETL-035M
  6
Continuous
100
AcDbLine
 10
3.38187340525533
 20
6.711224169738519
 30
0.0
 11
3.38187340525533
 21
6.732674169738519
 31
0.0
  0
LINE
  5
1783
330
1F
100
AcDbEntity
  8
NETAFIM-L-DETL-035M
  6
Continuous
100
AcDbLine
 10
3.38187340525533
 20
6.732674169738519
 30
0.0
 11
3.383898405255326
 21
6.752249169738519
 31
0.0
  0
LINE
  5
1784
330
1F
100
AcDbEntity
  8
NETAFIM-L-DETL-035M
  6
Continuous
100
AcDbLine
 10
3.383898405255326
 20
6.752249169738519
 30
0.0
 11
3.389598405255327
 21
6.770549169738519
 31
0.0
  0
LINE
  5
1785
330
1F
100
AcDbEntity
  8
NETAFIM-L-DETL-035M
  6
Continuous
100
AcDbLine
 10
3.389598405255327
 20
6.770549169738519
 30
0.0
 11
3.398673405255326
 21
6.787124169738518
 31
0.0
  0
LINE
  5
1786
330
1F
100
AcDbEntity
  8
NETAFIM-L-DETL-035M
  6
Continuous
100
AcDbLine
 10
3.398673405255326
 20
6.787124169738518
 30
0.0
 11
3.410673405255327
 21
6.801599169738519
 31
0.0
  0
LINE
  5
1787
330
1F
100
AcDbEntity
  8
NETAFIM-L-DETL-035M
  6
Continuous
100
AcDbLine
 10
3.410673405255327
 20
6.801599169738519
 30
0.0
 11
3.425148405255328
 21
6.81359916973852
 31
0.0
  0
LINE
  5
1788
330
1F
100
AcDbEntity
  8
NETAFIM-L-DETL-035M
  6
Continuous
100
AcDbLine
 10
3.425148405255328
 20
6.81359916973852
 30
0.0
 11
3.441723405255327
 21
6.822599169738518
 31
0.0
  0
LINE
  5
1789
330
1F
100
AcDbEntity
  8
NETAFIM-L-DETL-035M
  6
Continuous
100
AcDbLine
 10
3.441723405255327
 20
6.822599169738518
 30
0.0
 11
3.459948405255328
 21
6.828374169738518
 31
0.0
  0
LINE
  5
178A
330
1F
100
AcDbEntity
  8
NETAFIM-L-DETL-035M
  6
Continuous
100
AcDbLine
 10
3.459948405255328
 20
6.828374169738518
 30
0.0
 11
3.479598405255327
 21
6.830324169738519
 31
0.0
  0
LINE
  5
178B
330
1F
100
AcDbEntity
  8
NETAFIM-L-DETL-035M
  6
Continuous
100
AcDbLine
 10
3.479598405255327
 20
6.830324169738519
 30
0.0
 11
3.485448405255329
 21
6.830324169738519
 31
0.0
  0
LINE
  5
178C
330
1F
100
AcDbEntity
  8
NETAFIM-L-DETL-035M
  6
Continuous
100
AcDbLine
 10
3.485448405255329
 20
6.830324169738519
 30
0.0
 11
3.500898405255327
 21
6.830324169738519
 31
0.0
  0
LINE
  5
178D
330
1F
100
AcDbEntity
  8
NETAFIM-L-DETL-035M
  6
Continuous
100
AcDbLine
 10
3.500898405255327
 20
6.830324169738519
 30
0.0
 11
3.522798405255326
 21
6.830324169738519
 31
0.0
  0
LINE
  5
178E
330
1F
100
AcDbEntity
  8
NETAFIM-L-DETL-035M
  6
Continuous
100
AcDbLine
 10
3.522798405255326
 20
6.830324169738519
 30
0.0
 11
3.547923405255328
 21
6.830324169738519
 31
0.0
  0
LINE
  5
178F
330
1F
100
AcDbEntity
  8
NETAFIM-L-DETL-035M
  6
Continuous
100
AcDbLine
 10
3.547923405255328
 20
6.830324169738519
 30
0.0
 11
3.573048405255327
 21
6.830324169738519
 31
0.0
  0
LINE
  5
1790
330
1F
100
AcDbEntity
  8
NETAFIM-L-DETL-035M
  6
Continuous
100
AcDbLine
 10
3.573048405255327
 20
6.830324169738519
 30
0.0
 11
3.594948405255326
 21
6.830324169738519
 31
0.0
  0
LINE
  5
1791
330
1F
100
AcDbEntity
  8
NETAFIM-L-DETL-035M
  6
Continuous
100
AcDbLine
 10
3.594948405255326
 20
6.830324169738519
 30
0.0
 11
3.610398405255327
 21
6.830324169738519
 31
0.0
  0
LINE
  5
1792
330
1F
100
AcDbEntity
  8
NETAFIM-L-DETL-035M
  6
Continuous
100
AcDbLine
 10
3.610398405255327
 20
6.830324169738519
 30
0.0
 11
3.61624840525533
 21
6.830324169738519
 31
0.0
  0
LINE
  5
1793
330
1F
100
AcDbEntity
  8
NETAFIM-L-DETL-035M
  6
Continuous
100
AcDbLine
 10
3.61624840525533
 20
6.79124916973852
 30
0.0
 11
3.620298405255326
 21
6.79124916973852
 31
0.0
  0
LINE
  5
1794
330
1F
100
AcDbEntity
  8
NETAFIM-L-DETL-035M
  6
Continuous
100
AcDbLine
 10
3.620298405255326
 20
6.79124916973852
 30
0.0
 11
3.630948405255328
 21
6.79124916973852
 31
0.0
  0
LINE
  5
1795
330
1F
100
AcDbEntity
  8
NETAFIM-L-DETL-035M
  6
Continuous
100
AcDbLine
 10
3.630948405255328
 20
6.79124916973852
 30
0.0
 11
3.645948405255328
 21
6.79124916973852
 31
0.0
  0
LINE
  5
1796
330
1F
100
AcDbEntity
  8
NETAFIM-L-DETL-035M
  6
Continuous
100
AcDbLine
 10
3.645948405255328
 20
6.79124916973852
 30
0.0
 11
3.66312340525533
 21
6.79124916973852
 31
0.0
  0
LINE
  5
1797
330
1F
100
AcDbEntity
  8
NETAFIM-L-DETL-035M
  6
Continuous
100
AcDbLine
 10
3.66312340525533
 20
6.79124916973852
 30
0.0
 11
3.680373405255327
 21
6.79124916973852
 31
0.0
  0
LINE
  5
1798
330
1F
100
AcDbEntity
  8
NETAFIM-L-DETL-035M
  6
Continuous
100
AcDbLine
 10
3.680373405255327
 20
6.79124916973852
 30
0.0
 11
3.695373405255327
 21
6.79124916973852
 31
0.0
  0
LINE
  5
1799
330
1F
100
AcDbEntity
  8
NETAFIM-L-DETL-035M
  6
Continuous
100
AcDbLine
 10
3.695373405255327
 20
6.79124916973852
 30
0.0
 11
3.706023405255326
 21
6.79124916973852
 31
0.0
  0
LINE
  5
179A
330
1F
100
AcDbEntity
  8
NETAFIM-L-DETL-035M
  6
Continuous
100
AcDbLine
 10
3.706023405255326
 20
6.79124916973852
 30
0.0
 11
3.70999840525533
 21
6.79124916973852
 31
0.0
  0
LINE
  5
179B
330
1F
100
AcDbEntity
  8
NETAFIM-L-DETL-035M
  6
Continuous
100
AcDbLine
 10
3.70999840525533
 20
6.79124916973852
 30
0.0
 11
3.729573405255326
 21
6.789299169738519
 31
0.0
  0
LINE
  5
179C
330
1F
100
AcDbEntity
  8
NETAFIM-L-DETL-035M
  6
Continuous
100
AcDbLine
 10
3.729573405255326
 20
6.789299169738519
 30
0.0
 11
3.747873405255329
 21
6.78352416973852
 31
0.0
  0
LINE
  5
179D
330
1F
100
AcDbEntity
  8
NETAFIM-L-DETL-035M
  6
Continuous
100
AcDbLine
 10
3.747873405255329
 20
6.78352416973852
 30
0.0
 11
3.764448405255325
 21
6.774524169738519
 31
0.0
  0
LINE
  5
179E
330
1F
100
AcDbEntity
  8
NETAFIM-L-DETL-035M
  6
Continuous
100
AcDbLine
 10
3.764448405255325
 20
6.774524169738519
 30
0.0
 11
3.778923405255326
 21
6.762524169738519
 31
0.0
  0
LINE
  5
179F
330
1F
100
AcDbEntity
  8
NETAFIM-L-DETL-035M
  6
Continuous
100
AcDbLine
 10
3.778923405255326
 20
6.762524169738519
 30
0.0
 11
3.790923405255327
 21
6.74804916973852
 31
0.0
  0
LINE
  5
17A0
330
1F
100
AcDbEntity
  8
NETAFIM-L-DETL-035M
  6
Continuous
100
AcDbLine
 10
3.790923405255327
 20
6.74804916973852
 30
0.0
 11
3.799923405255327
 21
6.731474169738518
 31
0.0
  0
LINE
  5
17A1
330
1F
100
AcDbEntity
  8
NETAFIM-L-DETL-035M
  6
Continuous
100
AcDbLine
 10
3.799923405255327
 20
6.731474169738518
 30
0.0
 11
3.805698405255327
 21
6.713174169738518
 31
0.0
  0
LINE
  5
17A2
330
1F
100
AcDbEntity
  8
NETAFIM-L-DETL-035M
  6
Continuous
100
AcDbLine
 10
3.805698405255327
 20
6.713174169738518
 30
0.0
 11
3.807723405255327
 21
6.693599169738519
 31
0.0
  0
LINE
  5
17A3
330
1F
100
AcDbEntity
  8
NETAFIM-L-DETL-035M
  6
Continuous
100
AcDbLine
 10
3.807723405255327
 20
6.693599169738519
 30
0.0
 11
3.807723405255327
 21
6.675524169738519
 31
0.0
  0
LINE
  5
17A4
330
1F
100
AcDbEntity
  8
NETAFIM-L-DETL-035M
  6
Continuous
100
AcDbLine
 10
3.807723405255327
 20
6.675524169738519
 30
0.0
 11
3.807723405255327
 21
6.627674169738519
 31
0.0
  0
LINE
  5
17A5
330
1F
100
AcDbEntity
  8
NETAFIM-L-DETL-035M
  6
Continuous
100
AcDbLine
 10
3.807723405255327
 20
6.627674169738519
 30
0.0
 11
3.807723405255327
 21
6.560174169738518
 31
0.0
  0
LINE
  5
17A6
330
1F
100
AcDbEntity
  8
NETAFIM-L-DETL-035M
  6
Continuous
100
AcDbLine
 10
3.807723405255327
 20
6.560174169738518
 30
0.0
 11
3.807723405255327
 21
6.48269916973852
 31
0.0
  0
LINE
  5
17A7
330
1F
100
AcDbEntity
  8
NETAFIM-L-DETL-035M
  6
Continuous
100
AcDbLine
 10
3.807723405255327
 20
6.48269916973852
 30
0.0
 11
3.807723405255327
 21
6.405224169738518
 31
0.0
  0
LINE
  5
17A8
330
1F
100
AcDbEntity
  8
NETAFIM-L-DETL-035M
  6
Continuous
100
AcDbLine
 10
3.807723405255327
 20
6.405224169738518
 30
0.0
 11
3.807723405255327
 21
6.337649169738519
 31
0.0
  0
LINE
  5
17A9
330
1F
100
AcDbEntity
  8
NETAFIM-L-DETL-035M
  6
Continuous
100
AcDbLine
 10
3.807723405255327
 20
6.337649169738519
 30
0.0
 11
3.807723405255327
 21
6.289874169738519
 31
0.0
  0
LINE
  5
17AA
330
1F
100
AcDbEntity
  8
NETAFIM-L-DETL-035M
  6
Continuous
100
AcDbLine
 10
3.807723405255327
 20
6.289874169738519
 30
0.0
 11
3.807723405255327
 21
6.271724169738519
 31
0.0
  0
LINE
  5
17AB
330
1F
100
AcDbEntity
  8
NETAFIM-L-DETL-035M
  6
Continuous
100
AcDbLine
 10
3.807723405255327
 20
6.271724169738519
 30
0.0
 11
3.805698405255327
 21
6.252149169738519
 31
0.0
  0
LINE
  5
17AC
330
1F
100
AcDbEntity
  8
NETAFIM-L-DETL-035M
  6
Continuous
100
AcDbLine
 10
3.805698405255327
 20
6.252149169738519
 30
0.0
 11
3.799923405255327
 21
6.23392416973852
 31
0.0
  0
LINE
  5
17AD
330
1F
100
AcDbEntity
  8
NETAFIM-L-DETL-035M
  6
Continuous
100
AcDbLine
 10
3.799923405255327
 20
6.23392416973852
 30
0.0
 11
3.790923405255327
 21
6.217274169738518
 31
0.0
  0
LINE
  5
17AE
330
1F
100
AcDbEntity
  8
NETAFIM-L-DETL-035M
  6
Continuous
100
AcDbLine
 10
3.790923405255327
 20
6.217274169738518
 30
0.0
 11
3.778923405255326
 21
6.202799169738518
 31
0.0
  0
LINE
  5
17AF
330
1F
100
AcDbEntity
  8
NETAFIM-L-DETL-035M
  6
Continuous
100
AcDbLine
 10
3.778923405255326
 20
6.202799169738518
 30
0.0
 11
3.764448405255325
 21
6.190874169738519
 31
0.0
  0
LINE
  5
17B0
330
1F
100
AcDbEntity
  8
NETAFIM-L-DETL-035M
  6
Continuous
100
AcDbLine
 10
3.764448405255325
 20
6.190874169738519
 30
0.0
 11
3.747873405255329
 21
6.181799169738518
 31
0.0
  0
LINE
  5
17B1
330
1F
100
AcDbEntity
  8
NETAFIM-L-DETL-035M
  6
Continuous
100
AcDbLine
 10
3.747873405255329
 20
6.181799169738518
 30
0.0
 11
3.729573405255326
 21
6.176099169738519
 31
0.0
  0
LINE
  5
17B2
330
1F
100
AcDbEntity
  8
NETAFIM-L-DETL-035M
  6
Continuous
100
AcDbLine
 10
3.729573405255326
 20
6.176099169738519
 30
0.0
 11
3.70999840525533
 21
6.174074169738519
 31
0.0
  0
LINE
  5
17B3
330
1F
100
AcDbEntity
  8
NETAFIM-L-DETL-035M
  6
Continuous
100
AcDbLine
 10
3.70999840525533
 20
6.174074169738519
 30
0.0
 11
3.701973405255326
 21
6.174074169738519
 31
0.0
  0
LINE
  5
17B4
330
1F
100
AcDbEntity
  8
NETAFIM-L-DETL-035M
  6
Continuous
100
AcDbLine
 10
3.701973405255326
 20
6.174074169738519
 30
0.0
 11
3.680748405255325
 21
6.174074169738519
 31
0.0
  0
LINE
  5
17B5
330
1F
100
AcDbEntity
  8
NETAFIM-L-DETL-035M
  6
Continuous
100
AcDbLine
 10
3.680748405255325
 20
6.174074169738519
 30
0.0
 11
3.650673405255329
 21
6.174074169738519
 31
0.0
  0
LINE
  5
17B6
330
1F
100
AcDbEntity
  8
NETAFIM-L-DETL-035M
  6
Continuous
100
AcDbLine
 10
3.650673405255329
 20
6.174074169738519
 30
0.0
 11
3.61624840525533
 21
6.174074169738519
 31
0.0
  0
LINE
  5
17B7
330
1F
100
AcDbEntity
  8
NETAFIM-L-DETL-035M
  6
Continuous
100
AcDbLine
 10
3.61624840525533
 20
6.174074169738519
 30
0.0
 11
3.581823405255327
 21
6.174074169738519
 31
0.0
  0
LINE
  5
17B8
330
1F
100
AcDbEntity
  8
NETAFIM-L-DETL-035M
  6
Continuous
100
AcDbLine
 10
3.581823405255327
 20
6.174074169738519
 30
0.0
 11
3.55182340525533
 21
6.174074169738519
 31
0.0
  0
LINE
  5
17B9
330
1F
100
AcDbEntity
  8
NETAFIM-L-DETL-035M
  6
Continuous
100
AcDbLine
 10
3.55182340525533
 20
6.174074169738519
 30
0.0
 11
3.530598405255329
 21
6.174074169738519
 31
0.0
  0
LINE
  5
17BA
330
1F
100
AcDbEntity
  8
NETAFIM-L-DETL-035M
  6
Continuous
100
AcDbLine
 10
3.530598405255329
 20
6.174074169738519
 30
0.0
 11
3.52249840525533
 21
6.174074169738519
 31
0.0
  0
LINE
  5
17BB
330
1F
100
AcDbEntity
  8
NETAFIM-L-DETL-035M
  6
Continuous
100
AcDbLine
 10
3.52249840525533
 20
6.174074169738519
 30
0.0
 11
3.502923405255327
 21
6.176099169738519
 31
0.0
  0
LINE
  5
17BC
330
1F
100
AcDbEntity
  8
NETAFIM-L-DETL-035M
  6
Continuous
100
AcDbLine
 10
3.502923405255327
 20
6.176099169738519
 30
0.0
 11
3.484698405255329
 21
6.181799169738518
 31
0.0
  0
LINE
  5
17BD
330
1F
100
AcDbEntity
  8
NETAFIM-L-DETL-035M
  6
Continuous
100
AcDbLine
 10
3.484698405255329
 20
6.181799169738518
 30
0.0
 11
3.468048405255327
 21
6.190874169738519
 31
0.0
  0
LINE
  5
17BE
330
1F
100
AcDbEntity
  8
NETAFIM-L-DETL-035M
  6
Continuous
100
AcDbLine
 10
3.468048405255327
 20
6.190874169738519
 30
0.0
 11
3.45357340525533
 21
6.202799169738518
 31
0.0
  0
LINE
  5
17BF
330
1F
100
AcDbEntity
  8
NETAFIM-L-DETL-035M
  6
Continuous
100
AcDbLine
 10
3.45357340525533
 20
6.202799169738518
 30
0.0
 11
3.441648405255328
 21
6.217274169738518
 31
0.0
  0
LINE
  5
17C0
330
1F
100
AcDbEntity
  8
NETAFIM-L-DETL-035M
  6
Continuous
100
AcDbLine
 10
3.441648405255328
 20
6.217274169738518
 30
0.0
 11
3.432573405255329
 21
6.23392416973852
 31
0.0
  0
LINE
  5
17C1
330
1F
100
AcDbEntity
  8
NETAFIM-L-DETL-035M
  6
Continuous
100
AcDbLine
 10
3.432573405255329
 20
6.23392416973852
 30
0.0
 11
3.426873405255328
 21
6.252149169738519
 31
0.0
  0
LINE
  5
17C2
330
1F
100
AcDbEntity
  8
NETAFIM-L-DETL-035M
  6
Continuous
100
AcDbLine
 10
3.426873405255328
 20
6.252149169738519
 30
0.0
 11
3.424848405255328
 21
6.271724169738519
 31
0.0
  0
LINE
  5
17C3
330
1F
100
AcDbEntity
  8
NETAFIM-L-DETL-035M
  6
Continuous
100
AcDbLine
 10
3.424848405255328
 20
6.271724169738519
 30
0.0
 11
3.424848405255328
 21
6.289874169738519
 31
0.0
  0
LINE
  5
17C4
330
1F
100
AcDbEntity
  8
NETAFIM-L-DETL-035M
  6
Continuous
100
AcDbLine
 10
3.424848405255328
 20
6.289874169738519
 30
0.0
 11
3.424848405255328
 21
6.337649169738519
 31
0.0
  0
LINE
  5
17C5
330
1F
100
AcDbEntity
  8
NETAFIM-L-DETL-035M
  6
Continuous
100
AcDbLine
 10
3.424848405255328
 20
6.337649169738519
 30
0.0
 11
3.424848405255328
 21
6.405224169738518
 31
0.0
  0
LINE
  5
17C6
330
1F
100
AcDbEntity
  8
NETAFIM-L-DETL-035M
  6
Continuous
100
AcDbLine
 10
3.424848405255328
 20
6.405224169738518
 30
0.0
 11
3.424848405255328
 21
6.48269916973852
 31
0.0
  0
LINE
  5
17C7
330
1F
100
AcDbEntity
  8
NETAFIM-L-DETL-035M
  6
Continuous
100
AcDbLine
 10
3.424848405255328
 20
6.48269916973852
 30
0.0
 11
3.424848405255328
 21
6.560174169738518
 31
0.0
  0
LINE
  5
17C8
330
1F
100
AcDbEntity
  8
NETAFIM-L-DETL-035M
  6
Continuous
100
AcDbLine
 10
3.424848405255328
 20
6.560174169738518
 30
0.0
 11
3.424848405255328
 21
6.627674169738519
 31
0.0
  0
LINE
  5
17C9
330
1F
100
AcDbEntity
  8
NETAFIM-L-DETL-035M
  6
Continuous
100
AcDbLine
 10
3.424848405255328
 20
6.627674169738519
 30
0.0
 11
3.424848405255328
 21
6.675524169738519
 31
0.0
  0
LINE
  5
17CA
330
1F
100
AcDbEntity
  8
NETAFIM-L-DETL-035M
  6
Continuous
100
AcDbLine
 10
3.424848405255328
 20
6.675524169738519
 30
0.0
 11
3.424848405255328
 21
6.693599169738519
 31
0.0
  0
LINE
  5
17CB
330
1F
100
AcDbEntity
  8
NETAFIM-L-DETL-035M
  6
Continuous
100
AcDbLine
 10
3.424848405255328
 20
6.693599169738519
 30
0.0
 11
3.426873405255328
 21
6.713174169738518
 31
0.0
  0
LINE
  5
17CC
330
1F
100
AcDbEntity
  8
NETAFIM-L-DETL-035M
  6
Continuous
100
AcDbLine
 10
3.426873405255328
 20
6.713174169738518
 30
0.0
 11
3.432573405255329
 21
6.731474169738518
 31
0.0
  0
LINE
  5
17CD
330
1F
100
AcDbEntity
  8
NETAFIM-L-DETL-035M
  6
Continuous
100
AcDbLine
 10
3.432573405255329
 20
6.731474169738518
 30
0.0
 11
3.441648405255328
 21
6.74804916973852
 31
0.0
  0
LINE
  5
17CE
330
1F
100
AcDbEntity
  8
NETAFIM-L-DETL-035M
  6
Continuous
100
AcDbLine
 10
3.441648405255328
 20
6.74804916973852
 30
0.0
 11
3.45357340525533
 21
6.762524169738519
 31
0.0
  0
LINE
  5
17CF
330
1F
100
AcDbEntity
  8
NETAFIM-L-DETL-035M
  6
Continuous
100
AcDbLine
 10
3.45357340525533
 20
6.762524169738519
 30
0.0
 11
3.468048405255327
 21
6.774524169738519
 31
0.0
  0
LINE
  5
17D0
330
1F
100
AcDbEntity
  8
NETAFIM-L-DETL-035M
  6
Continuous
100
AcDbLine
 10
3.468048405255327
 20
6.774524169738519
 30
0.0
 11
3.484698405255329
 21
6.78352416973852
 31
0.0
  0
LINE
  5
17D1
330
1F
100
AcDbEntity
  8
NETAFIM-L-DETL-035M
  6
Continuous
100
AcDbLine
 10
3.484698405255329
 20
6.78352416973852
 30
0.0
 11
3.502923405255327
 21
6.789299169738519
 31
0.0
  0
LINE
  5
17D2
330
1F
100
AcDbEntity
  8
NETAFIM-L-DETL-035M
  6
Continuous
100
AcDbLine
 10
3.502923405255327
 20
6.789299169738519
 30
0.0
 11
3.52249840525533
 21
6.79124916973852
 31
0.0
  0
LINE
  5
17D3
330
1F
100
AcDbEntity
  8
NETAFIM-L-DETL-035M
  6
Continuous
100
AcDbLine
 10
3.52249840525533
 20
6.79124916973852
 30
0.0
 11
3.526548405255326
 21
6.79124916973852
 31
0.0
  0
LINE
  5
17D4
330
1F
100
AcDbEntity
  8
NETAFIM-L-DETL-035M
  6
Continuous
100
AcDbLine
 10
3.526548405255326
 20
6.79124916973852
 30
0.0
 11
3.537198405255328
 21
6.79124916973852
 31
0.0
  0
LINE
  5
17D5
330
1F
100
AcDbEntity
  8
NETAFIM-L-DETL-035M
  6
Continuous
100
AcDbLine
 10
3.537198405255328
 20
6.79124916973852
 30
0.0
 11
3.552198405255328
 21
6.79124916973852
 31
0.0
  0
LINE
  5
17D6
330
1F
100
AcDbEntity
  8
NETAFIM-L-DETL-035M
  6
Continuous
100
AcDbLine
 10
3.552198405255328
 20
6.79124916973852
 30
0.0
 11
3.56937340525533
 21
6.79124916973852
 31
0.0
  0
LINE
  5
17D7
330
1F
100
AcDbEntity
  8
NETAFIM-L-DETL-035M
  6
Continuous
100
AcDbLine
 10
3.56937340525533
 20
6.79124916973852
 30
0.0
 11
3.586623405255327
 21
6.79124916973852
 31
0.0
  0
LINE
  5
17D8
330
1F
100
AcDbEntity
  8
NETAFIM-L-DETL-035M
  6
Continuous
100
AcDbLine
 10
3.586623405255327
 20
6.79124916973852
 30
0.0
 11
3.601623405255327
 21
6.79124916973852
 31
0.0
  0
LINE
  5
17D9
330
1F
100
AcDbEntity
  8
NETAFIM-L-DETL-035M
  6
Continuous
100
AcDbLine
 10
3.601623405255327
 20
6.79124916973852
 30
0.0
 11
3.612273405255326
 21
6.79124916973852
 31
0.0
  0
LINE
  5
17DA
330
1F
100
AcDbEntity
  8
NETAFIM-L-DETL-035M
  6
Continuous
100
AcDbLine
 10
3.612273405255326
 20
6.79124916973852
 30
0.0
 11
3.61624840525533
 21
6.79124916973852
 31
0.0
  0
CIRCLE
  5
17DB
330
1F
100
AcDbEntity
  8
NETAFIM-L-DETL-035M
100
AcDbCircle
 10
3.320167714610835
 20
3.120175313795114
 30
0.0
 40
0.12996
  0
TEXT
  5
17DC
330
1F
100
AcDbEntity
  8
NETAFIM-D-TEXT-025M
100
AcDbText
 10
3.229832301768521
 20
3.079375590629386
 30
0.0
 40
0.09
  1
AR
100
AcDbText
  0
LINE
  5
17DD
330
1F
100
AcDbEntity
  8
NETAFIM-L-DETL-025M-TUBING
100
AcDbLine
 10
3.14769022333664
 20
3.146876109110016
 30
0.0
 11
2.887436911234063
 21
3.146876109110016
 31
0.0
  0
LINE
  5
17DE
330
1F
100
AcDbEntity
  8
NETAFIM-L-DETL-025M-TUBING
100
AcDbLine
 10
3.14771579992769
 20
3.097732627030651
 30
0.0
 11
2.887462487825111
 21
3.09773262703065
 31
0.0
  0
LINE
  5
17DF
330
1F
100
AcDbEntity
  8
NETAFIM-L-DETL-025M-TUBING
100
AcDbLine
 10
4.671466179697475
 20
3.146869733321523
 30
0.0
 11
4.413729128899756
 21
3.146869733321523
 31
0.0
  0
LINE
  5
17E0
330
1F
100
AcDbEntity
  8
NETAFIM-L-DETL-025M-TUBING
100
AcDbLine
 10
4.671491756288522
 20
3.097726251242156
 30
0.0
 11
4.413754705490802
 21
3.097726251242156
 31
0.0
  0
LINE
  5
17E1
330
1F
100
AcDbEntity
  8
NETAFIM-L-DETL-025M-TUBING
100
AcDbLine
 10
4.364507877095705
 20
3.097726251242156
 30
0.0
 11
4.119711598722977
 21
3.097726251242156
 31
0.0
  0
LINE
  5
17E2
330
1F
100
AcDbEntity
  8
NETAFIM-L-DETL-025M-TUBING
100
AcDbLine
 10
4.364482300504658
 20
3.146869733321523
 30
0.0
 11
4.119686022131929
 21
3.146869733321522
 31
0.0
  0
LINE
  5
17E3
330
1F
100
AcDbEntity
  8
NETAFIM-L-DETL-025M-TUBING
100
AcDbLine
 10
4.070439193736827
 20
3.146869733321523
 30
0.0
 11
3.805153359024531
 21
3.146869733321523
 31
0.0
  0
LINE
  5
17E4
330
1F
100
AcDbEntity
  8
NETAFIM-L-DETL-025M-TUBING
100
AcDbLine
 10
4.070464770327877
 20
3.097726251242156
 30
0.0
 11
3.805178935615581
 21
3.097726251242156
 31
0.0
  0
LINE
  5
17E5
330
1F
100
AcDbEntity
  8
NETAFIM-L-DETL-025M-TUBING
100
AcDbLine
 10
3.75593210722048
 20
3.097726251242156
 30
0.0
 11
3.490286806607489
 21
3.097726251242156
 31
0.0
  0
LINE
  5
17E6
330
1F
100
AcDbEntity
  8
NETAFIM-L-DETL-025M-TUBING
100
AcDbLine
 10
3.755906530629431
 20
3.146869733321523
 30
0.0
 11
3.490261230016438
 21
3.146869733321523
 31
0.0
  0
LINE
  5
17E7
330
1F
100
AcDbEntity
  8
NETAFIM-L-DETL-025M-TUBING
100
AcDbLine
 10
2.838215662748272
 20
3.097726251242155
 30
0.0
 11
2.581197543751944
 21
3.097726251242155
 31
0.0
  0
LINE
  5
17E8
330
1F
100
AcDbEntity
  8
NETAFIM-L-DETL-025M-TUBING
100
AcDbLine
 10
2.83819008615722
 20
3.146869733321523
 30
0.0
 11
2.581171967160894
 21
3.146869733321522
 31
0.0
  0
LWPOLYLINE
  5
17E9
330
1F
100
AcDbEntity
  8
NETAFIM-L-DETL-035M
100
AcDbPolyline
 90
        2
 70
     0
 43
0.0
 10
3.263265092709374
 20
3.237242599553698
 42
420.7666170174994
 10
3.264380053340886
 20
3.237774769688824
 42
420.7666170174994
  0
MULTILEADER
  5
17F5
330
1F
100
AcDbEntity
  8
NETAFIM-L-DETL-TEXT-LEADER-025M
 92
      788
310
14030000150000000C00000016000000000000C00C00000013000000993A0000C00000000B0000008C21936269FF1740F98895C117EA0240000000000000000000000000000000000000000000000000000000000000F03F000000000000F03F000000000000000000000000000000004149522F56414355554D2052454C49
310
45462056414C56452028504C554D4245440000000020000000010000000AD7A3703D0AB73F000000000000F03F0000000000000000000000000000F03F0000000000000000000000000000000000000000726F6D616E732E736878000000000000C00000000B0000008C21936269FF1740C7060CC3C8930140000000000000
310
000000000000000000000000000000000000000000000000F03F000000000000F03F00000000000000000000000000000000544F20546563686C696E652052572041542045414348204849474820504F494E5429000022000000010000000AD7A3703D0AB73F000000000000F03F0000000000000000000000000000F03F00
310
00000000000000000000000000000000000000726F6D616E732E7368780000000000000C00000010000000070000000C00000016000000000000C00C00000012000000FF7F00000C00000013000000010000000C0000001400000001000000540000000700000003000000A23FB451CE7A0B40B90984BE2A31074000000000
310
00000000FE561C4C86E90A40C129C33693FB0740000000000000000095DCF74799B40B40189C6CE9396B074000000000000000000C00000013000000891300003C00000006000000020000001B0ED6CCB3970B40E952F853324E07400000000000000000E0C4F6A1FE9F0F4035E2C230A44A034000000000000000000C0000
310
0013000000112700003C0000000600000002000000E0C4F6A1FE9F0F4035E2C230A44A03400000000000000000105C3BE6A3A7174035E2C230A44A034000000000000000000C00000016000000000000C00C00000012000000FF7F00000C00000017000000000000000C000000130000009A3A00000C000000160000000000
310
00C00C00000012000000FF7F00000C00000017000000FFFFFFFF
100
AcDbMLeader
300
CONTEXT_DATA{
 40
1.0
 10
5.913711163876556
 20
2.411445980975509
 30
0.0
 41
0.09
140
0.12
145
0.09
174
     1
175
     1
176
     0
177
     0
290
     1
304
{\Fromans|c0;AIR/VACUUM RELIEF VALVE (PLUMBED \PTO Techline RW AT EACH HIGH POINT)}
 11
0.0
 21
0.0
 31
1.0
340
810
 12
6.003711163876555
 22
2.471445980975509
 32
0.0
 13
1.0
 23
0.0
 33
0.0
 42
0.0
 43
3.10714634819984
 44
0.0
 45
1.0
170
     1
 90
-1073741824
171
     1
172
     5
 91
-1073741824
141
0.0
 92
        0
291
     0
292
     0
173
     0
293
     0
142
0.0
143
0.0
294
     0
295
     0
296
     0
110
4.394467908860917
120
2.950413662941137
130
0.0
111
1.0
121
0.0
131
0.0
112
0.0
122
1.0
132
0.0
297
     0
302
LEADER{
290
     1
291
     1
 10
3.953122392028134
 20
2.411445980975509
 30
0.0
 11
1.0
 21
0.0
 31
0.0
 90
        0
 40
1.960588771848421
304
LEADER_LINE{
 10
3.364025683035719
 20
2.997839382010369
 30
0.0
 91
        0
305
}
303
}
301
}
340
813
 90
   279680
170
     1
 91
-1056964608
341
14
171
    -2
290
     1
291
     1
 41
0.36
 42
0.12
172
     2
343
810
173
     1
 95
        1
174
     1
175
     0
 92
-1056964608
292
     0
 93
-1056964608
 10
1.0
 20
1.0
 30
1.0
 43
0.0
176
     0
293
     0
294
     0
178
     0
179
     1
 45
1.0
1001
ACAD_MLEADERVER
1070
     2
  0
MULTILEADER
  5
17F6
330
1F
100
AcDbEntity
  8
NETAFIM-L-DETL-TEXT-LEADER-025M
 92
     1088
310
40040000170000000C00000016000000000000C00C00000013000000993A0000AC0000000B000000EDC352F63EF217408DBC204A87270B40000000000000000000000000000000000000000000000000000000000000F03F000000000000F03F00000000000000000000000000000000424C414E4B20546563686C696E6500
310
440E000000010000000AD7A3703D0AB73F000000000000F03F0000000000000000000000000000F03F0000000000000000000000000000000000000000726F6D616E732E7368780073007800009C0000000B000000402D1BB00E211C40D76336F4F4250B400000000000000000000000000000000000000000000000000000
310
00000000F03F000000000000F03F00000000000000000000000000000000AE00540001000000010000000AD7A3703D0AB73F000000000000F03F0000000000000000000000000000F03F0000000000000000000000000000000000000000417269616C00540000004500AC0000000B0000007AD007F21B801C408DBC204A87
310
270B40000000000000000000000000000000000000000000000000000000000000F03F000000000000F03F0000000000000000000000000000000020525720445249504C494E45004552410C000000010000000AD7A3703D0AB73F000000000000F03F0000000000000000000000000000F03F000000000000000000000000
310
0000000000000000726F6D616E732E736878007300780000B80000000B000000EDC352F63EF21740260958DB33E10940000000000000000000000000000000000000000000000000000000000000F03F000000000000F03F000000000000000000000000000000002843454E5445524544204F4E204D4F554E44204F522042
310
45524D29001B000000010000000AD7A3703D0AB73F000000000000F03F0000000000000000000000000000F03F0000000000000000000000000000000000000000726F6D616E732E7368780000000028380C00000010000000070000000C00000016000000000000C00C00000012000000FF7F00000C000000130000000100
310
00000C000000140000000100000054000000070000000300000069C215FE713F1040947F7E30416B094000000000000000005026B4BBB28D0F40001BEB09CA2C094000000000000000007E09D80ACC2E104071613C4A1AB6094000000000000000000C00000013000000891300003C0000000600000002000000F3E576041F
310
37104082705DBDAD90094000000000000000007016C4653A471240801FE2438A660B4000000000000000000C00000013000000112700003C00000006000000020000007016C4653A471240801FE2438A660B400000000000000000105C3BE6A3A71740801FE2438A660B4000000000000000000C00000016000000000000C0
310
0C00000012000000FF7F00000C00000017000000000000000C000000130000009A3A00000C00000016000000000000C00C00000012000000FF7F00000C00000017000000FFFFFFFF
100
AcDbMLeader
300
CONTEXT_DATA{
 40
1.0
 10
5.913711163876556
 20
3.425068407381274
 30
0.0
 41
0.09
140
0.12
145
0.09
174
     1
175
     1
176
     0
177
     0
290
     1
304
\A1;{\Fromans|c0;BLANK Techline\A0;\fArial|b0|i0|c0|p34;®\A1;\Fromans|c0; RW DRIPLINE\P(CENTERED ON MOUND OR BERM)}
 11
0.0
 21
0.0
 31
1.0
340
810
 12
6.003711163876555
 22
3.485068407381274
 32
0.0
 13
1.0
 23
0.0
 33
0.0
 42
0.0
 43
2.417570776373636
 44
0.0
 45
1.0
170
     1
 90
-1073741824
171
     1
172
     5
 91
-1073741824
141
0.0
 92
        0
291
     0
292
     0
173
     0
293
     0
142
0.0
143
0.0
294
     0
295
     0
296
     0
110
4.394467908860917
120
3.807633476798798
130
0.0
111
1.0
121
0.0
131
0.0
112
0.0
122
1.0
132
0.0
297
     0
302
LEADER{
290
     1
291
     1
 10
4.56955870637249
 20
3.425068407381274
 30
0.0
 11
1.0
 21
0.0
 31
0.0
 90
        0
 40
1.344152457504066
304
LEADER_LINE{
 10
3.944188562808257
 20
3.146869733321523
 30
0.0
 91
        0
305
}
303
}
301
}
340
813
 90
   279680
170
     1
 91
-1056964608
341
14
171
    -2
290
     1
291
     1
 41
0.36
 42
0.12
172
     2
343
810
173
     1
 95
        1
174
     1
175
     0
 92
-1056964608
292
     0
 93
-1056964608
 10
1.0
 20
1.0
 30
1.0
 43
0.0
176
     0
293
     0
294
     0
178
   256
179
     1
 45
1.0
1001
ACAD_MLEADERVER
1070
     2
  0
INSERT
  5
1872
330
1F
100
AcDbEntity
  8
0
100
AcDbBlockReference
  2
A$C420412FC
 10
-0.8951802652584106
 20
0.0011493762243084
 30
0.0
  0
ENDSEC
  0
SECTION
  2
OBJECTS
  0
DICTIONARY
  5
C
330
0
100
AcDbDictionary
281
     1
  3
ACAD_BACKGROUND
350
7B5
  3
ACAD_CIP_PREVIOUS_PRODUCT_INFO
350
1808
  3
ACAD_COLOR
350
73
  3
ACAD_GROUP
350
D
  3
ACAD_LAYOUT
350
1A
  3
ACAD_MATERIAL
350
72
  3
ACAD_MLEADERSTYLE
350
D7
  3
ACAD_MLINESTYLE
350
17
  3
ACAD_PLOTSETTINGS
350
19
  3
ACAD_PLOTSTYLENAME
350
E
  3
ACAD_SCALELIST
350
B6
  3
ACAD_TABLESTYLE
350
86
  3
ACAD_VISUALSTYLE
350
99
  3
AcadDim
350
CC8
  3
ACDB_RECOMPOSE_DATA
350
1913
  3
AcDbVariableDictionary
350
66
  3
ADE_QUERY_LIBRARY
350
18F
  3
AEC_PROPERTY_SET_DEFS
350
1871
  3
ASE_INDEX_DICTIONARY
350
1FA
  3
Autodesk_MAP
350
179
1001
ADE
1000
ADE02C004
1000
[Query]
1000
CaseSensitiveMatch=0
1000
SaveCurrQueryInSession=1
1000
MkSelSetWithQryObj=0
1000
ShowBlockAsInsPt=0
1000
CreateAssociativeHatchObjects=0
1000
ReferenceBoundaryForAreaLocation=1
1000
ShowImageAsBoundary=1
1000
DefaultJoinOperator=2
1000
ColorForAdd=red
1000
ColorForRemove=red
1000
BlockLocnForQuery=1
1000
TextLocnForQuery=1
1000
IncludeAllObjectsInGroups=0
1000
AlwaysUseLibraryDefinitions=0
1000
PreviewDefinitionsFrom=2
1000
[Save Back]
1000
RedefineBlockDefinitions=1
1000
RedefineLayerDefinitions=1
1000
RedefineTextStyleDefinitions=1
1000
RemoveUnusedGroups=1
1000
EraseSavedBackObjects=1
1000
RemoveLockAfterSave=1
1000
CreateHistoryFileOfChanges=0
1000
CreateBackupFileOfSourceDwg=1
1000
DontAddObjectsToSaveSet=0
1000
MarkObjectsForEditingWithoutPrompting=0
1000
FdoDontAddObjsToSvSet=0
1000
FdoEditWithoutPrompt=1
1000
FdoRemUnusedGrps=1
1000
FdoEraseSvdBkObjs=1
1000
FdoRemoveLockOnSave=1
1000
FdoTesselationMaxPointsDistance=0
1000
FdoTesselationMaxCurvesDistance=0
1000
[Coordinate Transformation]
1000
RestoreLastActiveDwgsOnStartup=1
1000
ActivateDwgsOnAttach=1
1000
AdjustSizesAndScalesForChangesInUnits=1
1000
AdjustRotationsForMapDistortions=1
1000
AdjustSizesAndScalesForMapDistortions=1
1000
AdjustElevations=1
1000
AdjustZeroRotationObjects=1
1000
ReconnectDbOnWSOpen=1
1000
NoOfSQLConditionsInHistory=10
  0
DICTIONARY
  5
189B
330
8
100
AcDbDictionary
280
     1
281
     1
  0
DICTIONARY
  5
20C
330
2
100
AcDbDictionary
280
     1
281
     1
  3
ACAD_LAYERSTATES
360
20D
  0
DICTIONARY
  5
E6
330
10
100
AcDbDictionary
280
     1
281
     1
  0
DICTIONARY
  5
802
330
801
100
AcDbDictionary
280
     1
281
     1
  0
DICTIONARY
  5
804
330
803
100
AcDbDictionary
280
     1
281
     1
  0
DICTIONARY
  5
806
330
805
100
AcDbDictionary
280
     1
281
     1
  0
DICTIONARY
  5
80F
330
80E
100
AcDbDictionary
280
     1
281
     1
  0
DICTIONARY
  5
15D
330
1F
100
AcDbDictionary
280
     1
281
     1
  3
ACAD_GEOGRAPHICDATA
360
18D
  3
ACAD_SORTENTS
360
188
  0
DICTIONARY
  5
1865
330
1864
100
AcDbDictionary
280
     1
281
     1
  3
ACAD_SORTENTS
360
1866
  0
DICTIONARY
  5
186D
330
186B
100
AcDbDictionary
280
     1
281
     1
  3
ACAD_SORTENTS
360
186E
  0
DICTIONARY
  5
7B5
102
{ACAD_REACTORS
330
C
102
}
330
C
100
AcDbDictionary
281
     1
  0
XRECORD
  5
1808
102
{ACAD_REACTORS
330
C
102
}
330
C
100
AcDbXrecord
280
     1
300
MAP
300
2012
300
MAP_F_S
  0
DICTIONARY
  5
73
102
{ACAD_REACTORS
330
C
102
}
330
C
100
AcDbDictionary
281
     1
  0
DICTIONARY
  5
D
102
{ACAD_REACTORS
330
C
102
}
330
C
100
AcDbDictionary
281
     1
  0
DICTIONARY
  5
1A
102
{ACAD_REACTORS
330
C
102
}
330
C
100
AcDbDictionary
281
     1
  3
Layout1
350
59
  3
Layout2
350
5E
  3
Model
350
22
  0
DICTIONARY
  5
72
102
{ACAD_REACTORS
330
C
102
}
330
C
100
AcDbDictionary
281
     1
  3
ByBlock
350
97
  3
ByLayer
350
96
  3
Global
350
98
  0
DICTIONARY
  5
D7
102
{ACAD_REACTORS
330
C
102
}
330
C
100
AcDbDictionary
281
     1
  3
Netafim Detail
350
813
  3
Standard
350
D8
  0
DICTIONARY
  5
17
102
{ACAD_REACTORS
330
C
102
}
330
C
100
AcDbDictionary
281
     1
  3
Standard
350
18
  0
DICTIONARY
  5
19
102
{ACAD_REACTORS
330
C
102
}
330
C
100
AcDbDictionary
281
     1
  0
ACDBDICTIONARYWDFLT
  5
E
102
{ACAD_REACTORS
330
C
102
}
330
C
100
AcDbDictionary
281
     1
  3
Normal
350
F
100
AcDbDictionaryWithDefault
340
F
  0
DICTIONARY
  5
B6
102
{ACAD_REACTORS
330
C
102
}
330
C
100
AcDbDictionary
281
     1
  3
A0
350
B7
  3
A1
350
124
  3
A2
350
125
  3
A3
350
126
  3
A4
350
127
  3
A5
350
128
  3
A6
350
129
  3
A7
350
12A
  3
A8
350
12B
  3
A9
350
12C
  3
B0
350
12D
  3
B1
350
12E
  3
B2
350
12F
  3
B3
350
130
  3
B4
350
131
  3
B5
350
132
  3
B6
350
133
  3
B7
350
134
  3
B8
350
135
  3
B9
350
136
  3
C0
350
137
  3
C1
350
138
  3
C2
350
139
  3
C3
350
13A
  3
C4
350
13B
  3
C5
350
13C
  3
C6
350
13D
  3
C7
350
13E
  3
C8
350
13F
  3
C9
350
140
  3
D0
350
141
  3
D1
350
142
  3
D2
350
143
  0
DICTIONARY
  5
86
102
{ACAD_REACTORS
330
C
102
}
330
C
100
AcDbDictionary
281
     1
  3
Legend
350
181
  3
Standard
350
87
  0
DICTIONARY
  5
99
102
{ACAD_REACTORS
330
C
102
}
330
C
100
AcDbDictionary
281
     1
  3
2dWireframe
350
9F
  3
3D Hidden
350
A1
  3
3dWireframe
350
A0
  3
Basic
350
9E
  3
Brighten
350
A5
  3
ColorChange
350
A9
  3
Conceptual
350
A2
  3
Dim
350
A4
  3
EdgeColorOff
350
175
  3
Facepattern
350
A8
  3
Flat
350
9A
  3
FlatWithEdges
350
9B
  3
Gouraud
350
9C
  3
GouraudWithEdges
350
9D
  3
Hidden
350
1AE
  3
JitterOff
350
173
  3
Linepattern
350
A7
  3
OverhangOff
350
174
  3
Realistic
350
A3
  3
Shaded
350
1B1
  3
Shaded with edges
350
1B4
  3
Shades of Gray
350
1B7
  3
Sketchy
350
1BA
  3
Thicken
350
A6
  3
Wireframe
350
1BD
  3
X-Ray
350
1C0
  0
XRECORD
  5
CC8
102
{ACAD_REACTORS
330
C
102
}
330
C
100
AcDbXrecord
280
     1
 90
   990106
 72
     0
 63
     1
  0
XRECORD
  5
1913
102
{ACAD_REACTORS
330
C
102
}
330
C
100
AcDbXrecord
280
     1
 90
        1
330
87
330
181
330
1868
  0
DICTIONARY
  5
66
102
{ACAD_REACTORS
330
C
102
}
330
C
100
AcDbDictionary
281
     1
  3
CANNOSCALE
350
F0
  3
CMLEADERSTYLE
350
EF
  3
CTABLESTYLE
350
89
  3
DIMASSOC
350
67
  3
EXPORTMODELSPACE
350
1877
  3
HIDETEXT
350
6B
  3
LAYEREVAL
350
14D
  3
LAYERNOTIFY
350
14E
  3
LIGHTINGUNITS
350
6D8
  3
MSLTSCALE
350
18CA
  3
STEPSIZE
350
18CB
  3
XCLIPFRAME
350
18D8
  0
DICTIONARY
  5
18F
102
{ACAD_REACTORS
330
C
102
}
330
C
100
AcDbDictionary
281
     1
  3
_CurrQry
350
1909
  0
DICTIONARY
  5
1871
102
{ACAD_REACTORS
330
C
102
}
330
C
100
AcDbDictionary
281
     1
  0
DICTIONARY
  5
1FA
102
{ACAD_REACTORS
330
C
102
}
330
C
100
AcDbDictionary
281
     1
  3
ASEBlockHierarchyIndexRecord
350
1FB
1001
DCO15
1040
1758262408.809
  0
DICTIONARY
  5
179
102
{ACAD_REACTORS
330
C
102
}
330
C
100
AcDbDictionary
281
     1
  3
AcMapDMStylizedEntities
350
189
  3
FSD_Dictionary
350
18A
  3
MAP_DISPLAY_CUSTOMOBJ_REG_TABLE
350
17D
  3
MAP_DISPLAY_MANAGEMENT_DICTIONARY
350
17A
  3
MAP_DISPLAY_STYLELIBRARY_DICTIONARY
350
17B
  3
MAP_RESOURCE_VERSION_MANAGEMENT_DICTIONARY
350
17E
1001
MapGWS
1000
D:\ProgramData\Autodesk\AutoCAD Map 3D 2010\R18.0\MapCache\RW101-Techline_END_FEED_LAYOUTGWS1344881885.xml
  0
DICTIONARY
  5
20D
102
{ACAD_REACTORS
330
20C
102
}
330
20C
100
AcDbDictionary
281
     1
  3
DETAILS
350
CBC
  0
GEODATA
  5
18D
102
{ACAD_REACTORS
330
15D
102
}
330
15D
100
AcDbGeoData
 90
        1
 70
     0
330
1F
 40
37.795
 41
-122.394
 42
0.0
 91
        6
 10
0.0
 20
0.0
 30
0.0
 11
0.0
 21
0.0
 31
0.0
210
0.0
220
0.0
230
1.0
 52
0.0
 43
1.0
 44
1.0
 45
1.0
301

302
<georss:point>37.7950 -122.3940</georss:point>
 46
1.0
303

304

305

306

307

 93
        0
 96
        0
  3
CIVIL3D_DATA_BEGIN
292
     0
 14
-122.394
 24
37.795
 15
-122.394
 25
37.795
 93
        0
 94
        0
293
     0
 16
0.0
 26
0.0
 17
0.0
 27
0.0
 54
0.0
140
0.0
 95
        3
141
1.0
294
     0
142
0.0
143
0.0
  4
CIVIL3D_DATA_END
  0
SORTENTSTABLE
  5
188
102
{ACAD_REACTORS
330
15D
102
}
330
15D
100
AcDbSortentsTable
330
1F
331
A80
  5
A80
331
AA8
  5
AA8
331
A7D
  5
A7D
331
A9D
  5
A9D
331
A55
  5
A55
331
A68
  5
A68
331
A5D
  5
A5D
331
A88
  5
A88
331
A48
  5
A48
331
CCB
  5
EAD
331
A90
  5
A90
331
A3D
  5
A3D
331
A65
  5
A65
331
A70
  5
A70
331
AA3
  5
AA3
331
A50
  5
A50
331
A78
  5
A78
331
A98
  5
A98
331
A45
  5
A45
331
A83
  5
A83
331
AAB
  5
AAB
331
A58
  5
A58
331
A6B
  5
A6B
331
A60
  5
A60
331
A8B
  5
A8B
331
A4B
  5
A4B
331
CCE
  5
EAE
331
A93
  5
A93
331
A40
  5
A40
331
A73
  5
A73
331
AA6
  5
AA6
331
A7B
  5
A7B
331
A9B
  5
A9B
331
A53
  5
A53
331
A5B
  5
A5B
331
A86
  5
A86
331
A6E
  5
A6E
331
A8E
  5
A8E
331
A63
  5
A63
331
AA1
  5
AA1
331
A4E
  5
A4E
331
A76
  5
A76
331
A96
  5
A96
331
A43
  5
A43
331
A81
  5
A81
331
AA9
  5
AA9
331
A7E
  5
A7E
331
A9E
  5
A9E
331
A56
  5
A56
331
A69
  5
A69
331
A89
  5
A89
331
A5E
  5
A5E
331
9F6
  5
9F6
331
A49
  5
A49
331
A91
  5
A91
331
A3E
  5
A3E
331
A66
  5
A66
331
A71
  5
A71
331
A51
  5
A51
331
A79
  5
A79
331
A99
  5
A99
331
A46
  5
A46
331
AA4
  5
AA4
331
A84
  5
A84
331
AAC
  5
AAC
331
A59
  5
A59
331
A6C
  5
A6C
331
A8C
  5
A8C
331
A61
  5
A61
331
A4C
  5
A4C
331
A94
  5
A94
331
A41
  5
A41
331
A74
  5
A74
331
AA7
  5
AA7
331
A7C
  5
A7C
331
A9C
  5
A9C
331
A54
  5
A54
331
A5C
  5
A5C
331
A87
  5
A87
331
A6F
  5
A6F
331
A8F
  5
A8F
331
A64
  5
A64
331
AA2
  5
AA2
331
A4F
  5
A4F
331
A77
  5
A77
331
A97
  5
A97
331
A44
  5
A44
331
A82
  5
A82
331
AAA
  5
AAA
331
A57
  5
A57
331
A9F
  5
A9F
331
A7F
  5
A7F
331
A6A
  5
A6A
331
A8A
  5
A8A
331
A5F
  5
A5F
331
9F7
  5
9F7
331
A4A
  5
A4A
331
A92
  5
A92
331
A67
  5
A67
331
A72
  5
A72
331
AA5
  5
AA5
331
A7A
  5
A7A
331
A9A
  5
A9A
331
A47
  5
A47
331
A52
  5
A52
331
A85
  5
A85
331
AAD
  5
AAD
331
A5A
  5
A5A
331
A6D
  5
A6D
331
A8D
  5
A8D
331
A62
  5
A62
331
AA0
  5
AA0
331
A4D
  5
A4D
331
A75
  5
A75
331
A42
  5
A42
331
A95
  5
A95
  0
SORTENTSTABLE
  5
1866
102
{ACAD_REACTORS
330
1865
102
}
330
1865
100
AcDbSortentsTable
330
1864
  0
SORTENTSTABLE
  5
186E
102
{ACAD_REACTORS
330
186D
102
}
330
186D
100
AcDbSortentsTable
330
186B
  0
LAYOUT
  5
59
102
{ACAD_REACTORS
330
1A
102
}
330
1A
100
AcDbPlotSettings
  1

  2
None
  4

  6

 40
0.0
 41
0.0
 42
0.0
 43
0.0
 44
0.0
 45
0.0
 46
0.0
 47
0.0
 48
0.0
 49
0.0
140
0.0
141
0.0
142
1.0
143
1.0
 70
   688
 72
     0
 73
     0
 74
     5
  7
NETAFIM.ctb
 75
    16
147
1.0
 76
     0
 77
     2
 78
   300
148
0.0
149
0.0
100
AcDbLayout
  1
Layout1
 70
     1
 71
     1
 10
0.0
 20
0.0
 11
12.0
 21
9.0
 12
0.0
 22
0.0
 32
0.0
 14
0.0
 24
0.0
 34
0.0
 15
0.0
 25
0.0
 35
0.0
146
0.0
 13
0.0
 23
0.0
 33
0.0
 16
1.0
 26
0.0
 36
0.0
 17
0.0
 27
1.0
 37
0.0
 76
     0
330
58
  0
LAYOUT
  5
5E
102
{ACAD_REACTORS
330
1A
102
}
330
1A
100
AcDbPlotSettings
  1

  2
None
  4

  6

 40
0.0
 41
0.0
 42
0.0
 43
0.0
 44
0.0
 45
0.0
 46
0.0
 47
0.0
 48
0.0
 49
0.0
140
0.0
141
0.0
142
1.0
143
1.0
 70
   688
 72
     0
 73
     0
 74
     5
  7
NETAFIM.ctb
 75
    16
147
1.0
 76
     0
 77
     2
 78
   300
148
0.0
149
0.0
100
AcDbLayout
  1
Layout2
 70
     1
 71
     2
 10
0.0
 20
0.0
 11
12.0
 21
9.0
 12
0.0
 22
0.0
 32
0.0
 14
0.0
 24
0.0
 34
0.0
 15
0.0
 25
0.0
 35
0.0
146
0.0
 13
0.0
 23
0.0
 33
0.0
 16
1.0
 26
0.0
 36
0.0
 17
0.0
 27
1.0
 37
0.0
 76
     0
330
5D
  0
LAYOUT
  5
22
102
{ACAD_XDICTIONARY
360
74D
102
}
102
{ACAD_REACTORS
330
1A
102
}
330
1A
100
AcDbPlotSettings
  1

  2
Adobe PDF
  4
Letter
  6

 40
3.174999952316284
 41
3.174999952316284
 42
3.175003051757812
 43
3.17498779296875
 44
215.8999938964844
 45
279.3999938964844
 46
14.28342595487883
 47
14.05171083108343
 48
0.0
 49
0.0
140
0.0
141
0.0
142
1.0
143
1.0
 70
 11940
 72
     0
 73
     1
 74
     1
  7
NETAFIM.ctb
 75
     0
147
1.114821682492221
 76
     0
 77
     2
 78
   300
148
0.0193149422625119
149
-0.0279058057208374
100
AcDbLayout
  1
Model
 70
     1
 71
     0
 10
0.0
 20
0.0
 11
12.0
 21
9.0
 12
0.0
 22
0.0
 32
0.0
 14
0.0
 24
0.0
 34
0.0
 15
0.0
 25
0.0
 35
0.0
146
0.0
 13
0.0
 23
0.0
 33
0.0
 16
1.0
 26
0.0
 36
0.0
 17
0.0
 27
1.0
 37
0.0
 76
     0
330
1F
331
94
1001
ACAD_PSEXT
1000
Adobe PDF
1000
Adobe PDF Converter
1000
Documents\*.pdf
1000

1070
     0
  0
MATERIAL
  5
97
102
{ACAD_XDICTIONARY
360
1917
102
}
102
{ACAD_REACTORS
330
72
102
}
330
72
100
AcDbMaterial
  1
ByBlock
  0
MATERIAL
  5
96
102
{ACAD_XDICTIONARY
360
1915
102
}
102
{ACAD_REACTORS
330
72
102
}
330
72
100
AcDbMaterial
  1
ByLayer
  0
MATERIAL
  5
98
102
{ACAD_XDICTIONARY
360
110
102
}
102
{ACAD_REACTORS
330
72
102
}
330
72
100
AcDbMaterial
  1
Global
 43
0.0208000000566244
 43
0.0
 43
0.0
 43
0.0
 43
0.0
 43
0.0208000000566244
 43
0.0
 43
0.0
 43
0.0
 43
0.0
 43
1.0
 43
0.0
 43
0.0
 43
0.0
 43
0.0
 43
1.0
 49
0.0208000000566244
 49
0.0
 49
0.0
 49
0.0
 49
0.0
 49
0.0208000000566244
 49
0.0
 49
0.0
 49
0.0
 49
0.0
 49
1.0
 49
0.0
 49
0.0
 49
0.0
 49
0.0
 49
1.0
142
0.0208000000566244
142
0.0
142
0.0
142
0.0
142
0.0
142
0.0208000000566244
142
0.0
142
0.0
142
0.0
142
0.0
142
1.0
142
0.0
142
0.0
142
0.0
142
0.0
142
1.0
144
0.0208000000566244
144
0.0
144
0.0
144
0.0
144
0.0
144
0.0208000000566244
144
0.0
144
0.0
144
0.0
144
0.0
144
1.0
144
0.0
144
0.0
144
0.0
144
0.0
144
1.0
1001
ACAD
1070
    -1
1070
     3
1070
     0
1000

1071
        0
1070
     0
  0
MLEADERSTYLE
  5
813
102
{ACAD_REACTORS
330
D7
330
AA7
330
AA8
330
AA9
330
AAA
330
AAB
330
AAC
330
AAD
330
CCB
330
CCE
330
17F5
330
17F6
102
}
330
D7
100
AcDbMLeaderStyle
170
     2
171
     1
172
     0
 90
        2
 40
0.0
 41
0.0
173
     1
 91
-1056964608
340
14
 92
       -2
290
     1
 42
0.09
291
     1
 43
0.36
  3
Standard
 44
0.12
300

342
810
174
     1
178
     1
175
     1
176
     0
 93
-1056964608
 45
0.09
292
     0
297
     0
 46
0.18
 94
-1056964608
 47
1.0
 49
1.0
140
1.0
293
     1
141
0.0
294
     1
177
     0
142
1.0
295
     0
296
     0
143
0.125
1001
ACAD_MLEADERVER
1070
     2
  0
MLEADERSTYLE
  5
D8
102
{ACAD_REACTORS
330
D7
102
}
330
D7
100
AcDbMLeaderStyle
170
     2
171
     1
172
     0
 90
        2
 40
0.0
 41
0.0
173
     1
 91
-1056964608
340
14
 92
       -2
290
     1
 42
0.09
291
     1
 43
0.36
  3
Standard
 44
0.18
300

342
11
174
     1
178
     1
175
     1
176
     0
 93
-1056964608
 45
0.18
292
     0
297
     0
 46
0.18
 94
-1056964608
 47
1.0
 49
1.0
140
1.0
293
     1
141
0.0
294
     1
177
     0
142
1.0
295
     0
296
     0
143
0.125
1001
ACAD_MLEADERVER
1070
     2
  0
MLINESTYLE
  5
18
102
{ACAD_REACTORS
330
17
102
}
330
17
100
AcDbMlineStyle
  2
STANDARD
 70
     0
  3

 62
   256
 51
90.0
 52
90.0
 71
     2
 49
0.5
 62
   256
  6
BYLAYER
 49
-0.5
 62
   256
  6
BYLAYER
  0
ACDBPLACEHOLDER
  5
F
102
{ACAD_REACTORS
330
E
102
}
330
E
  0
SCALE
  5
B7
102
{ACAD_REACTORS
330
B6
102
}
330
B6
100
AcDbScale
 70
     0
300
1:1
140
1.0
141
1.0
290
     1
  0
SCALE
  5
124
102
{ACAD_REACTORS
330
B6
102
}
330
B6
100
AcDbScale
 70
     0
300
1:2
140
1.0
141
2.0
290
     0
  0
SCALE
  5
125
102
{ACAD_REACTORS
330
B6
102
}
330
B6
100
AcDbScale
 70
     0
300
1:4
140
1.0
141
4.0
290
     0
  0
SCALE
  5
126
102
{ACAD_REACTORS
330
B6
102
}
330
B6
100
AcDbScale
 70
     0
300
1:5
140
1.0
141
5.0
290
     0
  0
SCALE
  5
127
102
{ACAD_REACTORS
330
B6
102
}
330
B6
100
AcDbScale
 70
     0
300
1:8
140
1.0
141
8.0
290
     0
  0
SCALE
  5
128
102
{ACAD_REACTORS
330
B6
102
}
330
B6
100
AcDbScale
 70
     0
300
1:10
140
1.0
141
10.0
290
     0
  0
SCALE
  5
129
102
{ACAD_REACTORS
330
B6
102
}
330
B6
100
AcDbScale
 70
     0
300
1:16
140
1.0
141
16.0
290
     0
  0
SCALE
  5
12A
102
{ACAD_REACTORS
330
B6
102
}
330
B6
100
AcDbScale
 70
     0
300
1:20
140
1.0
141
20.0
290
     0
  0
SCALE
  5
12B
102
{ACAD_REACTORS
330
B6
102
}
330
B6
100
AcDbScale
 70
     0
300
1:30
140
1.0
141
30.0
290
     0
  0
SCALE
  5
12C
102
{ACAD_REACTORS
330
B6
102
}
330
B6
100
AcDbScale
 70
     0
300
1:40
140
1.0
141
40.0
290
     0
  0
SCALE
  5
12D
102
{ACAD_REACTORS
330
B6
102
}
330
B6
100
AcDbScale
 70
     0
300
1:50
140
1.0
141
50.0
290
     0
  0
SCALE
  5
12E
102
{ACAD_REACTORS
330
B6
102
}
330
B6
100
AcDbScale
 70
     0
300
1:100
140
1.0
141
100.0
290
     0
  0
SCALE
  5
12F
102
{ACAD_REACTORS
330
B6
102
}
330
B6
100
AcDbScale
 70
     0
300
2:1
140
2.0
141
1.0
290
     0
  0
SCALE
  5
130
102
{ACAD_REACTORS
330
B6
102
}
330
B6
100
AcDbScale
 70
     0
300
4:1
140
4.0
141
1.0
290
     0
  0
SCALE
  5
131
102
{ACAD_REACTORS
330
B6
102
}
330
B6
100
AcDbScale
 70
     0
300
8:1
140
8.0
141
1.0
290
     0
  0
SCALE
  5
132
102
{ACAD_REACTORS
330
B6
102
}
330
B6
100
AcDbScale
 70
     0
300
10:1
140
10.0
141
1.0
290
     0
  0
SCALE
  5
133
102
{ACAD_REACTORS
330
B6
102
}
330
B6
100
AcDbScale
 70
     0
300
100:1
140
100.0
141
1.0
290
     0
  0
SCALE
  5
134
102
{ACAD_REACTORS
330
B6
102
}
330
B6
100
AcDbScale
 70
     0
300
1/128" = 1'-0"
140
0.0078125
141
12.0
290
     0
  0
SCALE
  5
135
102
{ACAD_REACTORS
330
B6
102
}
330
B6
100
AcDbScale
 70
     0
300
1/64" = 1'-0"
140
0.015625
141
12.0
290
     0
  0
SCALE
  5
136
102
{ACAD_REACTORS
330
B6
102
}
330
B6
100
AcDbScale
 70
     0
300
1/32" = 1'-0"
140
0.03125
141
12.0
290
     0
  0
SCALE
  5
137
102
{ACAD_REACTORS
330
B6
102
}
330
B6
100
AcDbScale
 70
     0
300
1/16" = 1'-0"
140
0.0625
141
12.0
290
     0
  0
SCALE
  5
138
102
{ACAD_REACTORS
330
B6
102
}
330
B6
100
AcDbScale
 70
     0
300
3/32" = 1'-0"
140
0.09375
141
12.0
290
     0
  0
SCALE
  5
139
102
{ACAD_REACTORS
330
B6
102
}
330
B6
100
AcDbScale
 70
     0
300
1/8" = 1'-0"
140
0.125
141
12.0
290
     0
  0
SCALE
  5
13A
102
{ACAD_REACTORS
330
B6
102
}
330
B6
100
AcDbScale
 70
     0
300
3/16" = 1'-0"
140
0.1875
141
12.0
290
     0
  0
SCALE
  5
13B
102
{ACAD_REACTORS
330
B6
102
}
330
B6
100
AcDbScale
 70
     0
300
1/4" = 1'-0"
140
0.25
141
12.0
290
     0
  0
SCALE
  5
13C
102
{ACAD_REACTORS
330
B6
102
}
330
B6
100
AcDbScale
 70
     0
300
3/8" = 1'-0"
140
0.375
141
12.0
290
     0
  0
SCALE
  5
13D
102
{ACAD_REACTORS
330
B6
102
}
330
B6
100
AcDbScale
 70
     0
300
1/2" = 1'-0"
140
0.5
141
12.0
290
     0
  0
SCALE
  5
13E
102
{ACAD_REACTORS
330
B6
102
}
330
B6
100
AcDbScale
 70
     0
300
3/4" = 1'-0"
140
0.75
141
12.0
290
     0
  0
SCALE
  5
13F
102
{ACAD_REACTORS
330
B6
102
}
330
B6
100
AcDbScale
 70
     0
300
1" = 1'-0"
140
1.0
141
12.0
290
     0
  0
SCALE
  5
140
102
{ACAD_REACTORS
330
B6
102
}
330
B6
100
AcDbScale
 70
     0
300
1-1/2" = 1'-0"
140
1.5
141
12.0
290
     0
  0
SCALE
  5
141
102
{ACAD_REACTORS
330
B6
102
}
330
B6
100
AcDbScale
 70
     0
300
3" = 1'-0"
140
3.0
141
12.0
290
     0
  0
SCALE
  5
142
102
{ACAD_REACTORS
330
B6
102
}
330
B6
100
AcDbScale
 70
     0
300
6" = 1'-0"
140
6.0
141
12.0
290
     0
  0
SCALE
  5
143
102
{ACAD_REACTORS
330
B6
102
}
330
B6
100
AcDbScale
 70
     0
300
1'-0" = 1'-0"
140
12.0
141
12.0
290
     0
  0
TABLESTYLE
  5
181
102
{ACAD_XDICTIONARY
360
1898
102
}
102
{ACAD_REACTORS
330
86
102
}
330
86
100
AcDbTableStyle
  3

 70
     0
 71
     3
 40
0.06
 41
0.06
280
     0
281
     0
  7
Legend
140
0.4
170
     4
 62
     0
 63
     7
283
     0
274
    -2
284
     0
 64
     0
275
    -2
285
     0
 65
     0
276
    -2
286
     0
 66
     0
277
    -2
287
     0
 67
     0
278
    -2
288
     0
 68
     0
279
    -2
289
     0
 69
     0
  7
Legend
140
0.5
170
     5
 62
     0
 63
     7
283
     0
274
    -2
284
     0
 64
     0
275
    -2
285
     0
 65
     0
276
    -2
286
     0
 66
     0
277
    -2
287
     0
 67
     0
278
    -2
288
     0
 68
     0
279
    -2
289
     0
 69
     0
  7
Legend
140
0.4
170
     4
 62
     0
 63
     7
283
     0
274
    -2
284
     0
 64
     0
275
    -2
285
     0
 65
     0
276
    -2
286
     0
 66
     0
277
    -2
287
     0
 67
     0
278
    -2
288
     0
 68
     0
279
    -2
289
     0
 69
     0
  0
TABLESTYLE
  5
87
102
{ACAD_XDICTIONARY
360
104
102
}
102
{ACAD_REACTORS
330
86
102
}
330
86
100
AcDbTableStyle
  3
Standard
 70
     0
 71
     0
 40
0.06
 41
0.06
280
     0
281
     0
  7
Standard
140
0.18
170
     2
 62
     0
 63
     7
283
     0
274
    -2
284
     1
 64
     0
275
    -2
285
     1
 65
     0
276
    -2
286
     1
 66
     0
277
    -2
287
     1
 67
     0
278
    -2
288
     1
 68
     0
279
    -2
289
     1
 69
     0
  7
Standard
140
0.25
170
     5
 62
     0
 63
     7
283
     0
274
    -2
284
     1
 64
     0
275
    -2
285
     1
 65
     0
276
    -2
286
     1
 66
     0
277
    -2
287
     1
 67
     0
278
    -2
288
     1
 68
     0
279
    -2
289
     1
 69
     0
  7
Standard
140
0.18
170
     5
 62
     0
 63
     7
283
     0
274
    -2
284
     1
 64
     0
275
    -2
285
     1
 65
     0
276
    -2
286
     1
 66
     0
277
    -2
287
     1
 67
     0
278
    -2
288
     1
 68
     0
279
    -2
289
     1
 69
     0
  0
VISUALSTYLE
  5
9F
102
{ACAD_XDICTIONARY
360
1924
102
}
102
{ACAD_REACTORS
330
99
102
}
330
99
100
AcDbVisualStyle
  2
2dWireframe
 70
     4
 71
     0
 72
     2
 73
     1
 90
        0
 40
-0.6
 41
-30.0
 62
     5
 63
     7
421
 16777215
 74
     1
 91
        4
 64
     7
 65
   257
 75
     1
175
     1
 42
1.0
 92
        0
 66
   257
 43
1.0
 76
     1
 77
     6
 78
     2
 67
     7
 79
     5
170
     0
171
     0
290
     0
174
     0
 93
        1
 44
0.0
173
     0
291
     0
 45
0.0
1001
ACAD
1000
AcDbSavedByObjectVersion
1070
     0
  0
VISUALSTYLE
  5
A1
102
{ACAD_XDICTIONARY
360
1928
102
}
102
{ACAD_REACTORS
330
99
102
}
330
99
100
AcDbVisualStyle
  2
3D Hidden
 70
     6
 71
     1
 72
     2
 73
     2
 90
        0
 40
-0.6
 41
-30.0
 62
     5
 63
     7
421
 16777215
 74
     2
 91
        2
 64
     7
 65
   257
 75
     2
175
     1
 42
40.0
 92
        0
 66
   257
 43
1.0
 76
     1
 77
     6
 78
     2
 67
     7
 79
     3
170
     0
171
     0
290
     0
174
     0
 93
        1
 44
0.0
173
     0
291
     0
 45
0.0
1001
ACAD
1000
AcDbSavedByObjectVersion
1070
     0
  0
VISUALSTYLE
  5
A0
102
{ACAD_XDICTIONARY
360
1926
102
}
102
{ACAD_REACTORS
330
99
102
}
330
99
100
AcDbVisualStyle
  2
3dWireframe
 70
     5
 71
     0
 72
     2
 73
     1
 90
        0
 40
-0.6
 41
-30.0
 62
     5
 63
     7
421
 16777215
 74
     1
 91
        4
 64
     7
 65
   257
 75
     1
175
     1
 42
1.0
 92
        0
 66
   257
 43
1.0
 76
     1
 77
     6
 78
     2
 67
     7
 79
     5
170
     0
171
     0
290
     0
174
     0
 93
        1
 44
0.0
173
     0
291
     0
 45
0.0
1001
ACAD
1000
AcDbSavedByObjectVersion
1070
     0
  0
VISUALSTYLE
  5
9E
102
{ACAD_XDICTIONARY
360
1922
102
}
102
{ACAD_REACTORS
330
99
102
}
330
99
100
AcDbVisualStyle
  2
Basic
 70
     7
 71
     1
 72
     0
 73
     1
 90
        0
 40
-0.6
 41
-30.0
 62
     5
 63
     7
421
 16777215
 74
     0
 91
        4
 64
     7
 65
   257
 75
     1
175
     1
 42
1.0
 92
        8
 66
     7
 43
1.0
 76
     1
 77
     6
 78
     2
 67
     7
 79
     5
170
     0
171
     0
290
     0
174
     0
 93
        1
 44
0.0
173
     0
291
     1
 45
0.0
1001
ACAD
1000
AcDbSavedByObjectVersion
1070
     0
  0
VISUALSTYLE
  5
A5
102
{ACAD_XDICTIONARY
360
1930
102
}
102
{ACAD_REACTORS
330
99
102
}
330
99
100
AcDbVisualStyle
  2
Brighten
 70
    12
 71
     2
 72
     2
 73
     1
 90
        0
 40
-0.6
 41
-30.0
 62
     5
 63
     7
421
 16777215
 74
     1
 91
        4
 64
     7
 65
   257
 75
     1
175
     1
 42
1.0
 92
        8
 66
     7
 43
1.0
 76
     1
 77
     6
 78
     2
 67
     7
 79
     5
170
     0
171
     0
290
     0
174
     0
 93
        1
 44
50.0
173
     0
291
     1
 45
0.0
1001
ACAD
1000
AcDbSavedByObjectVersion
1070
     0
  0
VISUALSTYLE
  5
A9
102
{ACAD_XDICTIONARY
360
1938
102
}
102
{ACAD_REACTORS
330
99
102
}
330
99
100
AcDbVisualStyle
  2
ColorChange
 70
    16
 71
     2
 72
     2
 73
     3
 90
        0
 40
-0.6
 41
-30.0
 62
     5
 63
     8
421
  8421504
 74
     1
 91
        4
 64
     7
 65
   257
 75
     1
175
     1
 42
1.0
 92
        8
 66
     8
424
  8421504
 43
1.0
 76
     1
 77
     6
 78
     2
 67
     7
 79
     5
170
     0
171
     0
290
     0
174
     0
 93
        1
 44
0.0
173
     0
291
     1
 45
0.0
1001
ACAD
1000
AcDbSavedByObjectVersion
1070
     0
  0
VISUALSTYLE
  5
A2
102
{ACAD_XDICTIONARY
360
192A
102
}
102
{ACAD_REACTORS
330
99
102
}
330
99
100
AcDbVisualStyle
  2
Conceptual
 70
     9
 71
     3
 72
     2
 73
     1
 90
        0
 40
-0.6
 41
-30.0
 62
     5
 63
     7
421
 16777215
 74
     2
 91
        2
 64
     7
 65
   257
 75
     1
175
     1
 42
40.0
 92
        8
 66
     7
 43
1.0
 76
     1
 77
     6
 78
     2
 67
     7
 79
     3
170
     0
171
     0
290
     0
174
     0
 93
        1
 44
0.0
173
     0
291
     0
 45
0.0
1001
ACAD
1000
AcDbSavedByObjectVersion
1070
     0
  0
VISUALSTYLE
  5
A4
102
{ACAD_XDICTIONARY
360
192E
102
}
102
{ACAD_REACTORS
330
99
102
}
330
99
100
AcDbVisualStyle
  2
Dim
 70
    11
 71
     2
 72
     2
 73
     1
 90
        0
 40
-0.6
 41
-30.0
 62
     5
 63
     7
421
 16777215
 74
     1
 91
        4
 64
     7
 65
   257
 75
     1
175
     1
 42
1.0
 92
        8
 66
     7
 43
1.0
 76
     1
 77
     6
 78
     2
 67
     7
 79
     5
170
     0
171
     0
290
     0
174
     0
 93
        1
 44
-50.0
173
     0
291
     1
 45
0.0
1001
ACAD
1000
AcDbSavedByObjectVersion
1070
     0
  0
VISUALSTYLE
  5
175
102
{ACAD_XDICTIONARY
360
193E
102
}
102
{ACAD_REACTORS
330
99
102
}
330
99
100
AcDbVisualStyle
  2
EdgeColorOff
 70
    22
 71
     2
 72
     2
 73
     0
 90
        0
 40
-0.6
 41
-30.0
 62
     5
 63
     7
421
 16777215
 74
     1
 91
        4
 64
     7
 65
   257
 75
     1
175
     1
 42
1.0
 92
        8
 66
     7
 43
1.0
 76
     1
 77
     6
 78
     2
 67
     7
 79
     5
170
     0
171
     0
290
     0
174
     0
 93
        1
 44
0.0
173
     0
291
     1
 45
0.0
1001
ACAD
1000
AcDbSavedByObjectVersion
1070
     0
  0
VISUALSTYLE
  5
A8
102
{ACAD_XDICTIONARY
360
1936
102
}
102
{ACAD_REACTORS
330
99
102
}
330
99
100
AcDbVisualStyle
  2
Facepattern
 70
    15
 71
     2
 72
     2
 73
     1
 90
        0
 40
-0.6
 41
-30.0
 62
     5
 63
     7
421
 16777215
 74
     1
 91
        4
 64
     7
 65
   257
 75
     1
175
     1
 42
1.0
 92
        8
 66
     7
 43
1.0
 76
     1
 77
     6
 78
     2
 67
     7
 79
     5
170
     0
171
     0
290
     0
174
     0
 93
        1
 44
0.0
173
     0
291
     1
 45
0.0
1001
ACAD
1000
AcDbSavedByObjectVersion
1070
     0
  0
VISUALSTYLE
  5
9A
102
{ACAD_XDICTIONARY
360
191A
102
}
102
{ACAD_REACTORS
330
99
102
}
330
99
100
AcDbVisualStyle
  2
Flat
 70
     0
 71
     2
 72
     1
 73
     1
 90
        2
 40
-0.6
 41
30.0
 62
     5
 63
     7
421
 16777215
 74
     0
 91
        4
 64
     7
 65
   257
 75
     1
175
     1
 42
1.0
 92
        8
 66
     7
 43
1.0
 76
     1
 77
     6
 78
     2
 67
     7
 79
     5
170
     0
171
     0
290
     0
174
     0
 93
        1
 44
0.0
173
     0
291
     1
 45
0.0
1001
ACAD
1000
AcDbSavedByObjectVersion
1070
     0
  0
VISUALSTYLE
  5
9B
102
{ACAD_XDICTIONARY
360
191C
102
}
102
{ACAD_REACTORS
330
99
102
}
330
99
100
AcDbVisualStyle
  2
FlatWithEdges
 70
     1
 71
     2
 72
     1
 73
     1
 90
        2
 40
-0.6
 41
30.0
 62
     5
 63
     7
421
 16777215
 74
     1
 91
        4
 64
     7
 65
   257
 75
     1
175
     1
 42
1.0
 92
        0
 66
   257
 43
1.0
 76
     1
 77
     6
 78
     2
 67
     7
 79
     5
170
     0
171
     0
290
     0
174
     0
 93
        1
 44
0.0
173
     0
291
     1
 45
0.0
1001
ACAD
1000
AcDbSavedByObjectVersion
1070
     0
  0
VISUALSTYLE
  5
9C
102
{ACAD_XDICTIONARY
360
191E
102
}
102
{ACAD_REACTORS
330
99
102
}
330
99
100
AcDbVisualStyle
  2
Gouraud
 70
     2
 71
     2
 72
     2
 73
     1
 90
        2
 40
-0.6
 41
30.0
 62
     5
 63
     7
421
 16777215
 74
     0
 91
        4
 64
     7
 65
   257
 75
     1
175
     1
 42
1.0
 92
        0
 66
     7
 43
1.0
 76
     1
 77
     6
 78
     2
 67
     7
 79
     5
170
     0
171
     0
290
     0
174
     0
 93
        1
 44
0.0
173
     0
291
     1
 45
0.0
1001
ACAD
1000
AcDbSavedByObjectVersion
1070
     0
  0
VISUALSTYLE
  5
9D
102
{ACAD_XDICTIONARY
360
1920
102
}
102
{ACAD_REACTORS
330
99
102
}
330
99
100
AcDbVisualStyle
  2
GouraudWithEdges
 70
     3
 71
     2
 72
     2
 73
     1
 90
        2
 40
-0.6
 41
30.0
 62
     5
 63
     7
421
 16777215
 74
     1
 91
        4
 64
     7
 65
   257
 75
     1
175
     1
 42
1.0
 92
        0
 66
   257
 43
1.0
 76
     1
 77
     6
 78
     2
 67
     7
 79
     5
170
     0
171
     0
290
     0
174
     0
 93
        1
 44
0.0
173
     0
291
     1
 45
0.0
1001
ACAD
1000
AcDbSavedByObjectVersion
1070
     0
  0
VISUALSTYLE
  5
1AE
102
{ACAD_XDICTIONARY
360
1AF
102
}
102
{ACAD_REACTORS
330
99
102
}
330
99
100
AcDbVisualStyle
  2
Hidden
 70
     6
 71
     1
 72
     2
 73
     2
 90
        0
 40
-0.6
 41
-30.0
 62
     5
 63
     7
421
 16777215
 74
     2
 91
        2
 64
     7
 65
   257
 75
     2
175
     1
 42
40.0
 92
        0
 66
   257
 43
1.0
 76
     1
 77
     6
 78
     2
 67
     7
 79
     3
170
     0
171
     0
290
     0
174
     0
 93
        1
 44
0.0
173
     0
291
     0
 45
0.0
1001
ACAD
1000
AcDbSavedByObjectVersion
1070
     0
  0
VISUALSTYLE
  5
173
102
{ACAD_XDICTIONARY
360
193A
102
}
102
{ACAD_REACTORS
330
99
102
}
330
99
100
AcDbVisualStyle
  2
JitterOff
 70
    20
 71
     2
 72
     2
 73
     0
 90
        0
 40
-0.6
 41
-30.0
 62
     5
 63
     7
421
 16777215
 74
     1
 91
        4
 64
     7
 65
   257
 75
     1
175
     1
 42
1.0
 92
       10
 66
     7
 43
1.0
 76
     1
 77
     6
 78
     2
 67
     7
 79
     5
170
     0
171
     0
290
     0
174
     0
 93
        1
 44
0.0
173
     0
291
     1
 45
0.0
1001
ACAD
1000
AcDbSavedByObjectVersion
1070
     0
  0
VISUALSTYLE
  5
A7
102
{ACAD_XDICTIONARY
360
1934
102
}
102
{ACAD_REACTORS
330
99
102
}
330
99
100
AcDbVisualStyle
  2
Linepattern
 70
    14
 71
     2
 72
     2
 73
     1
 90
        0
 40
-0.6
 41
-30.0
 62
     5
 63
     7
421
 16777215
 74
     1
 91
        4
 64
     7
 65
   257
 75
     7
175
     7
 42
1.0
 92
        8
 66
     7
 43
1.0
 76
     1
 77
     6
 78
     2
 67
     7
 79
     5
170
     0
171
     0
290
     0
174
     0
 93
        1
 44
0.0
173
     0
291
     1
 45
0.0
1001
ACAD
1000
AcDbSavedByObjectVersion
1070
     0
  0
VISUALSTYLE
  5
174
102
{ACAD_XDICTIONARY
360
193C
102
}
102
{ACAD_REACTORS
330
99
102
}
330
99
100
AcDbVisualStyle
  2
OverhangOff
 70
    21
 71
     2
 72
     2
 73
     0
 90
        0
 40
-0.6
 41
-30.0
 62
     5
 63
     7
421
 16777215
 74
     1
 91
        4
 64
     7
 65
   257
 75
     1
175
     1
 42
1.0
 92
        9
 66
     7
 43
1.0
 76
     1
 77
     6
 78
     2
 67
     7
 79
     5
170
     0
171
     0
290
     0
174
     0
 93
        1
 44
0.0
173
     0
291
     1
 45
0.0
1001
ACAD
1000
AcDbSavedByObjectVersion
1070
     0
  0
VISUALSTYLE
  5
A3
102
{ACAD_XDICTIONARY
360
192C
102
}
102
{ACAD_REACTORS
330
99
102
}
330
99
100
AcDbVisualStyle
  2
Realistic
 70
     8
 71
     2
 72
     2
 73
     1
 90
        0
 40
-0.6
 41
-30.0
 62
     5
 63
     7
421
 16777215
 74
     1
 91
        0
 64
     7
 65
   257
 75
     1
175
     1
 42
1.0
 92
        8
 66
     8
424
  7895160
 43
1.0
 76
     1
 77
     6
 78
     2
 67
     7
 79
     5
170
     0
171
     0
290
     0
174
     0
 93
       13
 44
0.0
173
     0
291
     0
 45
0.0
1001
ACAD
1000
AcDbSavedByObjectVersion
1070
     0
  0
VISUALSTYLE
  5
1B1
102
{ACAD_XDICTIONARY
360
1B2
102
}
102
{ACAD_REACTORS
330
99
102
}
330
99
100
AcDbVisualStyle
  2
Shaded
 70
    27
 71
     2
 72
     2
 73
     1
 90
        2
 40
-0.6
 41
30.0
 62
     5
 63
     7
421
 16777215
 74
     0
 91
        4
 64
     7
 65
   257
 75
     1
175
     1
 42
1.0
 92
        8
 66
   257
 43
1.0
 76
     1
 77
     6
 78
     2
 67
     8
425
  7895160
 79
     3
170
     0
171
     0
290
     0
174
     0
 93
        5
 44
0.0
173
     0
291
     0
 45
0.0
1001
ACAD
1000
AcDbSavedByObjectVersion
1070
     0
  0
VISUALSTYLE
  5
1B4
102
{ACAD_XDICTIONARY
360
1B5
102
}
102
{ACAD_REACTORS
330
99
102
}
330
99
100
AcDbVisualStyle
  2
Shaded with edges
 70
    26
 71
     2
 72
     2
 73
     1
 90
        2
 40
-0.6
 41
30.0
 62
     5
 63
     7
421
 16777215
 74
     1
 91
       10
 64
     7
 65
   257
 75
     2
175
     1
 42
1.0
 92
        8
 66
   257
 43
1.0
 76
     1
 77
     6
 78
     2
 67
     7
 79
     3
170
     0
171
     0
290
     0
174
     0
 93
        5
 44
0.0
173
     0
291
     0
 45
0.0
1001
ACAD
1000
AcDbSavedByObjectVersion
1070
     0
  0
VISUALSTYLE
  5
1B7
102
{ACAD_XDICTIONARY
360
1B8
102
}
102
{ACAD_REACTORS
330
99
102
}
330
99
100
AcDbVisualStyle
  2
Shades of Gray
 70
    23
 71
     2
 72
     2
 73
     3
 90
        0
 40
-0.6
 41
-30.0
 62
     5
 63
     7
421
 16777215
 74
     2
 91
        2
 64
     7
 65
     7
 75
     1
175
     1
 42
40.0
 92
        8
 66
     7
 43
1.0
 76
     1
 77
     6
 78
     2
 67
     7
 79
     3
170
     0
171
     0
290
     0
174
     0
 93
        1
 44
0.0
173
     0
291
     0
 45
0.0
1001
ACAD
1000
AcDbSavedByObjectVersion
1070
     0
  0
VISUALSTYLE
  5
1BA
102
{ACAD_XDICTIONARY
360
1BB
102
}
102
{ACAD_REACTORS
330
99
102
}
330
99
100
AcDbVisualStyle
  2
Sketchy
 70
    24
 71
     1
 72
     2
 73
     2
 90
        0
 40
-0.6
 41
-30.0
 62
     5
 63
     7
421
 16777215
 74
     2
 91
        2
 64
     7
 65
     7
 75
     1
175
     1
 42
40.0
 92
       11
 66
     7
 43
1.0
 76
     1
 77
     6
 78
     2
 67
     7
 79
     6
170
     0
171
     0
290
     0
174
     0
 93
        1
 44
0.0
173
     0
291
     0
 45
0.0
1001
ACAD
1000
AcDbSavedByObjectVersion
1070
     0
  0
VISUALSTYLE
  5
A6
102
{ACAD_XDICTIONARY
360
1932
102
}
102
{ACAD_REACTORS
330
99
102
}
330
99
100
AcDbVisualStyle
  2
Thicken
 70
    13
 71
     2
 72
     2
 73
     1
 90
        0
 40
-0.6
 41
-30.0
 62
     5
 63
     7
421
 16777215
 74
     1
 91
        4
 64
     7
 65
   257
 75
     1
175
     1
 42
1.0
 92
       12
 66
     7
 43
1.0
 76
     1
 77
     6
 78
     2
 67
     7
 79
     5
170
     0
171
     0
290
     0
174
     0
 93
        1
 44
0.0
173
     0
291
     1
 45
0.0
1001
ACAD
1000
AcDbSavedByObjectVersion
1070
     0
  0
VISUALSTYLE
  5
1BD
102
{ACAD_XDICTIONARY
360
1BE
102
}
102
{ACAD_REACTORS
330
99
102
}
330
99
100
AcDbVisualStyle
  2
Wireframe
 70
     5
 71
     0
 72
     2
 73
     0
 90
        0
 40
-0.6
 41
-30.0
 62
     5
 63
     7
421
 16777215
 74
     1
 91
        4
 64
     7
 65
   257
 75
     1
175
     1
 42
1.0
 92
        0
 66
   257
 43
1.0
 76
     1
 77
     6
 78
     2
 67
     7
 79
     3
170
     0
171
     0
290
     0
174
     0
 93
        1
 44
0.0
173
     0
291
     0
 45
0.0
1001
ACAD
1000
AcDbSavedByObjectVersion
1070
     0
  0
VISUALSTYLE
  5
1C0
102
{ACAD_XDICTIONARY
360
1C1
102
}
102
{ACAD_REACTORS
330
99
102
}
330
99
100
AcDbVisualStyle
  2
X-Ray
 70
    25
 71
     2
 72
     2
 73
     1
 90
        1
 40
0.5
 41
-30.0
 62
     5
 63
     7
421
 16777215
 74
     1
 91
        0
 64
     7
 65
   257
 75
     1
175
     1
 42
1.0
 92
        8
 66
     7
 43
1.0
 76
     1
 77
     6
 78
     2
 67
     7
 79
     3
170
     0
171
     0
290
     0
174
     0
 93
       13
 44
0.0
173
     0
291
     0
 45
0.0
1001
ACAD
1000
AcDbSavedByObjectVersion
1070
     0
  0
DICTIONARYVAR
  5
F0
102
{ACAD_REACTORS
330
66
102
}
330
66
100
DictionaryVariables
280
     0
  1
1:1
  0
DICTIONARYVAR
  5
EF
102
{ACAD_REACTORS
330
66
102
}
330
66
100
DictionaryVariables
280
     0
  1
STANDARD
  0
DICTIONARYVAR
  5
89
102
{ACAD_REACTORS
330
66
102
}
330
66
100
DictionaryVariables
280
     0
  1
STANDARD
  0
DICTIONARYVAR
  5
67
102
{ACAD_REACTORS
330
66
102
}
330
66
100
DictionaryVariables
280
     0
  1
2
  0
DICTIONARYVAR
  5
1877
102
{ACAD_REACTORS
330
66
102
}
330
66
100
DictionaryVariables
280
     0
  1
1
  0
DICTIONARYVAR
  5
6B
102
{ACAD_REACTORS
330
66
102
}
330
66
100
DictionaryVariables
280
     0
  1
1
  0
DICTIONARYVAR
  5
14D
102
{ACAD_REACTORS
330
66
102
}
330
66
100
DictionaryVariables
280
     0
  1
0
  0
DICTIONARYVAR
  5
14E
102
{ACAD_REACTORS
330
66
102
}
330
66
100
DictionaryVariables
280
     0
  1
0
  0
DICTIONARYVAR
  5
6D8
102
{ACAD_REACTORS
330
66
102
}
330
66
100
DictionaryVariables
280
     0
  1
0
  0
DICTIONARYVAR
  5
18CA
102
{ACAD_REACTORS
330
66
102
}
330
66
100
DictionaryVariables
280
     0
  1
1
  0
DICTIONARYVAR
  5
18CB
102
{ACAD_REACTORS
330
66
102
}
330
66
100
DictionaryVariables
280
     0
  1
100.000000
  0
DICTIONARYVAR
  5
18D8
102
{ACAD_REACTORS
330
66
102
}
330
66
100
DictionaryVariables
280
     0
  1
2
  0
XRECORD
  5
1909
102
{ACAD_REACTORS
330
18F
102
}
330
18F
100
AcDbXrecord
280
     1
1000
ADE02C001
1070
     1
1070
     0
1002
{
1002
}
1002
{
1002
}
1002
{
1002
}
1000

  0
XRECORD
  5
1FB
102
{ACAD_REACTORS
330
1FA
102
}
330
1FA
100
AcDbXrecord
280
     1
330
1872
  0
DMSTYLIZEDENTITIESTABLE
  5
189
102
{ACAD_REACTORS
330
179
102
}
330
179
100
AcMapDMStylizedEntitiesTable
 70
     1
  0
DICTIONARY
  5
18A
102
{ACAD_REACTORS
330
179
102
}
330
179
100
AcDbDictionary
280
     1
281
     1
  0
DATATABLE
  5
17D
102
{ACAD_REACTORS
330
179
102
}
330
179
100
AcDbDataTable
 70
     2
 90
        4
 91
       15
  1

 92
        3
  2
OriginalClassName
  3
AcMapDMDefaultStyle
  3
AcMapDMEntityStyle
  3
AcMapDMRasterStyle
  3
AcMapDMSEAnnotationStyle
  3
AcMapDMSEHatchStyle
  3
AcMapDMSETextStyle
  3
AcMapDMThematicStyle
  3
AcMapDMBaseElement
  3
AcMapDMAttachedDwgsQueryElement
  3
AcMapDMFeatureElement
  3
AcMapDMLayerElement
  3
AcMapDMCurrentDwgQueryElement
  3
AcMapDMRasterElement
  3
AcMapDMTopoElement
  3
AcMapDMTopoQueryElement
 92
        3
  2
ProxyDisplayName
  3
Default
  3
Entity
  3
Raster
  3
Annotation
  3
Hatch
  3
Text
  3
Thematic
  3
Map Base
  3
Ade Query
  3
Feature Class
  3
Layer
  3
Ade Project Query
  3
Raster
  3
Topology
  3
Topology Query
 92
        1
  2
CustomObjectType
 93
        2
 93
        2
 93
        2
 93
        2
 93
        2
 93
        2
 93
        2
 93
        1
 93
        1
 93
        1
 93
        1
 93
        1
 93
        1
 93
        1
 93
        1
 92
        1
  2
StyleCoExistanceType
 93
        1
 93
        1
 93
        1
 93
        1
 93
        1
 93
        1
 93
        2
 93
        0
 93
        0
 93
        0
 93
        0
 93
        0
 93
        0
 93
        0
 93
        0
  0
DMMAPMANAGER
  5
17A
102
{ACAD_REACTORS
330
179
102
}
330
179
100
AcDbDictionary
281
     1
  3
DisplayMap1
350
17F
100
AcDbDictionaryWithDefault
340
17F
100
AcMapDMMapManager
 70
     1
340
17F
  0
DMSTYLELIBRARY
  5
17B
102
{ACAD_REACTORS
330
179
102
}
330
179
100
AcMapDMStyleLibrary
 70
     1
 70
     1
360
17C
  0
DICTIONARY
  5
17E
102
{ACAD_REACTORS
330
179
102
}
330
179
100
AcDbDictionary
281
     1
  0
XRECORD
  5
CBC
102
{ACAD_XDICTIONARY
360
CBD
102
}
102
{ACAD_REACTORS
330
20D
102
}
330
20D
100
AcDbXrecord
280
     1
 91
     1023
301

290
     0
302
NETAFIM-L-DETL-TEXT-LEADER-035M
330
0
 90
        8
 62
     1
370
    -3
331
16
  1
Color_1
330
80E
 90
        8
 62
     2
370
    -3
331
16
  1
Color_2
330
0
 90
        8
 62
   123
370
    -3
331
16
  1
Color_123
330
0
 90
        8
 62
    25
370
    -3
331
16
  1
Color_25
330
0
 90
        8
 62
   123
370
    -3
331
1F2
  1
Color_123
330
0
 90
        8
 62
    11
370
    -3
331
16
  1
Color_11
330
0
 90
        8
 62
     5
370
    -3
331
16
  1
Color_5
330
807
 90
        8
 62
     8
370
    -3
331
16
  1
Color_8
330
805
 90
        0
 62
   211
370
    -3
331
16
  1
Color_211
330
803
 90
        8
 62
     5
370
    -3
331
16
  1
Color_5
330
801
 90
        8
 62
     1
370
    -3
331
16
  1
Color_1
330
800
 90
        8
 62
   111
370
    -3
331
16
  1
Color_111
330
0
 90
        8
 62
    32
370
    -3
331
0
  1
Color_32
330
0
 90
        8
 62
   191
370
    -3
331
16
  1
Color_191
330
0
 90
        8
 62
     8
370
    -3
331
16
  1
Color_8
330
0
 90
        8
 62
    15
370
    -3
331
16
  1
Color_15
330
0
 90
        8
 62
    74
370
    -3
331
16
  1
Color_74
330
0
 90
        8
 62
    40
370
    -3
331
16
  1
Color_40
330
0
 90
        8
 62
    30
370
    -3
331
1E8
  1
Color_30
330
0
 90
        8
 62
     6
370
    -3
331
16
  1
Color_6
330
0
 90
        8
 62
   191
370
    -3
331
0
  1
Color_191
330
0
 90
        8
 62
     4
370
    -3
331
0
  1
Color_4
330
0
 90
        8
 62
     3
370
    -3
331
0
  1
Color_3
330
0
 90
        8
 62
   150
370
    -3
331
0
  1
Color_150
330
0
 90
        8
 62
     1
370
    -3
331
16
  1
Color_1
330
0
 90
        0
 62
   211
370
    -3
331
16
  1
Color_211
330
0
 90
        0
 62
   211
370
    -3
331
16
  1
Color_211
330
0
 90
        8
 62
     6
370
    -3
331
16
  1
Color_6
330
0
 90
        8
 62
   123
370
    -3
331
16
  1
Color_123
330
0
 90
        8
 62
    15
370
    -3
331
16
  1
Color_15
330
0
 90
        8
 62
   123
370
    -3
331
1F2
  1
Color_123
330
0
 90
        8
 62
    11
370
    -3
331
16
  1
Color_11
330
0
 90
        8
 62
     5
370
    -3
331
16
  1
Color_5
330
1EC
 90
        8
 62
     1
370
    -3
331
16
  1
Color_1
330
0
 90
        8
 62
     8
370
    -3
331
16
  1
Color_8
330
0
 90
        0
 62
   211
370
    -3
331
16
  1
Color_211
330
0
 90
        8
 62
   123
370
    -3
331
16
  1
Color_123
330
0
 90
        8
 62
     5
370
    -3
331
16
  1
Color_5
330
0
 90
        8
 62
     1
370
    -3
331
16
  1
Color_1
330
0
 90
        0
 62
   111
370
    -3
331
16
  1
Color_111
330
10
 90
        8
 62
     7
370
    -3
331
16
  1
Color_7
  0
DICTIONARY
  5
74D
330
22
100
AcDbDictionary
280
     1
281
     1
  3
AcPublish_PlotSettingsOverride
360
187C
  3
ADSK_XREC_LAYOUTTHUMBNAIL
360
74E
  0
DICTIONARY
  5
1917
330
97
100
AcDbDictionary
280
     1
281
     1
  3
ACAD_XREC_ROUNDTRIP
360
1918
  0
DICTIONARY
  5
1915
330
96
100
AcDbDictionary
280
     1
281
     1
  3
ACAD_XREC_ROUNDTRIP
360
1916
  0
DICTIONARY
  5
110
330
98
100
AcDbDictionary
280
     1
281
     1
  3
ACAD_XREC_ROUNDTRIP
360
1919
  3
BUMPTILE
360
112
  3
DIFFUSETILE
360
111
  3
OPACITYTILE
360
113
  3
REFLECTIONTILE
360
114
  0
DICTIONARY
  5
1898
330
181
100
AcDbDictionary
280
     1
281
     1
  3
ACAD_ROUNDTRIP_2008_TABLESTYLE_CELLSTYLEMAP
360
1912
  3
ACAD_XREC_ROUNDTRIP
360
1940
  0
DICTIONARY
  5
104
330
87
100
AcDbDictionary
280
     1
281
     1
  3
ACAD_ROUNDTRIP_2008_TABLESTYLE_CELLSTYLEMAP
360
1911
  3
ACAD_XREC_ROUNDTRIP
360
1914
  0
DICTIONARY
  5
1924
330
9F
100
AcDbDictionary
280
     1
281
     1
  3
ACAD_XREC_ROUNDTRIP
360
1925
  0
DICTIONARY
  5
1928
330
A1
100
AcDbDictionary
280
     1
281
     1
  3
ACAD_XREC_ROUNDTRIP
360
1929
  0
DICTIONARY
  5
1926
330
A0
100
AcDbDictionary
280
     1
281
     1
  3
ACAD_XREC_ROUNDTRIP
360
1927
  0
DICTIONARY
  5
1922
330
9E
100
AcDbDictionary
280
     1
281
     1
  3
ACAD_XREC_ROUNDTRIP
360
1923
  0
DICTIONARY
  5
1930
330
A5
100
AcDbDictionary
280
     1
281
     1
  3
ACAD_XREC_ROUNDTRIP
360
1931
  0
DICTIONARY
  5
1938
330
A9
100
AcDbDictionary
280
     1
281
     1
  3
ACAD_XREC_ROUNDTRIP
360
1939
  0
DICTIONARY
  5
192A
330
A2
100
AcDbDictionary
280
     1
281
     1
  3
ACAD_XREC_ROUNDTRIP
360
192B
  0
DICTIONARY
  5
192E
330
A4
100
AcDbDictionary
280
     1
281
     1
  3
ACAD_XREC_ROUNDTRIP
360
192F
  0
DICTIONARY
  5
193E
330
175
100
AcDbDictionary
280
     1
281
     1
  3
ACAD_XREC_ROUNDTRIP
360
193F
  0
DICTIONARY
  5
1936
330
A8
100
AcDbDictionary
280
     1
281
     1
  3
ACAD_XREC_ROUNDTRIP
360
1937
  0
DICTIONARY
  5
191A
330
9A
100
AcDbDictionary
280
     1
281
     1
  3
ACAD_XREC_ROUNDTRIP
360
191B
  0
DICTIONARY
  5
191C
330
9B
100
AcDbDictionary
280
     1
281
     1
  3
ACAD_XREC_ROUNDTRIP
360
191D
  0
DICTIONARY
  5
191E
330
9C
100
AcDbDictionary
280
     1
281
     1
  3
ACAD_XREC_ROUNDTRIP
360
191F
  0
DICTIONARY
  5
1920
330
9D
100
AcDbDictionary
280
     1
281
     1
  3
ACAD_XREC_ROUNDTRIP
360
1921
  0
DICTIONARY
  5
1AF
330
1AE
100
AcDbDictionary
280
     1
281
     1
  3
ACAD_XREC_ROUNDTRIP
360
1B0
  0
DICTIONARY
  5
193A
330
173
100
AcDbDictionary
280
     1
281
     1
  3
ACAD_XREC_ROUNDTRIP
360
193B
  0
DICTIONARY
  5
1934
330
A7
100
AcDbDictionary
280
     1
281
     1
  3
ACAD_XREC_ROUNDTRIP
360
1935
  0
DICTIONARY
  5
193C
330
174
100
AcDbDictionary
280
     1
281
     1
  3
ACAD_XREC_ROUNDTRIP
360
193D
  0
DICTIONARY
  5
192C
330
A3
100
AcDbDictionary
280
     1
281
     1
  3
ACAD_XREC_ROUNDTRIP
360
192D
  0
DICTIONARY
  5
1B2
330
1B1
100
AcDbDictionary
280
     1
281
     1
  3
ACAD_XREC_ROUNDTRIP
360
1B3
  0
DICTIONARY
  5
1B5
330
1B4
100
AcDbDictionary
280
     1
281
     1
  3
ACAD_XREC_ROUNDTRIP
360
1B6
  0
DICTIONARY
  5
1B8
330
1B7
100
AcDbDictionary
280
     1
281
     1
  3
ACAD_XREC_ROUNDTRIP
360
1B9
  0
DICTIONARY
  5
1BB
330
1BA
100
AcDbDictionary
280
     1
281
     1
  3
ACAD_XREC_ROUNDTRIP
360
1BC
  0
DICTIONARY
  5
1932
330
A6
100
AcDbDictionary
280
     1
281
     1
  3
ACAD_XREC_ROUNDTRIP
360
1933
  0
DICTIONARY
  5
1BE
330
1BD
100
AcDbDictionary
280
     1
281
     1
  3
ACAD_XREC_ROUNDTRIP
360
1BF
  0
DICTIONARY
  5
1C1
330
1C0
100
AcDbDictionary
280
     1
281
     1
  3
ACAD_XREC_ROUNDTRIP
360
1C2
  0
DMMAP
  5
17F
102
{ACAD_REACTORS
330
17A
330
182
102
}
330
17A
100
AcMapDMMap
 70
     1
  1
Default
 70
     1
330
0
100
AcMapDMMap
 70
     1
 90
        1
360
182
 90
        1
 40
1.797693134862314E+99
 70
     1
100
AcMapDMMap
 70
     2
 70
     0
 40
1.797693134862314E+99
290
     1
290
     1
 40
1.0
 40
3.0
  1
Legend
 90
        1
 40
1.797693134862314E+99
  1

 70
     0
 40
1.0
 70
     1
 90
        0
 90
        1
360
183
  0
DMSTYLECATEGORY
  5
17C
102
{ACAD_REACTORS
330
17B
102
}
330
17B
100
AcMapDMStyleCategory
 70
     1
  1
Display Styles
 70
     0
  0
DICTIONARY
  5
CBD
330
CBC
100
AcDbDictionary
280
     1
281
     1
  3
AcadLayerStateAnnoScale
360
CBE
  0
PLOTSETTINGS
  5
187C
102
{ACAD_REACTORS
330
74D
102
}
330
74D
100
AcDbPlotSettings
  1

  2
Adobe PDF
  4
Letter
  6

 40
3.174999952316284
 41
3.174999952316284
 42
3.175003051757812
 43
3.17498779296875
 44
215.8999938964844
 45
279.3999938964844
 46
14.28342595487883
 47
2.68567847886359
 48
0.0
 49
0.0
140
0.0
141
0.0
142
1.0
143
1.0
 70
 11940
 72
     0
 73
     1
 74
     1
  7
NETAFIM.ctb
 75
     0
147
1.114821682492221
 76
     0
 77
     2
 78
   300
148
22.74709889494722
149
-0.0279058057208374
1001
ACAD_PSEXT
1000
Adobe PDF
1000
Adobe PDF Converter
1000
Documents\*.pdf
1000

1070
     0
  0
XRECORD
  5
74E
102
{ACAD_REACTORS
330
74D
102
}
330
74D
100
AcDbXrecord
280
     1
310
28000000000100008F0000000100080000000000008F0000000000000000000000010000000000000000000000000000FFFFFF000000000000000000000000000000000000000000000000000000000000000000330000006600000099000000CC000000FF00000000330000333300006633000099330000CC330000FF3300
310
0000660000336600006666000099660000CC660000FF66000000990000339900006699000099990000CC990000FF99000000CC000033CC000066CC000099CC0000CCCC0000FFCC000000FF000033FF000066FF000099FF0000CCFF0000FFFF000000003300330033006600330099003300CC003300FF003300003333003333
310
33006633330099333300CC333300FF33330000663300336633006666330099663300CC663300FF66330000993300339933006699330099993300CC993300FF99330000CC330033CC330066CC330099CC3300CCCC3300FFCC330000FF330033FF330066FF330099FF3300CCFF3300FFFF330000006600330066006600660099
310
006600CC006600FF00660000336600333366006633660099336600CC336600FF33660000666600336666006666660099666600CC666600FF66660000996600339966006699660099996600CC996600FF99660000CC660033CC660066CC660099CC6600CCCC6600FFCC660000FF660033FF660066FF660099FF6600CCFF6600
310
FFFF660000009900330099006600990099009900CC009900FF00990000339900333399006633990099339900CC339900FF33990000669900336699006666990099669900CC669900FF66990000999900339999006699990099999900CC999900FF99990000CC990033CC990066CC990099CC9900CCCC9900FFCC990000FF99
310
0033FF990066FF990099FF9900CCFF9900FFFF99000000CC003300CC006600CC009900CC00CC00CC00FF00CC000033CC003333CC006633CC009933CC00CC33CC00FF33CC000066CC003366CC006666CC009966CC00CC66CC00FF66CC000099CC003399CC006699CC009999CC00CC99CC00FF99CC0000CCCC0033CCCC0066CC
310
CC0099CCCC00CCCCCC00FFCCCC0000FFCC0033FFCC0066FFCC0099FFCC00CCFFCC00FFFFCC000000FF003300FF006600FF009900FF00CC00FF00FF00FF000033FF003333FF006633FF009933FF00CC33FF00FF33FF000066FF003366FF006666FF009966FF00CC66FF00FF66FF000099FF003399FF006699FF009999FF00CC
310
99FF00FF99FF0000CCFF0033CCFF0066CCFF0099CCFF00CCCCFF00FFCCFF0000FFFF0033FFFF0066FFFF0099FFFF00CCFFFF00FFFFFF00000000000D0D0D001A1A1A00282828003535350043434300505050005D5D5D006B6B6B00787878008686860093939300A1A1A100AEAEAE00BBBBBB00C9C9C900D6D6D600E4E4E400
310
F1F1F100FFFFFF0000000000000000000000000000000000000000000000000000000000000000000000000000000000E2E2E2E2E2E2E2E2E2E2E2E2E2E2E2E2E2E2E2E2E2E2E2BEE2BEE2E2E2BEE2BEE2BEE2BEE2BEE2E2BEE2E2E2E2E2C3C3C3C3C3C3E2E2E2E2E2E2DCDCDCDCDCDCDCDCDCDCDCDCDCDCDCDCDCDCDCDCDC
310
DCDCDCDCDCE2E2DCDCDCDCDCDCE2E2DCDCDCDCDCDCDCDCDCE2E2DCDCDCDCDCDCDCDCDCDCDCDCE2E2DCDCDCDCDCDCDCDCDCDCDCDCDCDCDCDCDCDCE2E2E2E2E2E2E2E2E2E2E2E2E2E2E2E2E2E2E2E2E2E2E2E2E2E2E2E2E2E2E2E2E2E2E2E2E2E2E2E2E2E2E2E2E2E2E2E2E2E2E2E2E2E2E2E2E2E2E2E2E2E2E2E2E2E2E2BEBE
310
BEBEBEBEBEBEBEBEBEBEBEBEBEBEBEBEBEBEBEBEBEE2E2E2E2E2BEE2E2E2E2E2E2E2E2E2E2E2E2E2E2E2E2E2E2E2E2E2E2E2E2E2E2E2E2E2E2E2E2E2E2E2E2E2E2E2E2E2E2E2E2E2E2BEE2BEE2E2E2BEE2BEE2BEE2BEE2BEE2E2BEE2E2E2E2E2E2E2E2E2E2E2E2E2E2E2E2E2E2E2E2E2E2E2E2E2E2E2E2E2E2E2E2E2E2E2E2
310
E2E2E2E2E2E2E2E2E2E2E2E2E2E2E2E2E2E2E2E2E2E2E2E2E2E2E2E2E2E2E2E2E2E2E2E2E2E2E2E2E2E2E2E2E2E2E2E2E2E2E2E2E2E2E2E2E2E2E2E2E2E2E2E2E2E2E2E2E2E2E2E2E2E2E2E2E2E2E2E2E2E2E2E2E2E2E2E2E2E2E2E2E2E2E2E2E2E2E2E2E2E2E2E2E2E2E2E2E2E2E2E2E2E2E2E2E2E2E2E2E2E2E2E2E2E2E2
310
E2BEBEBEBEBEBEBEBEBEBEBEBEBEBEBEBEBEBEBEBEBEBEE2E2E2E2E2BEE2E2E2E2E2E2E2E2E2E2E2E2E2E2E2E2E2E2E2E2E2E2E2E2E2E2E2E2E2E2E2E2E2E2E2E2E2E2E2E2E2E2E2E2E2E2BEE2BEE2E2E2BEE2BEE2BEE2BEE2BEE2E2BEE2E2E2E2E2E2E2E2E2E2E2E2E2E2E2E2E2E2E2E2E2E2E2E2E2E2E2E2E2E2E2E2E2E2
310
E2E2E2E2E2E2E2E2E2E2E2E2E2E2E2E2E2E2E2E2E2E2E2E2E2E2E2E2E2E2E2E2E2E2E2E2E2E2E2E2E2E2E2E2E2E2E2E2E2E2E2E2E2E2E2E2E2E2E2E2E2E2E2E2E2E2E2E2E2E2E2E2E2E2E2E2E2E2E2E2E2E2E2E2E2E2E2E2E2E2E2E2E2E2E2E2E2E2E2E2E2E2E2E2E2E2E2E2E2E2E2E2E2E2E2E2E2E2E2E2E2E2E2E2E2E2E2
310
E2E2E2E2BEBEBEBEBEBEBEBEBEBEBEBEBEBEBEBEBEBEBEBEBEBEBEE2E2E2BEE2E2E2E2E2E2E2E2E2E2E2E2E2E2E2E2E2E2E2E2E2E2E2E2E2E2E2E2E2E2E2E2E2E2E2E2E2E2E2E2E2E2E2E2E2E2BEE2E2E2E2E2BEE2BEE2BEE2BEE2BEE2E2BEE2E2E2E2E2E2E2E2E2E2E2E2E2E2E2E2E2E2E2E2E2E2E2E2E2E2E2E2E2E2E2E2
310
E2E2E2E2E2E2E2E2E2E2E2E2E2E2E2E2E2E2E2E2E2E2E2E2E2E2E2E2E2E2E2E2E2E2E2E2E2E22D2D2D2DE2E2E2E2E2E2E2E2E2E2E2E2E2E2E2E2E2E2E2E2E2E2E2E2E2E2E2E2E2E2E2E2E2E2E2E2E2E2E2E2E2E2E2E2E2E2E2E2E2E2E2E2E2E2E2E2E2E2E2E2E2E2E2E2E2E2E2E2E2E2E2E2E2E2E2E2E2E2E2E2E2E2E2E2E2
310
E2E2E2E2E2E2BEE2E2E2E2E2E2E2E2E2E2E2E2E2E2E2E2E2E2E2E2E2E2E2E2E2BEE2E2E2E2E2E2E2E2E2E2E2E2E2E2E2E2E2E2E2E2E2E2E2E2E2E2E2E2E2E2E2E2E2E2E2E2E2E2E2E2E2E2E2E2E2E2BEE2E2E2E2E2BEE2BEE2BEE2BEE2BEE2E2BEE2E2E2E2E2E2E2E2E2E2E2E2E2E2E2E2E2E2E2E2E2E2E2E2E2E2E2E2E2E2
310
E2E2E2E2E2E2E2E2E2E2E2E2E2E2E2E2E2E2E2E2E2E2E2E2E2E2E2E2E2E2E2E2E2E2E2E2E2E2E22D2DE2E22D2DE2E2E2E2E2E2E2E2E2E2E2E2E2E2E2E2E2E2E2E2E2E2E2E2E2E2E2E2E2E2E2E2E2E2E2E2E2E2E2E2E2E2E2E2E2E2E2E2E2E2E2E2E2E2E2E2E2E2E2E2E2E2E2E2E2E2E2E2E2E2E2E2E2E2E2E2E2E2E2E2E2E2
310
E2E2E2E2E2E2E2E2E2E2E2E2E2E2E2E2E2E2E2E2E2E2E2E2E2E2E2E2E2E2E2E2E2E2BEE2E2E2E2E2E2E2E2E2E2E2E2E2E2E2E2E2E2E2E2E2E2E2E2E2E2E2E2E2E2E2E2E2E2E2E2E2E2E2E2E2E2E2E2E2E2BEE2E2E2E2E2BEE2BEE2BEE2BEE2BEE2E2BEE2E2E2E2E2E2E2E2E2E2E2E2E2E2E2E2E2E2E2E2E2E2E2E2E2E2E2E2
310
E2E2E2E2E2E2E2E2E2E2E2E2E2E2E2E2E2E2E2E2E2E2E2E2E2E2E2E2E2E2E2E2E2E2E2E2E2E2E2E2E22DDCE2DCE22DE2E2E2E2E2E2E2E2E2E2E2E2E2E2E2E2E2E2E2E2E2E2E2E2E2E2E2E2E2E2E2E2E2E2E2E2E2E2E2E2E2E2E2E2E2E2E2E2E2E2E2E2E2E2E2E2E2E2E2E2E2E2E2E2E2E2E2E2E2E2E2E2E2E2E2E2E2E2E2E2
310
E2E2E2E2E2E2E2E2E2E2E2E2E2E2E2E2E2E2E2E2E2E2E2E2E2E2E2E2E2E2E2E2E2E2E2E2BEE2E2E2E2E2E2E2E2E2E2E2E2E2E2E2E2E2E2E2E2E2E2E2E2E2E2E2E2E2E2E2E2E2E2E2E2E2E2E2E2E2E2E2E2E2E2BEE2E2E2E2E2BEE2BEE2BEE2BEE2BEE2E2BEE2E2E2E2E2E2E2E2E2E2E2E2E2E2E2E2E2E2E2E2E2E2E2E2E2E2
310
E2E2E2E2E2E2E2E2E2E2E2E2E2E2E2E2E2E2E2E2E2E2E2E2E2E2E2E2E2E2E2E2E2E2E2E2E2E2E2E2E2E2E22DDCDCDCDC2DDCDCDCE2E2E2E2E2E2E2E2E2E2E2E2E2E2E2E2E2E2E2E2E2E2E2E2E2E2E2E2E2E2E2E2E2E2E2E2E2E2E2E2E2E2E2E2E2E2E2E2E2E2E2E2E2E2E2E2E2E2E2E2E2E2E2E2E2E2E2E2E2E2E2E2E2E2E2
310
E2E2E2E2E2E2E2E2E2E2E2E2E2E2E2E2E2E2E2E2E2E2E2E2E2E2E2E2E2E2E2E2E2E2E2E2E2E2BEE2E2E2E2E2E2E2E2E2E2E2E2E2E2E2E2E2E2E2E2E2E2E2E2E2E2E2E2E2E2E2E2E2E2E2E2E2E2E2E2E2E2E2E2E2E2BEE2E2E2E2E2BEE2BEE2BEE2BEE2BEE2E2BEE2E2E2E2E2E2E2E2E2E2E2E2E2E2E2E2E2E2E2E2E2E2E2E2
310
E2E2E2E2E2E2E2E2E2E2E2E2E2E2E2E2E2E2E2E2E2E2E2E2E2E2E2E2E2E2E2E2E2E2E2E2E2E2E2E2E2E2E2E2E22D2DDCDCDC2DE2DCDCDCDCE2E2E2E2E2E2E2E2E2E2E2E2E2E2E2E2E2E2E2E2E2E2E2E2E2E2E2E2E2E2E2E2E2E2E2E2E2E2E2E2E2E2E2E2E2E2E2E2E2E2E2E2E2E2E2E2E2E2E2E2E2E2E2E2E2E2E2E2E2E2E2
310
E2E2E2E2E2E2E2E2E2E2E2E2E2E2E2E2E2E2E2E2E2E2E2E2E2E2E2E2E2E2E2E2E2E2E2E2E2E2E2E2BEE2E2E2E2E2E2E2E2E2E2E2E2E2E2E2E2E2E2E2E2E2E2E2E2E2E2E2E2E2E2E2E2E2E2E2E2E2E2E2E2E2E2E2E2E2E2BEE2E2E2E2E2BEE2BEE2BEE2BEE2BEE2E2BEE2E2E2E2E2E2E2E2E2E2E2E2E2E2E2E2E2E2E2E2E2E2
310
E2E2E2E2E2E2E2E2E2E2E2E2E2E2E2E2E2E2E2E2E2E2E2E2E2E2E2E2E2E2E2E2E2E2E2E2E2E2E2E2E2E2E2E2E2E2E2E22D2D2D2D2DE2E2E2E2E2DCDCDCDCDCE2E2E2E2E2E2E2E2E2E2E2E2E2E2E2E2E2E2E2E2E2E2E2E2E2E2E2E2E2E2E2E2E2E2E2E2E2E2E2E2E2E2E2E2E2E2E2E2E2E2E2E2E2E2E2E2E2E2E2E2E2E2E2E2
310
E2E2E2E2E2E2E2E2E2E2E2E2E2E2E2E2E2E2E2E2E2E2E2E2E2E2E2E2E2E2E2E2E2E2E2E2E2E2E2E2E2E2BEE2E2E2E2E2E2E2E2E2E2E2E2E2E2E2E2E2E2E2E2E2E2E2E2E2E2E2E2E2E2E2E2E2E2E2E2E2E2E2E2E2E2E2E2E2E2BEE2E2E2E2E2BEE2BEE2BEE2BEE2BEE2E2BEE2E2E2E2E2E2E2E2E2E2E2E2E2E2E2E2E2E2E2E2
310
E2E2E2E2E2E2E2E2E2E2E2E2E2E2E2E2E2E2E2E2E2E2E2E2E2E2E2E22D2D2D2D2DE22D2D2D2D2D2DE2E22D2D2D2D2D2DE22D2D2D2D2D2DE2E22D2D2D2D2D2DE22D2D2D2D2D2DE22D2D2D2D2DE2E2E2E2E2E2E2E2E2E2E2E2E2E2E2E2E2E2E2E2E2E2E2E2E2E2E2E2E2E2E2E2E2E2E2E2E2E2E2E2E2E2E2E2E2E2E2E2E2E2E2
310
E2E2E2E2E2E2E2E2E2E2E2E2E2E2E2E2E2E2E2E2E2E2E2E2E2E2E2E2E2E2E2E2E2E2E2E2E2E2E2E2E2E2E2E2BEE2E2E2E2E2E2E2E2E2E2E2E2E2E2E2E2E2E2E2E2E2E2E2E2E2E2E2E2E2E2E2E2E2E2E2E2E2E2E2E2E2E2E2E2E2E2BEE2E2E2E2E2BEE2BEE2BEE2BEE2BEE2E2BEE2E2E2E2E2E2E2E2E2E2E2E2E2E2E2E2E2E2
310
E2E2E2E2E2E2E2E2E2E2E2E2E2E2E2E2E2E2E2E2E2E2E2E2E2E2E2E2E2E22DE2E2E2E2E2E2E2E2E2E2E2E2E2E2E2E2E2E2E2E2E2DC2DDC2DDCE2E2E2E2E2E2E2E2E2E2E2E2E2E2DCDCDCDCDCE22DE2E2E2E2E2E2E2E2E2E2E2E2E2E2E2E2E2E2E2E2E2E2E2DCE2DCDCDCDCDCDCDCDCDCDCE2E2DCE2DCE2E2DCE2DCE2DCE2E2
310
E2DCDCDCE2E2DCE2DCDCDCDCE2E2E2E2E2E2E2E2E2E2E2E2E2E2E2E2E2E2E2E2E2E2E2E2E2E2E2E2E2E2E2E2E2E2BEE2E2E2E2E2E2E2E2E2E2E2E2E2E2E2E2E2E2E2E2E2E2E2E2E2E2E2E2E2E2E2E2E2E2E2E2E2E2E2E2E2E2E2E2E2E2BEE2E2E2E2E2BEE2BEE2BEE2BEE2BEE2E2BEE2E2E2E2E2E2E2E2E2E2E2E2E2E2E2E2
310
E2E2E2E2E2E2E2E2E2E2E2E2E2E2E2E2E2E2E2E2E2E2E2E2E2E2E2E2E2E2E2E22D2D83832D2D2D2D83832D2D2D2D83832D2D2D2D83832DE2E2E283832D2D2D2D2D832D2D2D2D83832D2D2D2D83832D2DDCDCDCE2E2E2E2E2E2E2E2E2E2E2E2E2E2E2E2E2E2E2E2DCDCDCDCDCDCDCDCDCDCDCDCDCE2DCDCDCDCE2DCDCDCDCDC
310
DCE2DCDCDCDCE2E2DCDCDCDCE2DCE2E2E2E2E2E2E2E2E2E2E2E2E2E2E2E2E2E2E2E2E2E2E2E2E2E2E2E2E2E2E2E2E2E2BEE2E2E2E2E2E2E2E2E2E2E2E2E2E2E2E2E2E2E2E2E2E2E2E2E2E2E2E2E2E2E2E2E2E2E2E2E2E2E2E2E2E2E2E2E2E2BEE2E2E2E2E2BEE2BEE2BEE2BEE2BEE2E2BEE2E2E2E2E2E2E2E2E2E2E2E2E2E2
310
E2E2E2E2E2E2E2E2E2E2E2E2E2E2E2E2E2E2E2E2E2E2E2E2E2E2E2E2E2E2E2E2E2E22D2D83832D2D2D2D83832D2D2D2D83832D2D2D2D83832DE2E2E283832D2D2D2D83832D2D2D2D83832D2D2D2D83832D2DE2E2E2DCDCDCDCE2E2E2E2E2E2E2E2E2E2E2E2E2E2E2E2DCDCDCDCDCDCDCDCDCDCDCDCDCE2DCDCDCDCE2DCDCDC
310
DCDCDCE2DCDCDCDCE2E2DCDCDCDCDCE2DCE2E2E2E2E2E2E2E2E2E2E2E2E2E2E2E2E2E2E2E2E2E2E2E2E2E2E2E2E2E2E2E2E2BEE2E2E2E2E2E2E2E2E2E2E2E2E2E2E2E2E2E2E2E2E2E2E2E2E2E2E2E2E2E2E2E2E2E2E2E2E2E2E2E2E2E2E2E2E2E2BEE2E2E2E2E2BEE2BEE2BEE2BEE2BEE2E2BEE2E2E2E2E2E2E2E2E2E2E2E2
310
E2E2E2E2E2E2E2E2E2E2E2E2E2E2E2E2E2E2E2E2E2E2E2E2E2E2E2E2E2E2E2E2E2E2E2E22DE28383E2E2E2E28383E2E2E2E28383E2E2E2E28383DCDCDCDC8383E2E2E2DC8383E2E2E2E28383E2E2E2E28383E22DE2E2E2E2E2E2E2DCDCDCDCDCE2E2E2E2E2E2E2E2E2E2E2DCDCDCDCDCDCDCDCDCDCDCDCDCDCE2E2DCE2DCDC
310
DCDCDCDCDCE2E2DCDCDCDCDCDCDCDCE2E2E2E2E2E2E2E2E2E2E2E2E2E2E2E2E2E2E2E2E2E2E2E2E2E2E2E2E2E2E2E2E2E2E2E2E2BEE2E2E2E2E2E2E2E2E2E2E2E2E2E2E2E2E2E2E2E2E2E2E2E2E2E2E2E2E2E2E2E2E2E2E2E2E2E2E2E2E2E2E2E2E2E2BEE2E2E2E2E2BEE2BEE2BEE2BEE2BEE2E2BEE2E2E2E2E2E2E2E2E2E2
310
E2E2E2E2E2E2E2E2E2E2E2E2E2E2E2E2E2E2E2E2E2E2E2E2E2E2E2E2E2E2E2E2E2E2E2E2E2E2E2E28383E2E2E2E28383E2E2E2E28383E2E2E2E28383E2E2E2E28383E2E2E2E28383DCDCE2E28383E2E2E2E28383E2E2E2E2E2E2E2E2E2E2E2E2E2E2DCDCDCDCDCDCDCDCDCDCE2DCDCDCDCDCDCDCDCDCDCDCDCDCDCDCE2DCDC
310
DCDCDCDCDCDCDCE2E2DCDCDCE2DCDCDCE2E2E2E2E2E2E2E2E2E2E2E2E2E2E2E2E2E2E2E2E2E2E2E2E2E2E2E2E2E2E2E2E2E2E2E2E2E2BEE2E2E2E2E2E2E2E2E2E2E2E2E2E2E2E2E2E2E2E2E2E2E2E2E2E2E2E2E2E2E2E2E2E2E2E2E2E2E2E2E2E2E2E2E2E2BEE2E2E2E2E2BEE2BEE2BEE2BEE2BEE2E2BEE2E2E2E2E2E2E2E2
310
E2E2E2E2E2E2E2E2E2E2E2E2E2E2E2E2E2E2E2E2E2E2E2E2E2E2E2E2E2E2E2E2E2E2E2E2E2E2E2E22DE28383E2E2E2E28383E2E2E2E28383E2E2E2E28383E2E2E2E28383E2E2E2E28383E2E2DCDC8383E2E2E2E28383E22DE2E2E2E2E2E2E2E2E2E2E2E2E2E2E2E2E2E2E2E2E2E2E2E2DCDCDCDCDCDCDCDCDCDCDCDCDCDCE2
310
DCDCDCDCDCDCDCDCDCE2DCDCDCDCE2DCDCDCDCE2E2E2E2E2E2E2E2E2E2E2E2E2E2E2E2E2E2E2E2E2E2E2E2E2E2E2E2E2E2E2E2E2E2E2E2E2BEE2E2E2E2E2E2E2E2E2E2E2E2E2E2E2E2E2E2E2E2E2E2E2E2E2E2E2E2E2E2E2E2E2E2E2E2E2E2E2E2E2E2E2E2E2E2BEE2E2E2E2E2BEE2BEE2BEE2BEE2BEE2E2BEE2E2E2E2E2E2
310
E2E2E2E2E2E2E2E2E2E2E2E2E2E2E2E2E2E2E2E2E2E2E2E2E2E2E2E2E2E2E2E2E2E2E2E2E2E2E2E2E2E22DE28383E2E2E2E28383E2E2E2E28383E2E2E2E28383E2E2E2E28383E2E2E2E28383E2E2E2E28383E2E2E2E28383E22DE2E2E2E2E2E2E2E2E2E2E2E2E2E2E2E2E2E2E2E2E2E2E2E2E2E2E2E2E2E2E2E2E2E2E2E2E2
310
E2E2E2E2E2E2E2E2E2E2E2E2E2E2E2E2E2E2E2E2E2E2E2E2E2E2E2E2E2E2E2E2E2E2E2E2E2E2E2E2E2E2E2E2E2E2E2E2E2E2E2E2E2E2E2E2E2E2BEE2E2E2E2E2E2E2E2E2E2E2E2E2E2E2E2E2E2E2E2E2E2E2E2E2E2E2E2E2E2E2E2E2E2E2E2E2E2E2E2E2E2E2E2E2E2BEE2E2E2E2E2BEE2BEE2BEE2BEE2BEE2E2BEE2E2E2E2
310
E2E2E2E2E2E2E2E2E2E2E2E2E2E2E2E2E2E2E2E2E2E2E2E2E2E2E2E2E2E2E2E2E2E2E2E2E2E2E2E2E2E2E2E22DE28383E2E2E2E28383E2E2E2E28383E2E2E2E28383E2E2E2E28383E2E2E2E28383E2E2E2E28383DCDCE2E28383E22DE2E2E2E2E2E2E2E2E2E2E2E2E2E2E2E2E2E2E2E2E2E2E2E2E2E2E2E2E2E2E2E2E2E2E2
310
E2E2E2E2E2E2E2E2E2E2E2E2E2E2E2E2E2E2E2E2E2E2E2E2E2E2E2E2E2E2E2E2E2E2E2E2E2E2E2E2E2E2E2E2E2E2E2E2E2E2E2E2E2E2E2E2E2E2E2E2BEE2E2E2E2E2E2E2E2E2E2E2E2E2E2E2E2E2E2E2E2E2E2E2E2E2E2E2E2E2E2E2E2E2E2E2E2E2E2E2E2E2E2E2E2E2E2BEE2E2E2E2E2BEE2BEE2BEE2BEE2BEE2E2BEE2E2
310
E2E2E2E2E2E2E2E2E2E2E2E2E2E2E2E2E2E2E2E2E2E2E2E2E2E2E2E2E2E2E2E2E2E2E2E2E2E2E2E2E2E2E2E2E2E22DE28383E2E2E2E28383E2E2E2E28383E2E2E2E28383E2E2E2E28383E2E2E2E28383E2E2E2E28383E2E2DCDC8383E22DE2E2E2E2E2E2E2E2E2E2E2E2E2E2E2E2E2E2E2E2E2E2E2E2E2E2E2E2E2E2E2E2E2
310
E2E2E2E2E2E2E2E2E2E2E2E2E2E2E2E2E2E2E2E2E2E2E2E2E2E2E2E2E2E2E2E2E2E2E2E2E2E2E2E2E2E2E2E2E2E2E2E2E2E2E2E2E2E2E2E2E2E2E2E2E2E2BEE2E2E2E2E2E2E2E2E2E2E2E2E2E2E2E2E2E2E2E2E2E2E2E2E2E2E2E2E2E2E2E2E2E2E2E2E2E2E2E2E2E2E2E2E2E2BEE2E2E2E2E2BEE2BEE2BEE2BEE2BEE2E2BE
310
E2E2E2E2E2E2E2E2E2E2E2E2E2E2E2E2E2E2E2E2E2E2E2E2E2E2E2E2E2E2E2E2E2E2E2E2E2E2E2E2E2E2E2E2E2E2E2E22DE28383E2E2E2E28383E2E2E2E28383E2E2E2E28383E2E2E2E28383E2E2E2E28383E2E2E2E28383E2E2E2E28383DC2DE2E2E2E2E2E2E2E2E2E2E2E2E2E2E2E2E2E2E2E2E2E2E2E2E2E2E2E2E2E2E2
310
E2E2E2E2E2E2E2E2E2E2E2E2E2E2E2E2E2E2E2E2E2E2E2E2E2E2E2E2E2E2E2E2E2E2E2E2E2E2E2E2E2E2E2E2E2E2E2E2E2E2E2E2E2E2E2E2E2E2E2E2E2E2E2E2BEE2E2E2E2E2E2E2E2E2E2E2E2E2E2E2E2E2E2E2E2E2E2E2E2E2E2E2E2E2E2E2E2E2E2E2E2E2E2E2E2E2E2E2E2E2E2BEE2E2E2E2E2BEE2BEE2BEE2BEE2BEE2
310
E2BEE2E2E2E2E2E2E2E2E2E2E2E2E2E2E2E2E2E2E2E2E2E2E2E2E2E2E2E2E2E2E2E2E2E2E2E2E2E2E2E2E2E2E2E2E2E2E2E22DE28383E2E2E2E28383E2E2E2E28383E2E2E2E28383E2E2E2E28383E2E2E2E28383E2E2E2E28383E2E2E2E28383E22DDCE2E2E2E2E2E2E2E2E2E2E2E2E2E2E2E2E2E2E2E2E2E2E2E2E2E2E2E2
310
E2E2E2E2E2E2E2E2E2E2E2E2E2E2E2E2E2E2E2E2E2E2E2E2E2E2E2E2E2E2E2E2E2E2E2E2E2E2E2E2E2E2E2E2E2E2E2E2E2E2E2E2E2E2E2E2E2E2E2E2E2E2E2E2E2E2BEE2E2E2E2E2E2E2E2E2E2E2E2E2E2E2E2E2E2E2E2E2E2E2E2E2E2E2E2E2E2E2E2E2E2E2E2E2E2E2E2E2E2E2E2E2E2BEE2E2E2E2E2BEE2BEE2BEE2BEE2
310
BEE2E2BEE2E2E2E2E2E2E2E2E2E2E2E2E2E2E2E2E2E2E2E2E2E2E2E2E2E2E2E2E2E2E2E2E2E2E2E2E2E2E2E2E2E2E2E2E2E2E2E2E2E28383E2E2E2E28383E2E2E2E28383E2E2E2E28383E2E2E2E28383E2E2E2E28383E2E2E2E28383E2E2E2E28383E2E2E2DCDCE2E2E2E2E2E2E2E2E2E2E2E2E2E2E2E2E2E2E2E2E2E2E2E2
310
E2E2E2E2E2E2E2E2E2E2E2E2E2E2E2E2E2E2E2E2E2E2E2E2E2E2E2E2E2E2E2E2E2E2E2E2E2E2E2E2E2E2E2E2E2E2E2E2E2E2E2E2E2E2E2E2E2E2E2E2E2E2E2E2E2E2E2E2BEE2E2E2E2E2E2E2E2E2E2E2E2E2E2E2E2E2E2E2E2E2E2E2E2E2E2E2E2E2E2E2E2E2E2E2E2E2E2E2E2E2E2E2E2E2E2BEE2E2E2E2E2BEE2BEE2BEE2
310
BEE2BEE2E2BEE2E2E2E2E2E2E2E2E2E2E2E2E2E2E2E2E2E2E2E2E2E2E2E2E2E2E2E2E2E2E2E2E2E2E2E2E2E2E2E2E2E2E2E2E2E2E2E2E2E28383E2E2E2E28383E2E2E2E28383E2E2E2E28383E2E2E2E28383E2E2E2E28383E2E2E2E28383E2E2E2E28383E2E2E2E2E2DCDCDCDCDCDCDCDCDCDCDCDCDCDCDCDCDCDCDCE2DCE2
310
DCDCDCE2E2DCDCDCDCE2DCE2DCDCDCDCDCE2E2DCDCE2DCDCDCDCDCDCDCDCE2E2DCDCDCDCDCDCDCDCDCDCDCE2E2E2E2E2E2E2E2E2E2E2E2E2E2E2E2E2E2E2E2E2E2E2E2E2E2E2BEE2E2E2E2E2E2E2E2E2E2E2E2E2E2E2E2E2E2E2E2E2E2E2E2E2E2E2E2E2E2E2E2E2E2E2E2E2E2E2E2E2E2E2E2E2E2BEE2E2E2E2E2BEE2BEE2
310
BEE2BEE2BEE2E2BEE2E2E2E2E2E2E2E2E2E2E2E2E2E2E2E2E2E2E2E2E2E2E2E2E2E2E2E2E2E2E2E2E2E2E2E2E2E2E2E2E2E2E2E2E2E2E2E22DE28383E2E2E2E28383E2E2E2E28383E2E2E2E28383E2E2E2E28383E2E2E2E28383E2E2E2E28383E2E2E2E28383E22DE2E2E2E2E2E2E2E2E2E2E2E2E2E2E2E2E2E2E2E2E2E2E2
310
DCDCDCDCDCE2E2DCDCDCDCE2DCDCDCDCDCE2DCE2E2DCE2DCDCDCDCDCDCDCDCDCE2E2DCDCDCDCDCDCDCDCDCDCDCE2E2E2E2E2E2E2E2E2E2E2E2E2E2E2E2E2E2E2E2E2E2E2E2E2E2E2BEE2E2E2E2E2E2E2E2E2E2E2E2E2E2E2E2E2E2E2E2E2E2E2E2E2E2E2E2E2E2E2E2E2E2E2E2E2E2E2E2E2E2E2E2E2E2BEE2E2E2E2E2BEE2
310
BEE2BEE2BEE2BEE2E2BEE2E2E2E2E2E2E2E2E2E2E2E2E2E2E2E2E2E2E2E2E2E2E2E2E2E2E2E2E2E2E2E2E2E2E2E2E2E2E2E2E2E2E2E2E2E2E2E22DE28383E2E2E2E28383E2E2E2E28383E2E2E2E28383E2E2E2E28383E2E2E2E28383E2E2E2E28383E2E2E2E28383E22DE2E2E2E2E2E2E2E2E2E2E2E2E2E2E2E2E2E2E2E2E2
310
E2E2DCDCDCDCDCE2E2DCDCDCDCE2DCDCE2DCDCDCE2DCE2DCDCE2DCDCDCE2DCDCDCDCDCE2DCDCDCDCDCDCDCDCDCDCE2E2E2E2E2E2E2E2E2E2E2E2E2E2E2E2E2E2E2E2E2E2E2E2E2E2E2E2BEE2E2E2E2E2E2E2E2E2E2E2E2E2E2E2E2E2E2E2E2E2E2E2E2E2E2E2E2E2E2E2E2E2E2E2E2E2E2E2E2E2E2E2E2E2E2BEE2E2E2E2E2
310
BEE2BEE2BEE2BEE2BEE2E2BEE2E2E2E2E2E2E2E2E2E2E2E2E2E2E2E2E2E2E2E2E2E2E2E2E2E2E2E2E2E2E2E2E2E2E2E2E2E2E2E2E2E2E2E2E2E2E2E22DE28383E2E2E2E28383E2E2E2E28383E2E2E2E28383E2E2E2E28383E2E2E2E28383E2E2E2E28383E2E2E2E28383E22DE2E2E2E2E2E2E2E2E2E2E2E2E2E2E2E2E2E2E2
310
E2E2E2E2E2E2E2E2E2E2E2E2E2E2E2E2E2E2E2E2E2E2E2E2E2E2E2E2E2E2E2E2E2E2E2E2E2E2E2E2E2E2E2E2E2E2E2E2E2E2E2E2E2E2E2E2E2E2E2E2E2E2E2E2E2E2E2E2E2E2E2E2E2E2E2E2BEE2E2E2E2E2E2E2E2E2E2E2E2E2E2E2E2E2E2E2E2E2E2E2E2E2E2E2E2E2E2E2E2E2E2E2E2E2E2E2E2E2E2E2E2E2E2BEE2E2E2
310
E2E2BEE2BEE2BEE2BEE2BEE2E2BEE2E2E2E2E2E2E2E2E2E2E2E2E2E2E2E2E2E2E2E2E2E2E2E2E2E2E2E2E2E2E2E2E2E2E2E2E2E2E2E2E2E2E2E2E2E2E2E22DE28383E2E2E2E28383E2E2E2E28383E2E2E2E28383E2E2E2E28383E2E2E2E28383E2E2E2E28383E2E2E2E28383E22DE2E2E2E2E2E2E2E2E2E2E2E2E2E2E2E2E2
310
E2E2E2E2E2E2E2E2E2E2E2E2E2E2E2E2E2E2E2E2E2E2E2E2E2E2E2E2E2E2E2E2E2E2E2E2E2E2E2E2E2E2E2E2E2E2E2E2E2E2E2E2E2E2E2E2E2E2E2E2E2E2E2E2E2E2E2E2E2E2E2E2E2E2E2E2E2E2BEE2E2E2E2E2E2E2E2E2E2E2E2E2E2E2E2E2E2E2E2E2E2E2E2E2E2E2E2E2E2E2E2E2E2E2E2E2E2E2E2E2E2E2E2E2E2BEE2
310
E2E2E2E2BEE2BEE2BEE2BEE2BEE2E2BEE2E2E2E2E2E2E2E2E2E2E2E2E2E2E2E2E2E2E2E2E2E2E2E2E2E2E2E2E2E2E2E2E2E2E2E2E2E2E2E2E2E2E2E2E2E2E2E22DE28383E2E2E2E28383E2E2E2E28383E2E2E2E28383E2E2E2E28383E2E2E2E28383E2E2E2E28383E2E2E2E28383E22DE2E2E2E2E2E2E2E2E2E2E2E2E2E2E2
310
E2E2E2E2E2E2E2E2E2E2E2E2E2E2E2E2E2E2E2E2E2E2E2E2E2E2E2E2E2E2E2E2E2E2E2E2E2E2E2E2E2E2E2E2E2E2E2E2E2E2E2E2E2E2E2E2E2E2E2E2E2E2E2E2E2E2E2E2E2E2E2E2E2E2E2E2E2E2E2E2BEE2E2E2E2E2E2E2E2E2E2E2E2E2E2E2E2E2E2E2E2E2E2E2E2E2E2E2E2E2E2E2E2E2E2E2E2E2E2E2E2E2E2E2E2E2E2
310
BEE2E2E2E2E2BEE2BEE2BEE2BEE2BEE2E2BEE2E2E2E2E2E2E2E2E2E2E2E2E2E2E2E2E2E2E2E2E2E2E2E2E2E2E2E2E2E2E2E2E2E2E2E2E2E2E2E2E2E2E2E2E2E2E2E22DE28383E2E2E2E28383E2E2E2E28383E2E2E2E28383E2E2E2E28383E2E2E2E28383E2E2E2E28383E2E2E2E28383E22DE2E2E2E2E2E2E2E2E2E2E2E2E2
310
E2E2E2E2E2E2E2E2E2E2E2E2E2E2E2E2E2E2E2E2E2E2E2E2E2E2E2E2E2E2E2E2E2E2E2E2E2E2E2E2E2E2E2E2E2E2E2E2E2E2E2E2E2E2E2E2E2E2E2E2E2E2E2E2E2E2E2E2E2E2E2E2E2E2E2E2E2E2E2E2E2E2BEE2E2E2E2E2E2E2E2E2E2E2E2E2E2E2E2E2E2E2E2E2E2E2E2E2E2E2E2E2E2E2E2E2E2E2E2E2E2E2E2E2E2E2E2
310
E2E2BEE2E2E2E2E2BEE2BEE2BEE2BEE2BEE2E2BEE2E2E2E2E2E2E2E2E2E2E2E2E2E2E2E2E2E2E2E2E2E2E2E2E2E2E2E2E2E2E2E2E2E2E2E2E2E2E2E2E2E2E2E2E2E2E2E2E2E28383E2E2E2E28383E2E2E2E28383E2E2E2E28383E2E2E2E28383E2E2E2E28383E2E2E2E28383E2E2E2E28383E2E2E2E2E2E2E2E2E2E2E2E2E2
310
E2E2E2E2E2E2E2E2E2E2E2E2E2E2E2E2E2E2E2E2E2E2E2E2E2E2E2E2E2E2E2E2E2E2E2E2E2E2E2E2E2E2E2E2E2E2E2E2E2E2E2E2E2E2E2E2E2E2E2E2E2E2E2E2E2E2E2E2E2E2E2E2E2E2E2E2E2E2E2E2E2E2E2E2BEE2E2E2E2E2E2E2E2E2E2E2E2E2E2E2E2E2E2E2E2E2E2E2E2E2E2E2E2E2E2E2E2E2E2E2E2E2E2E2E2E2E2
310
E2E2E2E2BEE2E2E2E2E2BEE2BEE2BEE2BEE2BEE2E2BEE2E2E2E2E2E2E2E2E2E2E2E2E2E2E2E2E2E2E2E2E2E2E2E2E2E2E2E2E2E2E2E2E2E2E2E2E2E2E2E2E2E2E2E2E2E2E2E22DE28383E2E2E2E28383E2E2E2E28383E2E2E2E28383E2E2E2E28383E2E2E2E28383E2E2E2E28383E2E2E2E28383E22DE2E2E2E2E2E2E2E2E2
310
E2E2E2E2E2E2E2E2E2E2E2E2E2E2E2E2E2E2E2E2E2E2E2E2E2E2E2E2E2E2E2E2E2E2E2E2E2E2E2E2E2E2E2E2E2E2E2E2E2E2E2E2E2E2E2E2E2E2E2E2E2E2E2E2E2E2E2E2E2E2E2E2E2E2E2E2E2E2E2E2E2E2E2E2E2E2BEE2E2E2E2E2E2E2E2E2E2E2E2E2E2E2E2E2E2E2E2E2E2E2E2E2E2E2E2E2E2E2E2E2E2E2E2E2E2E2E2
310
E2E2E2E2E2E2BEE2E2E2E2E2BEE2BEE2BEE2BEE2BEE2E2BEE2E2E2E2E2E2E2E2E2E2E2E2E2E2E2E2E2E2E2E2E2E2E2E2E2E2E2E2E2E2E2E2E2E2E2E2E2E2E2E2E2E2E2E2E2E2E2E22DE28383E2E2E2E28383E2E2E2E28383E2E2E2E28383E2E2E2E28383E2E2E2E28383E2E2E2E28383E2E2E2E28383E22DE2E2E2E2E2E2E2
310
E2E2E2E2E2E2E2E2E2E2E2E2E2E2E2E2E2DCDCE2E2E2DCDCDCDCDCDCDCDCDCDCE2E2DCDCDCDCE2DCDCDCE2E2DCDCE2DCDCDCDCE2E2DCDCE2DCDCDCE2E2DCE2DCDCDCDCDCDCE2E2E2E2E2E2E2E2E2E2E2E2E2E2E2E2E2E2E2BEE2E2E2E2E2E2E2E2E2E2E2E2E2E2E2E2E2E2E2E2E2E2E2E2E2E2E2E2E2E2E2E2E2E2E2E2E2E2
310
E2E2E2E2E2E2E2E2BEE2E2E2E2E2BEE2BEE2BEE2BEE2BEE2E2BEE2E2E2E2E2E2E2E2E2E2E2E2E2E2E2E2E2E2E2E2E2E2E2E2E2E2E2E2E2E2E2E2E2E2E2E2E2E2E2E2E2E2E2E2E2E2E2E22DE28383E2E2E2E28383E2E2E2E28383E2E2E2E28383E2E2E2E28383E2E2E2E28383E2E2E2E28383E2E2E2E28383E22DE2E2E2E2E2
310
E2E2E2E2E2E2E2E2E2E2E2E2E2E2E2E2E2E2E2DCDCDCE2E2DCDCDCDCDCDCDCDCDCDCE2E2DCDCDCDCE2DCDCDCE2E2DCDCDCDCDCDCDCE2E2DCDCDCDCDCDCE2E2DCDCDCDCDCDCDCE2DCE2E2E2E2E2E2E2E2E2E2E2E2E2E2E2E2E2E2BEE2E2E2E2E2E2E2E2E2E2E2E2E2E2E2E2E2E2E2E2E2E2E2E2E2E2E2E2E2E2E2E2E2E2E2E2
310
E2E2E2E2E2E2E2E2E2E2BEE2E2E2E2E2BEE2BEE2BEE2BEE2BEE2E2BEE2E2E2E2E2E2E2E2E2E2E2E2E2E2E2E2E2E2E2E2E2E2E2E2E2E2E2E2E2E2E2E2E2E2E2E2E2E2E2E2E2E2E2E2E2E2E2E22DE28383E2E2E2E28383E2E2E2E28383E2E2E2E28383E2E2E2E28383E2E2E2E28383E2E2E2E28383E2E2E2E28383E22DE2E2E2
310
E2E2E2E2E2E2E2E2E2E2E2E2E2E2E2E2E2E2E2E2DCDCDCDCE2DCDCDCDCDCDCDCDCDCDCDCE2E2DCDCDCDCE2E2DCDCDCE2DCDCDCDCDCDCDCE2E2DCDCDCDCDCDCE2E2DCDCDCDCDCDCDCDCDCE2E2E2E2E2E2E2E2E2E2E2E2E2E2E2E2E2E2BEE2E2E2E2E2E2E2E2E2E2E2E2E2E2E2E2E2E2E2E2E2E2E2E2E2E2E2E2E2E2E2E2E2E2
310
E2E2E2E2E2E2E2E2E2E2E2E2BEE2E2E2E2E2BEE2BEE2BEE2BEE2BEE2E2BEE2E2E2E2E2E2E2E2E2E2E2E2E2E2E2E2E2E2E2E2E2E2E2E2E2E2E2E2E2E2E2E2E2E2E2E2E2E2E2E2E2E2E2E2E2E2E2E22DE28383E2E2E2E28383E2E2E2E28383E2E2E2E28383E2E2E2E28383E2E2E2E28383E2E2E2E28383E2E2E2E28383E22DE2
310
E2E2E2E2E2E2E2E2E2E2E2E2E2E2E2E2E2E2E2E2E2E2E2E2E2E2DCE2E2E2E2E2E2E2E2E2E2E2E2E2E2E2E2E2E2E2E2E2E2E2E2E2E2E2E2E2E2E2E2E2E2DCE2E2E2E2E2E2E2E2E2E2E2E2DCE2E2E2E2E2E2E2E2E2E2E2E2E2E2E2E2E2E2E2BEE2E2E2E2E2E2E2E2E2E2E2E2E2E2E2E2E2E2E2E2E2E2E2E2E2E2E2E2E2E2E2E2
310
E2E2E2E2E2E2E2E2E2E2E2E2E2E2BEE2E2E2E2E2BEE2BEE2BEE2BEE2BEE2E2BEE2E2E2E2E2E2E2E2E2E2E2E2E2E2E2E2E2E2E2E2E2E2E2E2E2E2E2E2E2E2E2E2E2E2E2E2E2E2E2E2E2E2E2E2E2E2E2E22DE28383E2E2E2E28383E2E2E2E28383E2E2E2E28383E2E2E2E28383E2E2E2E28383E2E2E2E28383E2E2E2E28383E2
310
2DE2E2E2E2E2E2E2E2E2E2E2E2E2E2E2E2E2E2E2E2E2E2E2DCDCDCE2DCDCE2DCDCDCDCDCDCDCDCDCDCE2E2DCDCDCDCDCDCDCDCE2E2DCDCDCDCDCDCDCDCE2E2DCDCE2DCDCDCDCDCDCDCDCDCDCDCE2E2E2E2E2E2E2E2E2E2E2E2E2E2E2E2E2E2E2BEE2E2E2E2E2E2E2E2E2E2E2E2E2E2E2E2E2E2E2E2E2E2E2E2E2E2E2E2E2E2
310
E2E2E2E2E2E2E2E2E2E2E2E2E2E2E2E2BEE2E2E2E2E2BEE2BEE2BEE2BEE2BEE2E2BEE2E2E2E2E2E2E2E2E2E2E2E2E2E2E2E2E2E2E2E2E2E2E2E2E2E2E2E2E2E2E2E2E2E2E2E2E2E2E2E2E2E2E2E2E2E2E2E2E2E28383E2E2E2E28383E2E2E2E28383E2E2E2E28383E2E2E2E28383E2E2DCDCDCDCDCDCDCDCDCDCDCDCDCDCDC
310
DCDCDCDCDCDCDCDCDCDCDCDCDCDCDCDCDCDCDCDCDCDCDCDCDCE2E2DCDCDCDCDCE2DCDCDCDCDCDCDCDCDCDCE2E2DCDCDCDCDCDCDCDCE2E2DCDCDCDCE2DCDCDCE2E2DCDCDCDCDCDCDCDCDCDCDCDCDCDCE2E2E2E2E2E2E2E2E2E2E2E2E2E2E2E2E2E2E2BEE2E2E2E2E2E2E2E2E2E2E2E2E2E2E2E2E2E2E2E2E2E2E2E2E2E2E2E2
310
E2E2E2E2E2E2E2E2E2E2E2E2E2E2E2E2E2E2BEE2E2E2E2E2BEE2BEE2BEE2BEE2BEE2E2BEE2E2E2E2E2E2E2E2E2E2E2E2E2E2E2E2E2E2E2E2E2E2E2E2E2E2E2E2E2E2E2E2E2E2E2E2E2E2E2E2E2E2E2E2E2E2E2E22DE28383E2E2E2E28383E2E2E2E28383E2E2E2E28383E2E2E2E28383E2DCE2E28383E2E2E2E28383E2E2E2
310
E28383E22DE2E2E2E2E2E2E2E2E2E2E2E2E2E2E2E2E2E2E2E2E2E2E2E2DCDCDCE2E2DCDCDCE2DCDCDCDCDCDCDCE2E2DCDCDCDCDCDCDCDCDCE2DCDCDCDCDCE2DCDCE2E2DCDCDCDCDCDCDCDCDCDCDCDCDCE2E2E2E2E2E2E2E2E2E2E2E2E2E2E2E2E2E2E2E2BEE2E2E2E2E2E2E2E2E2E2E2E2E2E2E2E2E2E2E2E2E2E2E2E2E2E2
310
E2E2E2E2E2E2E2E2E2E2E2E2E2E2E2E2E2E2E2E2BEE2E2E2E2E2BEE2BEE2BEE2BEE2BEE2E2BEE2E2E2E2E2E2E2E2E2E2E2E2E2E2E2E2E2E2E2E2E2E2E2E2E2E2E2E2E2E2E2E2E2E2E2E2E2E2E2E2E2E2E2E2E2E2E2E22DE28383E2E2E2E28383E2E2E2E28383E2E2E2E28383E2E2E2E28383DCE2E2E28383E2E2E2E28383E2
310
E2E2E28383E22DE2E2E2E2E2E2E2E2E2E2E2E2E2E2E2E2E2E2E2E2E2E2E2E2E2E2E2E2E2E2E2E2E2E2E2E2E2E2E2E2E2E2E2E2E2E2E2E2E2E2E2E2E2E2E2E2E2E2E2E2E2E2E2E2E2E2E2E2E2E2E2E2E2E2E2E2E2E2E2E2E2E2E2E2E2E2E2E2E2E2E2E2E2E2E2BEE2E2E2E2E2E2E2E2E2E2E2E2E2E2E2E2E2E2E2E2E2E2E2E2
310
E2E2E2E2E2E2E2E2E2E2E2E2E2E2E2E2E2E2E2E2E2E2BEE2E2E2E2E2BEE2BEE2BEE2BEE2BEE2E2BEE2E2E2E2E2E2E2E2E2E2E2E2E2E2E2E2E2E2E2E2E2E2E2E2E2E2E2E2E2E2E2E2E2E2E2E2E2E2E2E2E2E2E2E2E2E2E2E22DE28383E2E2E2E28383E2E2E2E28383E2E2E2E28383E2E2E2E283DCE2E2E2E28383E2E2E2E283
310
83E2E2E2E28383E22DE2E2E2E2E2E2E2E2E2E2E2E2E2E2E2E2E2E2E2E2E2E2E2E2E2E2E2E2E2E2E2E2E2E2E2E2E2E2E2E2E2E2E2E2E2E2E2E2E2E2E2E2E2E2E2E2E2E2E2E2E2E2E2E2E2E2E2E2E2E2E2E2E2E2E2E2E2E2E2E2E2E2E2E2E2E2E2E2E2E2E2E2E2E2E2BEE2E2E2E2E2E2E2E2E2E2E2E2E2E2E2E2E2E2E2E2E2E2
310
E2E2E2E2E2E2E2E2E2E2E2E2E2E2E2E2E2E2E2E2E2E2E2E2BEE2E2E2E2E2BEE2BEE2BEE2BEE2BEE2E2BEE2E2E2E2E2E2E2E2E2E2E2E2E2E2E2E2E2E2E2E2E2E2E2E2E2E2E2E2E2E2E2E2E2E2E2E2E2E2E2E2E2E2E2E2E2E2E2E22DE28383E2E2E2E28383E2E2E2E28383E2E2E2E28383E2E2E2E2DC83E2E2E2E28383E2E2E2
310
E28383E2E2E2E28383E22DE2E2E2E2E2E2E2E2E2E2E2E2E2E2E2E2E2E2E2E2E2E2E2E2E2E2E2E2E2E2E2E2E2E2E2E2E2E2E2E2E2E2E2E2E2E2E2E2E2E2E2E2E2E2E2E2E2E2E2E2E2E2E2E2E2E2E2E2E2E2E2E2E2E2E2E2E2E2E2E2E2E2E2E2E2E2E2E2E2E2E2E2E2E2E2BEE2E2E2E2E2E2E2E2E2E2E2E2E2E2E2E2E2E2E2E2
310
E2E2E2E2E2E2E2E2E2E2E2E2E2E2E2E2E2E2E2E2E2E2E2E2E2E2BEE2E2E2E2E2BEE2BEE2BEE2BEE2BEE2E2BEE2E2E2E2E2E2E2E2E2E2E2E2E2E2E2E2E2E2E2E2E2E2E2E2E2E2E2E2E2E2E2E2E2E2E2E2E2E2E2E2E2E2E2E2E2E2E2E22DE28383E2E2E2E28383E2E2E2E28383E2E2E2E28383E2E2E2DC8383E2E2E2E28383E2
310
E2E2E28383E2E2E2E28383E22DE2E2E2E2E2E2E2E2E2E2E2E2E2E2E2E2E2E2E2E2E2E2E2E2E2E2E2E2E2E2E2E2E2E2E2E2E2E2E2E2E2E2E2E2E2E2E2E2E2E2E2E2E2E2E2E2E2E2E2E2E2E2E2E2E2E2E2E2E2E2E2E2E2E2E2E2E2E2E2E2E2E2E2E2E2E2E2E2E2E2E2E2E2E2E2BEE2E2E2E2E2E2E2E2E2E2E2E2E2E2E2E2E2E2
310
E2E2E2E2E2E2E2E2E2E2E2E2E2E2E2E2E2E2E2E2E2E2E2E2E2E2E2E2BEE2E2E2E2E2BEE2BEE2BEE2BEE2BEE2E2BEE2E2E2E2E2E2E2E2E2E2E2E2E2E2E2E2E2E2E2E2E2E2E2E2E2E2E2E2E2E2E2E2E2E2E2E2E2E2E2E2E2E2E2E2E2E2E2E22DE28383E2E2E2E28383E2E2E2E28383E2E2E2E28383E2E2DCE28383E2E2E2E283
310
83E2E2E2E28383E2E2E2E28383E22DE2E2E2E2E2E2E2E2E2E2E2E2E2E2E2E2E2E2E2E2E2E2E2E2E2E2E2E2E2E2E2E2E2E2E2E2E2E2E2E2E2E2E2E2E2E2E2E2E2E2E2E2E2E2E2E2E2E2E2E2E2E2E2E2E2E2E2E2E2E2E2E2E2E2E2E2E2E2E2E2E2E2E2E2E2E2E2E2E2E2E2E2E2E2E2BEE2E2E2E2E2E2E2E2E2E2E2E2E2E2E2E2
310
E2E2E2E2E2E2E2E2E2E2E2E2E2E2E2E2E2E2E2E2E2E2E2E2E2E2E2E2E2E2BEE2E2E2E2E2BEE2BEE2BEE2BEE2BEE2E2BEE2E2E2E2E2E2E2E2E2E2E2E2E2E2E2E2E2E2E2E2E2E2E2E2E2E2E2E2E2E2E2E2E2E2E2E2E2E2E2E2E2E2E2E2E2E2E2E2E2E28383E2E2E2E28383E2E2E2E28383E2E2E2E28383E2DCE2E28383E2E2E2
310
E28383E2E2E2E28383E2E2E2E28383E2E2E2E2E2E2E2E2E2E2E2E2E2E2E2E2E2E2E2E2E2E2E2E2E2E2E2E2E2E2E2E2E2E2E2E2E2E2E2E2E2E2E2E2E2E2E2E2E2E2E2E2E2E2E2E2E2E2E2E2E2E2E2E2E2E2E2E2E2E2E2E2E2E2E2E2E2E2E2E2E2E2E2E2E2E2E2E2E2E2E2E2E2E2E2E2E2BEE2E2E2E2E2E2E2E2E2E2E2E2E2E2
310
E2E2E2E2E2E2E2E2E2E2E2E2E2E2E2E2E2E2E2E2E2E2E2E2E2E2E2E2E2E2E2E2BEE2E2E2E2E2BEE2BEE2BEE2BEE2BEE2E2BEE2E2E2E2E2E2E2E2E2E2E2E2E2E2E2E2E2E2E2E2E2E2E2E2E2E2E2E2E2E2E2E2E2E2E2E2E2E2E2E2E2E2E2E2E2E2E2E2E2E28383E2E2E2E28383E2E2E2E28383E2E2E2E28383DCE2E2E28383E2
310
E2E2E28383E2E2E2E28383E2E2E2E28383E2DCDCDCDCDCDCDCDCDCDCDCDCDCDCDCDCDCDCDCDCDCDCE2DCDCDCDCDCDCDCDCE2DCE2DCDCDCDCDCDCDCDCDCDCDCE2DCE2E2E2E2E2E2E2E2E2E2E2E2E2E2E2E2E2E2E2E2E2E2E2E2E2E2E2E2E2E2E2E2E2E2E2E2E2E2E2E2E2E2E2E2E2E2E2E2E2BEE2E2E2E2E2E2E2E2E2E2E2E2
310
E2E2E2E2E2E2E2E2E2E2E2E2E2E2E2E2E2E2E2E2E2E2E2E2E2E2E2E2E2E2E2E2E2E2BEE2E2E2E2E2BEE2BEE2BEE2BEE2BEE2E2BEE2E2E2E2E2E2E2E2E2E2E2E2E2E2E2E2E2E2E2E2E2E2E2E2E2E2E2E2E2E2E2E2E2E2E2E2E2E2E2E2E2E2E2E2E2E2E2E22DE28383E2E2E2E28383E2E2E2E28383E2E2E2E2DCDCE2E2E2E283
310
83E2E2E2E28383E2E2E2E28383E2E2E2E28383E22DDCDCE2E2E2E2E2E2E2E2E2E2E2E2E2E2E2E2E2E2E2E2E2DCDCDCDCDCDCE2E2DCDCDCDCDCDCDCDCDCDCDCDCDCDCDCE2E2E2E2E2E2E2E2E2E2E2E2E2E2E2E2E2E2E2E2E2E2E2E2E2E2E2E2E2E2E2E2E2E2E2E2E2E2E2E2E2E2E2E2E2E2E2E2E2BEE2E2E2E2E2E2E2E2E2E2
310
E2E2E2E2E2E2E2E2E2E2E2E2E2E2E2E2E2E2E2E2E2E2E2E2E2E2E2E2E2E2E2E2E2E2E2E2BEE2E2E2E2E2BEE2BEE2BEE2BEE2BEE2E2BEE2E2E2E2E2E2E2E2E2E2E2E2E2E2E2E2E2E2E2E2E2E2E2E2E2E2E2E2E2E2E2E2E2E2E2E2E2E2E2E2E2E2E2E2E2E2E2E22DE28383E2E2E2E28383E2E2E2E28383E2E2E2DCDC83E2E2E2
310
E28383E2E2E2E28383E2E2E2E28383E2E2E2E28383E22DE2E2E2E2E2E2E2E2E2E2E2E2E2E2E2E2E2E2E2E2E2E2E2E2E2E2E2E2E2E2E2E2E2E2E2E2E2E2E2E2E2E2E2E2E2E2E2E2E2E2E2E2E2E2E2E2E2E2E2E2E2E2E2E2E2E2E2E2E2E2E2E2E2E2E2E2E2E2E2E2E2E2E2E2E2E2E2E2E2E2E2E2E2E2E2BEE2E2E2E2E2E2E2E2
310
E2E2E2E2E2E2E2E2E2E2E2E2E2E2E2E2E2E2E2E2E2E2E2E2E2E2E2E2E2E2E2E2E2E2E2E2E2E2BEE2E2E2E2E2BEE2BEE2BEE2BEE2BEE2E2BEE2E2E2E2E2E2E2E2E2E2E2E2E2E2E2E2E2E2E2E2E2E2E2E2E2E2E2E2E2E2E2E2E2E2E2E2E2E2E2E2E2E2E2E2E2E2E2E22DE28383E2E2E2E28383E2E2E2E283832D2DDCDC8383E2
310
E2E2E28383E2E2E2E28383E2E2E2E28383E2E2E2E28383E22DE2E2E2E2E2E2E2E2E2E2E2E2E2E2E2E2E2E2E2E2E2E2E2E2E2E2E2E2E2E2E2E2E2E2E2E2E2E2E2E2E2E2E2E2E2E2E2E2E2E2E2E2E2E2E2E2E2E2E2E2E2E2E2E2E2E2E2E2E2E2E2E2E2E2E2E2E2E2E2E2E2E2E2E2E2E2E2E2E2E2E2E2E2E2E2BEE2E2E2E2E2E2
310
E2E2E2E2E2E2E2E2E2E2E2E2E2E2E2E2E2E2E2E2E2E2E2E2E2E2E2E2E2E2E2E2E2E2E2E2E2E2E2E2BEE2E2E2E2E2BEE2BEE2BEE2BEE2BEE2E2BEE2E2E2E2E2E2E2E2E2E2E2E2E2E2E2E2E2E2E2E2E2E2E2E2E2E2E2E2E2E2E2E2E2E2E2E2E2E2E2E2E2E2E2E2E2E2E2E22DE28383E2E2E2E28383E2E2E2E2832D2DDCDC2D2D
310
83E2E2E2E28383E2E2E2E28383E2E2E2E28383E2E2E2E28383E22DE2E2E2E2E2E2E2E2E2E2E2E2E2E2E2E2E2E2E2E2E2E2E2E2E2E2E2E2E2E2E2E2E2E2E2E2E2E2E2E2E2E2E2E2E2E2E2E2E2E2E2E2E2E2E2E2E2E2E2E2E2E2E2E2E2E2E2E2E2E2E2E2E2E2E2E2E2E2E2E2E2E2E2E2E2E2E2E2E2E2E2E2E2E2E2BEE2E2E2E2
310
E2E2E2E2E2E2E2E2E2E2E2E2E2E2E2E2E2E2E2E2E2E2E2E2E2E2E2E2E2E2E2E2E2E2E2E2E2E2E2E2E2E2BEE2E2E2E2E2BEE2BEE2BEE2BEE2BEE2E2BEE2E2E2E2E2E2E2E2E2E2E2E2E2E2E2E2E2E2E2E2E2E2E2E2E2E2E2E2E2E2E2E2E2E2E2E2E2E2E2E2E2E2E2E2E2E2E2E22DE2838383838383838383838383832DDCDCDC
310
E22D83838383838383838383838383838383838383838383838383E22DE2E2E2E2E2E2E2E2E2E2E2E2E2E2E2E2E2E2E2E2E2E2E2E2E2E2E2E2E2E2E2E2E2E2E2E2E2E2E2E2E2E2E2E2E2E2E2E2E2E2E2E2E2E2E2E2E2E2E2E2E2E2E2E2E2E2E2E2E2E2E2E2E2E2E2E2E2E2E2E2E2E2E2E2E2E2E2E2E2E2E2E2E2E2E2BEE2E2
310
E2E2E2E2E2E2E2E2E2E2E2E2E2E2E2E2E2E2E2E2E2E2E2E2E2E2E2E2E2E2E2E2E2E2E2E2E2E2E2E2E2E2E2E2BEE2E2E2E2E2BEE2BEE2BEE2BEE2BEE2E2BEE2E2E2E2E2E2E2E2E2E2E2E2E2E2E2E2E2E2E2E2E2E2E2E2E2E2E2E2E2E2E2E2E2E2E2E2E2E2E2E2E2E2E2E2E2E2E2E22DE2838383838383838383838383832DDC
310
DCDCE22D838383838383838383DC838383838383838383838383838383E22DE2E2E2E2E2E2E2E2E2E2E2E2E2E2E2E2E2E2E2E2E2E2E2E2E2E2E2E2E2E2E2E2E2E2E2E2E2E2E2E2E2E2E2E2E2E2E2E2E2E2E2E2E2E2E2E2E2E2E2E2E2E2E2E2E2E2E2E2E2E2E2E2E2E2E2E2E2E2E2E2E2E2E2E2E2E2E2E2E2E2E2E2E2E2E2BE
310
E2E2E2E2E2E2E2E2E2E2E2E2E2E2E2E2E2E2E2E2E2E2E2E2E2E2E2E2E2E2E2E2E2E2E2E2E2E2E2E2E2E2E2E2E2E2BEE2E2E2E2E2BEE2BEE2BEE2BEE2BEE2E2BEE2E2E2E2E2E2E2E2E2E2E2E2E2E2E2E2E2E2E2E2E2E2E2E2E2E2E2E2E2E2E2E2E2E2E2E2E2E2E2E2E2E2E2E2E2E2E2E2E2E28383E2E2E2E28383E2E2E2E283
310
2DE2E2E2E22D83E2E2E2E28383E2E2E2DCDC83E2E2E2E28383E2E2E2E28383E2E2E2E2E2E2E2E2E2E2E2E2E2E2E2E2E2E2E2E2E2E2E2E2E2E2DCE2E2E2E2E2E2E2E2E2E2E2E2E2E2E2E2E2E2E2E2E2E2E2E2E2E2E2E2E2E2E2E2E2E2E2E2E2E2E2E2E2E2E2E2DCE2E2E2E2E2E2E2E2E2E2E2E2E2E2E2E2E2E2E2E2E2E2E2E2
310
E2BEE2E2E2E2E2E2E2E2E2E2E2E2E2E2E2E2E2E2E2E2E2E2E2E2E2E2E2E2E2E2E2E2E2E2E2E2E2E2E2E2E2E2E2E2E2E2BEE2E2E2E2E2BEE2BEE2BEE2BEE2BEE2E2BEE2E2E2E2E2E2E2E2E2E2E2E2E2E2E2E2E2E2E2E2E2E2E2E2E2E2E2E2E2E2E2E2E2E2E2E2E2E2E2E2E2E2E2E2E2E2E2E22DE28383E2E2E2E28383E2E2E2
310
E283832D2D2D2D8383E2E2E2E28383E2E2E2E2DCDCDCE2E2E28383E2E2E2E28383E22DE2E2E2E2E2E2E2E2E2E2E2E2E2E2E2E2E2E2E2E2E2E2E2DCDCDCDCDCDCDCDCDCDCE2DCDCDCDCE2DCDCDCE2DCE2DCDCDCDCDCDCDCDCDCDCE2DCDCDCDCE2E2DCDCDCDCDCDCDCDCE2E2E2E2E2E2E2E2E2E2E2E2E2E2E2E2E2E2E2E2E2E2
310
E2E2E2BEE2E2E2E2E2E2E2E2E2E2E2E2E2E2E2E2E2E2E2E2E2E2E2E2E2E2E2E2E2E2E2E2E2E2E2E2E2E2E2E2E2E2E2E2E2E2BEE2E2E2E2E2BEE2BEE2BEE2BEE2BEE2E2BEE2E2E2E2E2E2E2E2E2E2E2E2E2E2E2E2E2E2E2E2E2E2E2E2E2E2E2E2E2E2E2E2E2E2E2E2E2E2E2E2E2E2E2E2E2E2E2E22DE28383E2E2E2E28383E2
310
E2E2E28383E2E2E2E28383E2E2E2E28383E2E2E2E28383E2DCDCE28383E2E2E2E28383E22DE2E2E2E2E2E2E2E2E2E2E2E2E2E2E2E2E2E2E2E2E2E2E2DCDCDCDCDCDCDCDCDCDCDCDCDCDCDCE2DCE2DCDCDCE2DCDCDCDCDCDCDCDCDCDCE2DCDCDCDCE2E2DCDCDCDCDCDCDCDCE2E2E2E2E2E2E2E2E2E2E2E2E2E2E2E2E2E2E2E2
310
E2E2E2E2E2BEE2E2E2E2E2E2E2E2E2E2E2E2E2E2E2E2E2E2E2E2E2E2E2E2E2E2E2E2E2E2E2E2E2E2E2E2E2E2E2E2E2E2E2E2E2E2BEE2E2E2E2E2BEE2BEE2BEE2BEE2BEE2E2BEE2E2E2E2E2E2E2E2E2E2E2E2E2E2E2E2E2E2E2E2E2E2E2E2E2E2E2E2E2E2E2E2E2E2E2E2E2E2E2E2E2E2E2E2E2E2E2E22DE28383E2E2E2E283
310
83E2E2E2E28383E2E2E2E28383E2E2E2E28383E2E2E2E28383E2E2E2DCDC83E2E2E2E28383E22DE2E2E2E2E2E2E2E2E2E2E2E2E2E2E2E2E2E2E2E2E2E2E2DCDCDCDCDCDCDCDCDCDCDCDCDCDCDCE2E2DCDCE2DCDCDCDCDCDCDCDCDCDCDCDCE2DCDCDCDCE2E2DCDCDCDCDCDCDCDCE2E2E2E2E2E2E2E2E2E2E2E2E2E2E2E2E2E2
310
E2E2E2E2E2E2E2BEE2E2E2E2E2E2E2E2E2E2E2E2E2E2E2E2E2E2E2E2E2E2E2E2E2E2E2E2E2E2E2E2E2E2E2E2E2E2E2E2E2E2E2E2E2E2BEE2E2E2E2E2BEE2BEE2BEE2BEE2BEE2E2BEE2E2E2E2E2E2E2E2E2E2E2E2E2E2E2E2E2E2E2E2E2E2E2E2E2E2E2E2E2E2E2E2E2E2E2E2E2E2E2E2E2E2E2E2E2E2E2E22DE28383E2E2E2
310
E28383E2E2E2E28383E2E2E2E28383E2E2E2E28383E2E2E2E28383E2E2E2E283DCDCE2E2E28383E22DE2E2E2E2E2E2E2E2E2E2E2E2E2E2E2E2E2E2E2E2E2E2E2DCDCDCDCDCDCDCDCDCE2E2DCDCDCDCDCDCDCDCDCDCDCDCE2DCE2DCDCE2E2DCDCDCDCDCE2DCDCDCDCDCDCE2E2E2E2E2E2E2E2E2E2E2E2E2E2E2E2E2E2E2E2E2
310
E2E2E2E2E2E2E2E2E2BEE2E2E2E2E2E2E2E2E2E2E2E2E2E2E2E2E2E2E2E2E2E2E2E2E2E2E2E2E2E2E2E2E2E2E2E2E2E2E2E2E2E2E2E2E2E2BEE2E2E2E2E2BEE2BEE2BEE2BEE2BEE2E2BEE2E2E2E2E2E2E2E2E2E2E2E2E2E2E2E2E2E2E2E2E2E2E2E2E2E2E2E2E2E2E2E2E2E2E2E2E2E2E2E2E2E2E2E2E2E2E2E22DE28383E2
310
E2E2E28383E2E2E2E28383E2E2E2E28383E2E2E2E28383E2E2E2E28383E2E2E2E28383E2DCDCDCDCDCDCDCDCDCDCDCDCDCDCDCDCDCDCDCDCDCDCDCDCDCDCDCDCDCE2DCDCDCDCDCDCDCDCE2E2E2DCDCDCDCDCDCDCDCDCDCDCDCE2DCDCDCDCDCE2DCDCDCDCDCDCDCE2DCDCDCDCE2E2E2E2E2E2E2E2E2E2E2E2E2E2E2E2E2E2E2
310
E2E2E2E2E2E2E2E2E2E2E2BEE2E2E2E2E2E2E2E2E2E2E2E2E2E2E2E2E2E2E2E2E2E2E2E2E2E2E2E2E2E2E2E2E2E2E2E2E2E2E2E2E2E2E2E2E2E2BEE2E2E2E2E2BEE2BEE2BEE2BEE2BEE2E2BEE2E2E2E2E2E2E2E2E2E2E2E2E2E2E2E2E2E2E2E2E2E2E2E2E2E2E2E2E2E2E2E2E2E2E2E2E2E2E2E2E2E2E2E2E2E2E2E22DE283
310
83E2E2E2E28383E2E2E2E28383E2E2E2E28383E2E2E2E28383E2E2E2E28383E2E2E2E28383E2E2E2E28383E22DE2E2E2E2E2E2E2E2E2E2E2E2E2E2E2E2E2E2E2E2E2E2E2DCDCDCE2DCDCDCDCDCE2DCDCE2E2E2DCDCDCE2E2E2E2E2E2DCDCDCDCDCE2DCDCDCDCDCDCDCE2DCDCDCDCE2E2E2E2E2E2E2E2E2E2E2E2E2E2E2E2E2
310
E2E2E2E2E2E2E2E2E2E2E2E2E2BEE2E2E2E2E2E2E2E2E2E2E2E2E2E2E2E2E2E2E2E2E2E2E2E2E2E2E2E2E2E2E2E2E2E2E2E2E2E2E2E2E2E2E2E2E2E2BEE2E2E2E2E2BEE2BEE2BEE2BEE2BEE2E2BEE2E2E2E2E2E2E2E2E2E2E2E2E2E2E2E2E2E2E2E2E2E2E2E2E2E2E2E2E2E2E2E2E2E2E2E2E2E2E2E2E2E2E2E2E2E2E2E2E2
310
E28383E2E2E2E28383E2E2E2E28383E2E2E2E28383E2E2E2E28383E2E2E2E28383E2E2E2E28383E2E2E2E28383E2E2E2E2E2E2E2E2E2E2E2E2E2E2E2E2E2E2E2E2E2E2E2E2E2E2E2E2E2E2E2E2E2E2E2E2E2E2E2E2E2E2E2E2E2E2E2E2E2E2E2E2E2E2E2E2E2E2E2E2E2E2E2E2E2E2E2E2E2E2E2E2E2E2E2E2E2E2E2E2E2E2
310
E2E2E2E2E2E2E2E2E2E2E2E2E2E2E2BEE2E2E2E2E2E2E2E2E2E2E2E2E2E2E2E2E2E2E2E2E2E2E2E2E2E2E2E2E2E2E2E2E2E2E2E2E2E2E2E2E2E2E2E2E2E2BEE2E2E2E2E2BEE2BEE2BEE2BEE2BEE2E2BEE2E2E2E2E2E2E2E2E2E2E2E2E2E2E2E2E2E2E2E2E2E2E2E2E2E2E2E2E2E2E2E2E2E2E2E2E2E2E2E2E2E2E2E2E2E2E2
310
E2E2E28383E2E2E2E28383E2E2E2E28383E2E2E2E28383E2E2E2E28383E2E2E2E28383E2E2E2E28383E2E2E2E28383E2E2E2E2E2E2E2E2E2E2E2E2E2E2E2E2E2E2E2E2E2E2E2E2E2E2E2E2E2E2E2E2E2E2E2E2E2E2E2E2E2E2E2E2E2E2E2E2E2E2E2E2E2E2E2E2E2E2E2E2E2E2E2E2E2E2E2E2E2E2E2E2E2E2E2E2E2E2E2E2
310
E2E2E2E2E2E2E2E2E2E2E2E2E2E2E2E2E2BEE2E2E2E2E2E2E2E2E2E2E2E2E2E2E2E2E2E2E2E2E2E2E2E2E2E2E2E2E2E2E2E2E2E2E2E2E2E2E2E2E2E2E2E2E2E2BEE2E2E2E2E2BEE2BEE2BEE2BEE2BEE2E2BEE2E2E2E2E2E2E2E2E2E2E2E2E2E2E2E2E2E2E2E2E2E2E2E2E2E2E2E2E2E2E2E2E2E2E2E2E2E2E2E2E2E2E2E2E2
310
E2E2E22DE28383E2E2E2E28383E2E2E2E28383E2E2E2E28383E2E2E2E28383E2E2E2E28383E2E2E2E28383E2E2E2E28383E22DE2E2E2E2E2E2E2E2E2E2E2E2E2E2E2E2E2E2E2E2E2E2E2E2E2E2E2E2E2E2E2E2E2E2E2E2E2E2E2E2E2E2E2E2E2E2E2E2E2E2E2E2E2E2E2E2E2E2E2E2E2E2E2E2E2E2E2E2E2E2E2E2E2E2E2E2
310
E2E2E2E2E2E2E2E2E2E2E2E2E2E2E2E2E2E2E2BEE2E2E2E2E2E2E2E2E2E2E2E2E2E2E2E2E2E2E2E2E2E2E2E2E2E2E2E2E2E2E2E2E2E2E2E2E2E2E2E2E2E2E2E2E2E2BEE2E2E2E2E2BEE2BEE2BEE2BEE2BEE2E2BEE2E2E2E2E2E2E2E2E2E2E2E2E2E2E2E2E2E2E2E2E2E2E2E2E2E2E2E2E2E2E2E2E2E2E2E2E2E2E2E2E2E2E2
310
E2E2E2E2E22DE28383E2E2E2E28383E2E2E2E28383E2E2E2E28383E2E2E2E28383E2E2E2E28383E2E2E2E28383E2E2E2E28383E22DE2E2E2E2E2E2E2E2E2E2E2E2E2E2E2E2E2E2E2E2E2E2E2E2E2E2E2E2E2E2E2E2E2DCDCDCE2E2E2E2E2E2E2E2E2E2E2E2E2E2E2E2E2E2E2E2E2E2E2E2E2E2E2E2E2E2E2E2E2E2E2E2E2E2
310
E2E2E2E2E2E2E2E2E2E2E2E2E2E2E2E2E2E2E2E2E2BEE2E2E2E2E2E2E2E2E2E2E2E2E2E2E2E2E2E2E2E2E2E2E2E2E2E2E2E2E2E2E2E2E2E2E2E2E2E2E2E2E2E2E2E2E2E2BEE2E2E2E2E2BEE2BEE2BEE2BEE2BEE2E2BEE2E2E2E2E2E2E2E2E2E2E2E2E2E2E2E2E2E2E2E2E2E2E2E2E2E2E2E2E2E2E2E2E2E2E2E2E2E2E2E2E2
310
E2E2E2E2E2E2E22DE28383E2E2E2E28383E2E2E2E28383E2E2E2E28383E2E2E2E28383E2E2E2E28383E2E2E2E28383E2E2E2E28383E22DE2E2E2E2E2E2E2E2E2E2E2E2E2E2E2E2E2E2E2E2E2E2E2E2DCDCDCDCDCDCDCDCDCDCDCDCE2DCE2DCDCE2E2DCDCDCDCDCE2DCDCDCDCDCDCE2E2E2E2E2E2E2E2E2E2E2E2E2E2E2E2E2
310
E2E2E2E2E2E2E2E2E2E2E2E2E2E2E2E2E2E2E2E2E2E2E2BEE2E2E2E2E2E2E2E2E2E2E2E2E2E2E2E2E2E2E2E2E2E2E2E2E2E2E2E2E2E2E2E2E2E2E2E2E2E2E2E2E2E2E2E2E2E2BEE2E2E2E2E2BEE2BEE2BEE2BEE2BEE2E2BEE2E2E2E2E2E2E2E2E2E2E2E2E2E2E2E2E2E2E2E2E2E2E2E2E2E2E2E2E2E2E2E2E2E2E2E2E2E2E2
310
E2E2E2E2E2E2E2E2E22DE28383E2E2E2E28383E2E2E2E28383E2E2E2E28383E2E2E2E28383E2E2E2E28383E2E2E2E28383E2E2E2E28383E22DE2E2E2E2E2E2E2E2E2E2E2E2E2DCDCDCDCDCDCDCDCDCE2E2DCDCDCDCDCDCDCDCDCDCDCDCE2DCDCDCDCDCE2DCDCDCDCDCDCDCE2DCDCDCDCE2E2E2E2E2E2E2E2E2E2E2E2E2E2E2
310
E2E2E2E2E2E2E2E2E2E2E2E2E2E2E2E2E2E2E2E2E2E2E2E2E2BEE2E2E2E2E2E2E2E2E2E2E2E2E2E2E2E2E2E2E2E2E2E2E2E2E2E2E2E2E2E2E2E2E2E2E2E2E2E2E2E2E2E2E2E2E2E2BEE2E2E2E2E2BEE2BEE2BEE2BEE2BEE2E2BEE2E2E2E2E2E2E2E2E2E2E2E2E2E2E2E2E2E2E2E2E2E2E2E2E2E2E2E2E2E2E2E2E2E2E2E2E2
310
E2E2E2E2E2E2E2E2E2E2E22DE28383E2E2E2E28383E2E2E2E28383E2E2E2E28383E2E2E2E28383E2E2E2E28383E2E2E2E28383E2E2E2E28383E22DE2E2E2E2E2E2E2E2E2E2DCDCDCE2E2E2E2E2E2E2E2E2E2DCDCE2E2E2DCDCDCE2E2E2E2E2E2DCDCDCDCDCE2DCDCDCDCDCDCDCE2DCDCDCDCE2E2E2E2E2E2E2E2E2E2E2E2E2
310
E2E2E2E2E2E2E2E2E2E2E2E2E2E2E2E2E2E2E2E2E2E2E2E2E2E2E2BEE2E2E2E2E2E2E2E2E2E2E2E2E2E2E2E2E2E2E2E2E2E2E2E2E2E2E2E2E2E2E2E2E2E2E2E2E2E2E2E2E2E2E2E2E2E2BEE2E2E2E2E2BEE2BEE2BEE2BEE2BEE2E2BEE2E2E2E2E2E2E2E2E2E2E2E2E2E2E2E2E2E2E2E2E2E2E2E2E2E2E2E2E2E2E2E2E2E2E2
310
E2E2E2E2E2E2E2E2E2E2E2E2E22DE28383E2E2E2E28383E2E2E2E28383E2E2E2E28383E2E2E2E28383E2E2E2E28383E2E2E2E28383E2E2E2E28383E22DE2E2E2E2E2E2E2DCDCDCE2E2E2E2E2E2E2E2E2E2E2E2E2E2E2E2E2E2E2E2E2E2E2E2E2E2E2E2E2E2E2E2E2E2E2E2E2E2E2E2E2E2E2E2E2E2E2E2E2E2E2E2E2E2E2E2
310
E2E2E2E2E2E2E2E2E2E2E2E2E2E2E2E2E2E2E2E2E2E2E2E2E2E2E2E2E2BEE2E2E2E2E2E2E2E2E2E2E2E2E2E2E2E2E2E2E2E2E2E2E2E2E2E2E2E2E2E2E2E2E2E2E2E2E2E2E2E2E2E2E2E2E2E2BEE2E2E2E2E2BEE2BEE2BEE2BEE2BEE2E2BEE2E2E2E2E2E2E2E2E2E2E2E2E2E2E2E2E2E2E2E2E2E2E2E2E2E2E2E2E2E2E2E2E2
310
E2E2E2E2E2E2E2E2E2E2E2E2E2E2E2E2E28383E2E2E2E28383E2E2E2E28383E2E2E2E28383E2E2E2E28383E2E2E2E28383E2E2E2E28383E2E2E2E28383E2E2E2E2E2E2DCDCDCE2E2E2E2E2E2E2E2E2E2E2E2E2E2E2E2E2E2E2E2E2E2E2E2E2E2E2E2E2E2E2E2E2E2E2E2E2E2E2E2E2E2E2E2E2E2E2E2E2E2E2E2E2E2E2E2E2
310
E2E2E2E2E2E2E2E2E2E2E2E2E2E2E2E2E2E2E2E2E2E2E2E2E2E2E2E2E2E2E2BEE2E2E2E2E2E2E2E2E2E2E2E2E2E2E2E2E2E2E2E2E2E2E2E2E2E2E2E2E2E2E2E2E2E2E2E2E2E2E2E2E2E2E2E2E2E2BEE2E2E2E2E2BEE2BEE2BEE2BEE2BEE2E2BEE2E2E2E2E2E2E2E2E2E2E2E2E2E2E2E2E2E2E2E2E2E2E2E2E2E2E2E2E2E2E2
310
E2E2E2E2E2E2E2E2E2E2E2E2E2E2E2E2E22DE28383E2E2E2E28383E2E2E2E28383E2E2E2E28383E2E2E2E28383E2E2E2E28383E2E2E2E28383E2E2E2E28383E22DE2DCDCDCE2E2E2E2E2E2E2E2E2E2E2E2E2E2E2E2E2E2E2E2E2E2E2E2E2E2E2E2E2E2E2E2E2E2E2E2E2E2E2E2E2E2E2E2E2E2E2E2E2E2E2E2E2E2E2E2E2E2
310
E2E2E2E2E2E2E2E2E2E2E2E2E2E2E2E2E2E2E2E2E2E2E2E2E2E2E2E2E2E2E2E2E2BEE2E2E2E2E2E2E2E2E2E2E2E2E2E2E2E2E2E2E2E2E2E2E2E2E2E2E2E2E2E2E2E2E2E2E2E2E2E2E2E2E2E2E2E2E2E2BEE2E2E2E2E2BEE2BEE2BEE2BEE2BEE2E2BEE2E2E2E2E2E2E2E2E2E2E2E2E2E2E2E2E2E2E2E2E2E2E2E2E2E2E2E2E2
310
E2E2E2E2E2E2E2E2E2E2E2E2E2E2E2E2E2E2E22DE28383E2E2E2E28383E2E2E2E28383E2E2E2E28383E2E2E2E28383E2E2E2E28383E2E2E2E28383E2E2E2E28383DC2DDCE2E2E2E2E2E2E2E2E2E2E2E2E2E2E2E2E2E2E2E2E2E2E2E2E2E2E2E2E2E2E2E2E2E2E2E2E2E2E2E2E2E2E2E2E2E2E2E2E2E2E2E2E2E2E2E2E2E2E2
310
E2E2E2E2E2E2E2E2E2E2E2E2E2E2E2E2E2E2E2E2E2E2E2E2E2E2E2E2E2E2E2E2E2E2E2BEE2E2E2E2E2E2E2E2E2E2E2E2E2E2E2E2E2E2E2E2E2E2E2E2E2E2E2E2E2E2E2E2E2E2E2E2E2E2E2E2E2E2E2E2E2E2BEE2E2E2E2E2BEE2BEE2BEE2BEE2BEE2E2BEE2E2E2E2E2E2E2E2E2E2E2E2E2E2E2E2E2E2E2E2E2E2E2E2E2E2E2
310
E2E2E2E2E2E2E2E2E2E2E2E2E2E2E2E2E2E2E2E2E22DE28383E2E2E2E28383E2E2E2E28383E2E2E2E28383E2E2E2E28383E2E2E2E28383E2E2E2E28383E2E2E2DC8383E22DE2E2E2E2E2E2E2E2E2E2E2E2E2E2E2E2E2E2E2E2E2E2E2E2E2E2E2E2E2E2E2E2E2E2E2E2E2E2E2E2E2E2E2E2E2E2E2E2E2E2E2E2E2E2E2E2E2E2
310
E2E2E2E2E2E2E2E2E2E2E2E2E2E2E2E2E2E2E2E2E2E2E2E2E2E2E2E2E2E2E2E2E2E2E2E2E2BEE2E2E2E2E2E2E2E2E2E2E2E2E2E2E2E2E2E2E2E2E2E2E2E2E2E2E2E2E2E2E2E2E2E2E2E2E2E2E2E2E2E2E2E2E2E2BEE2E2E2E2E2BEE2BEE2BEE2BEE2BEE2E2BEE2E2E2E2E2E2E2E2E2E2E2E2E2E2E2E2E2E2E2E2E2E2E2E2E2
310
E2E2E2E2E2E2E2E2E2E2E2E2E2E2E2E2E2E2E2E2E2E2E22DE28383E2E2E2E28383E2E2E2E28383E2E2E2E28383E2E2E2E28383E2E2E2E28383E2E2E2E28383E2DCDCE28383E22DE2E2E2E2E2E2E2E2E2E2E2E2E2E2E2E2E2E2E2E2E2E2E2E2E2E2E2E2E2E2E2E2E2E2E2E2E2E2E2E2E2E2E2E2E2E2E2E2E2E2E2E2E2E2E2E2
310
E2E2E2E2E2E2E2E2E2E2E2E2E2E2E2E2E2E2E2E2E2E2E2E2E2E2E2E2E2E2E2E2E2E2E2E2E2E2E2BEE2E2E2E2E2E2E2E2E2E2E2E2E2E2E2E2E2E2E2E2E2E2E2E2E2E2E2E2E2E2E2E2E2E2E2E2E2E2E2E2E2E2E2E2E2E2BEE2E2E2E2E2BEE2BEE2BEE2BEE2BEE2E2BEE2E2E2E2E2E2E2E2E2E2E2E2E2E2E2E2E2E2E2E2E2E2E2
310
E2E2E2E2E2E2E2E2E2E2E2E2E2E2E2E2E2E2E2E2E2E2E2E2E22DE28383E2E2E2E28383E2E2E2E28383E2E2E2E28383E2E2E2E28383E2E2E2E28383E2E2E2E28383DCE2E2E28383E22DE2E2E2E2E2E2E2E2E2E2E2E2E2E2E2E2E2E2E2E2E2E2E2E2E2E2E2E2E2E2E2E2E2E2E2E2E2E2E2E2E2E2E2E2E2E2E2E2E2E2E2E2E2E2
310
E2E2E2E2E2E2E2E2E2E2E2E2E2E2E2E2E2E2E2E2E2E2E2E2E2E2E2E2E2E2E2E2E2E2E2E2E2E2E2E2E2BEE2E2E2E2E2E2E2E2E2E2E2E2E2E2E2E2E2E2E2E2E2E2E2E2E2E2E2E2E2E2E2E2E2E2E2E2E2E2E2E2E2E2E2E2E2E2BEE2E2E2E2E2BEE2BEE2BEE2BEE2BEE2E2BEE2E2E2E2E2E2E2E2E2E2E2E2E2E2E2E2E2E2E2E2E2
310
E2E2E2E2E2E2E2E2E2E2E2E2E2E2E2E2E2E2E2E2E2E2E2E2E2E2E22DE28383E2E2E2E28383E2E2E2E28383E2E2E2E28383E2E2E2E28383E2E2E2E28383E2E2E2E28383E2E2E2E28383E22DE2E2E2E2E2E2E2E2E2E2E2E2E2E2E2E2E2E2E2E2E2E2E2DCDCE2E2E2DCDCDCE2E2DCDCE2E2DCDCDCDCDCDCDCDCE2E2DCDCDCDCDC
310
DCDCE2E2E2E2E2E2E2E2E2E2E2E2E2E2E2E2E2E2E2E2E2E2E2E2E2E2E2E2E2E2E2E2E2E2E2E2E2E2E2E2E2BEE2E2E2E2E2E2E2E2E2E2E2E2E2E2E2E2E2E2E2E2E2E2E2E2E2E2E2E2E2E2E2E2E2E2E2E2E2E2E2E2E2E2E2E2E2E2BEE2E2E2E2E2BEE2BEE2BEE2BEE2BEE2E2BEE2E2E2E2E2E2E2E2E2E2E2E2E2E2E2E2E2E2E2
310
E2E2E2E2E2E2E2E2E2E2E2E2E2E2E2E2E2E2E2E2E2E2E2E2E2E2E2E2E2E2E28383E2E2E2E28383E2E2E2E28383E2E2E2E28383E2E2E2E28383E2E2E2E28383E2E2E2E28383E2E2E2E28383E2E2E2E2E2E2E2E2E2E2E2E2E2E2E2E2E2E2E2E2E2E2E2E2E2DCDCDCE2DCDCDCDCE2E2E2DCDCE2DCDCDCDCDCDCDCDCE2E2DCDCDC
310
DCDCDCDCE2E2E2E2E2E2E2E2E2E2E2E2E2E2E2E2E2E2E2E2E2E2E2E2E2E2E2E2E2E2E2E2E2E2E2E2E2E2E2E2E2BEE2E2E2E2E2E2E2E2E2E2E2E2E2E2E2E2E2E2E2E2E2E2E2E2E2E2E2E2E2E2E2E2E2E2E2E2E2E2E2E2E2E2E2E2E2E2BEE2E2E2E2E2BEE2BEE2BEE2BEE2BEE2E2BEE2E2E2E2E2E2E2E2E2E2E2E2E2E2E2E2E2
310
E2E2E2E2E2E2E2E2E2E2E2E2E2E2E2E2E2E2E2E2E2E2E2E2E2E2E2E2E2E2E2E2E28383E2E2E2E28383E2E2E2E28383E2E2E2E28383E2E2E2E28383E2E2E2E28383E2E2E2E28383E2E2E2E28383E2E2E2E2E2E2E2E2E2E2E2E2E2E2E2E2E2E2E2E2E2E2E2E2E2E2E2DCE2E2E2E2E2E2E2E2DCDCE2E2E2E2E2E2E2E2E2E2E2E2
310
E2E2E2E2E2E2E2E2E2E2E2E2E2E2E2E2E2E2E2E2E2E2E2E2E2E2E2E2E2E2E2E2E2E2E2E2E2E2E2E2E2E2E2E2E2E2E2BEE2E2E2E2E2E2E2E2E2E2E2E2E2E2E2E2E2E2E2E2E2E2E2E2E2E2E2E2E2E2E2E2E2E2E2E2E2E2E2E2E2E2E2E2E2E2BEE2E2E2E2E2BEE2BEE2BEE2BEE2BEE2E2BEE2E2E2E2E2E2E2E2E2E2E2E2E2E2E2
310
E2E2E2E2E2E2E2E2E2E2E2E2E2E2E2E2E2E2E2E2E2E2E2E2E2E2E2E2E2E2E2E2E22DE28383E2E2E2E28383E2E2E2E28383E2E2E2E28383E2E2E2E28383E2E2E2E28383E2E2E2E28383E2E2E2E28383E22DE2E2E2E2E2E2E2E2E2E2E2E2E2E2E2E2E2E2E2E2E2E2E2DCE2DCDCE2DCDCDCDCDCDCDCDCDCDCE2DCDCDCDCDCDCDC
310
DCDCDCDCDCDCE2E2E2E2E2E2E2E2E2E2E2E2E2E2E2E2E2E2E2E2E2E2E2E2E2E2E2E2E2E2E2E2E2E2E2E2E2E2E2E2E2E2E2BEE2E2E2E2E2E2E2E2E2E2E2E2E2E2E2E2E2E2E2E2E2E2E2E2E2E2E2E2E2E2E2E2E2E2E2E2E2E2E2E2E2E2E2E2E2E2BEE2E2E2E2E2BEE2BEE2BEE2BEE2BEE2E2BEE2E2E2E2E2E2E2E2E2E2E2E2E2
310
E2E2E2E2E2E2E2E2E2E2E2E2E2E2E2E2E2E2E2E2E2E2E2E2E2E2E2E2E2E2E2E2E2E2E22DE28383E2E2E2E28383E2E2E2E28383E2E2E2E28383E2E2E2E28383E2E2E2E28383E2E2E2E28383E2E2E2E28383E22DE2E2E2E2E2E2E2E2E2E2E2E2E2E2DCDCDCDCDCDCDCDCE2DCDCDCDCDCDCDCDCDCDCDCDCDCDCDCE2DCE2DCDCDC
310
DCDCDCDCDCE2DCDCE2E2E2E2E2E2E2E2E2E2E2E2E2E2E2E2E2E2E2E2E2E2E2E2E2E2E2E2E2E2E2E2E2E2E2E2E2E2E2E2E2E2E2BEE2E2E2E2E2E2E2E2E2E2E2E2E2E2E2E2E2E2E2E2E2E2E2E2E2E2E2E2E2E2E2E2E2E2E2E2E2E2E2E2E2E2E2E2E2E2BEE2E2E2E2E2BEE2BEE2BEE2BEE2BEE2E2BEE2E2E2E2E2E2E2E2E2E2E2
310
E2E2E2E2E2E2E2E2E2E2E2E2E2E2E2E2E2E2E2E2E2E2E2E2E2E2E2E2E2E2E2E2E2E2E2E2E22DE28383E2E2E2E28383E2E2E2E28383E2E2E2E28383E2E2E2E28383E2E2E2E28383E2E2E2E28383E2E2E2E28383E22DE2E2E2E2E2E2E2E2E2E2E2E2DCDCE2E2E2E2E2E2E2E2E2DCDCDCDCDCDCDCDCDCDCDCDCDCDCDCE2DCE2DC
310
DCDCDCDCDCDCDCE2DCDCE2E2E2E2E2E2E2E2E2E2E2E2E2E2E2E2E2E2E2E2E2E2E2E2E2E2E2E2E2E2E2E2E2E2E2E2E2E2E2E2E2E2E2BEE2E2E2E2E2E2E2E2E2E2E2E2E2E2E2E2E2E2E2E2E2E2E2E2E2E2E2E2E2E2E2E2E2E2E2E2E2E2E2E2E2E2E2E2E2E2BEE2E2E2E2E2BEE2BEE2BEE2BEE2BEE2E2BEE2E2E2E2E2E2E2E2E2
310
E2E2E2E2E2E2E2E2E2E2E2E2E2E2E2E2E2E2E2E2E2E2E2E2E2E2E2E2E2E2E2E2E2E2E2E2E2E2E22DE28383E2E2E2E28383E2E2E2E28383E2E2E2E28383E2E2E2E28383E2E2E2E28383E2E2E2E28383E2E2E2E28383E22DE2E2E2E2E2E2E2E2E2E2DCDCE2E2E2E2E2E2E2E2E2E2E2E2E2E2E2E2E2E2E2E2E2E2E2E2E2E2E2E2
310
E2E2E2E2E2E2E2E2E2E2E2E2E2E2E2E2E2E2E2E2E2E2E2E2E2E2E2E2E2E2E2E2E2E2E2E2E2E2E2E2E2E2E2E2E2E2E2E2E2E2E2E2E2E2E2BEE2E2E2E2E2E2E2E2E2E2E2E2E2E2E2E2E2E2E2E2E2E2E2E2E2E2E2E2E2E2E2E2E2E2E2E2E2E2E2E2E2E2E2E2E2E2BEE2E2E2E2E2BEE2BEE2BEE2BEE2BEE2E2BEE2E2E2E2E2E2E2
310
E2E2E2E2E2E2E2E2E2E2E2E2E2E2E2E2E2E2E2E2E2E2E2E2E2E2E2E2E2E2E2E2E2E2E2E2E2E2E2E2E22DE28383E2E2E2E28383E2E2E2E28383E2E2E2E28383E2E2E2E28383E2E2E2E28383E2E2E2E28383E2E2E2E28383E22DE2E2E2E2E2E2E2E2DCDCE2E2E2E2E2E2E2E2E2E2E2E2E2E2E2E2E2E2E2E2E2E2E2E2E2E2E2E2
310
E2E2E2E2E2E2E2E2E2E2E2E2E2E2E2E2E2E2E2E2E2E2E2E2E2E2E2E2E2E2E2E2E2E2E2E2E2E2E2E2E2E2E2E2E2E2E2E2E2E2E2E2E2E2E2E2E2BEE2E2E2E2E2E2E2E2E2E2E2E2E2E2E2E2E2E2E2E2E2E2E2E2E2E2E2E2E2E2E2E2E2E2E2E2E2E2E2E2E2E2E2E2E2E2BEE2E2E2E2E2BEE2BEE2BEE2BEE2BEE2E2BEE2E2E2E2E2
310
E2E2E2E2E2E2E2E2E2E2E2E2E2E2E2E2E2E2E2E2E2E2E2E2E2E2E2E2E2E2E2E2E2E2E2E2E2E2E2E2E2E2E2E2E28383E2E2E2E28383E2E2E2E28383E2E2E2E28383E2E2E2E28383E2E2E2E28383E2E2E2E28383E2E2E2E28383E2E2E2E2E2E2E2E2DCDCE2E2E2E2E2E2E2E2E2E2E2E2E2E2E2E2E2E2E2E2E2E2E2E2E2E2E2E2
310
E2E2E2E2E2E2E2E2E2E2E2E2E2E2E2E2E2E2E2E2E2E2E2E2E2E2E2E2E2E2E2E2E2E2E2E2E2E2E2E2E2E2E2E2E2E2E2E2E2E2E2E2E2E2E2E2E2E2E2BEE2E2E2E2E2E2E2E2E2E2E2E2E2E2E2E2E2E2E2E2E2E2E2E2E2E2E2E2E2E2E2E2E2E2E2E2E2E2E2E2E2E2E2E2E2E2BEE2E2E2E2E2BEE2BEE2BEE2BEE2BEE2E2BEE2E2E2
310
E2E2E2E2E2E2E2E2E2E2E2E2E2E2E2E2E2E2E2E2E2E2E2E2E2E2E2E2E2E2E2E2E2E2E2E2E2E2E2E2E2E2E2E2E2E2E28383E2E2E2E28383E2E2E2E28383E2E2E2E28383E2E2E2E28383E2E2E2E28383E2E2E2E28383E2E2E2E28383E2E2E2E2E2E2DCDCE2E2E2E2E2E2E2E2E2E2E2E2E2E2E2E2E2E2E2E2E2E2E2E2E2E2E2E2
310
E2E2E2E2E2E2E2E2E2E2E2E2E2E2E2E2E2E2E2E2E2E2E2E2E2E2E2E2E2E2E2E2E2E2E2E2E2E2E2E2E2E2E2E2E2E2E2E2E2E2E2E2E2E2E2E2E2E2E2E2E2BEE2E2E2E2E2E2E2E2E2E2E2E2E2E2E2E2E2E2E2E2E2E2E2E2E2E2E2E2E2E2E2E2E2E2E2E2E2E2E2E2E2E2E2E2E2E2BEE2E2E2E2E2BEE2BEE2BEE2BEE2BEE2E2BEE2
310
E2E2E2E2E2E2E2E2E2E2E2E2E2E2E2E2E2E2E2E2E2E2E2E2E2E2E2E2E2E2E2E2E2E2E2E2E2E2E2E2E2E2E2E2E2E2E22DE28383E2E2E2E28383E2E2E2E28383E2E2E2E28383E2E2E2E28383E2E2E2E28383E2E2E2E28383E2E2E2E28383E22DDCE2DCDCE2E2E2E2E2E2E2E2E2E2E2E2E2E2E2E2E2E2E2E2E2E2E2E2E2E2E2E2
310
E2E2E2E2E2E2E2E2E2E2E2E2E2E2E2E2E2E2E2E2E2E2E2E2E2E2E2E2E2E2E2E2E2E2E2E2E2E2E2E2E2E2E2E2E2E2E2E2E2E2E2E2E2E2E2E2E2E2E2E2E2E2E2BEE2E2E2E2E2E2E2E2E2E2E2E2E2E2E2E2E2E2E2E2E2E2E2E2E2E2E2E2E2E2E2E2E2E2E2E2E2E2E2E2E2E2E2E2E2E2BEE2E2E2E2E2BEE2BEE2BEE2BEE2BEE2E2
310
BEE2E2E2E2E2E2E2E2E2E2E2E2E2E2E2E2E2E2E2E2E2E2E2E2E2E2E2E2E2E2E2E2E2E2E2E2E2E2E2E2E2E2E2E2E2E2E2E22DE28383E2E2E2E28383E2E2E2E28383E2E2E2E28383E2E2E2E28383E2E2E2E28383E2E2E2E28383E2E2E2E28383E22DDCDCE2E2E2E2E2E2E2E2E2E2E2E2E2E2E2E2E2E2E2E2E2E2E2E2E2E2E2E2
310
E2E2E2E2E2E2E2E2E2E2E2E2E2E2E2E2E2E2E2E2E2E2E2E2E2E2E2E2E2E2E2E2E2E2E2E2E2E2E2E2E2E2E2E2E2E2E2E2E2E2E2E2E2E2E2E2E2E2E2E2E2E2E2E2E2BEE2E2E2E2E2E2E2E2E2E2E2E2E2E2E2E2E2E2E2E2E2E2E2E2E2E2E2E2E2E2E2E2E2E2E2E2E2E2E2E2E2E2E2E2E2E2BEE2E2E2E2E2BEE2BEE2BEE2BEE2BE
310
E2E2BEE2E2E2E2E2E2E2E2E2E2E2E2E2E2E2E2E2E2E2E2E2E2E2E2E2E2E2E2E2E2E2E2E2E2E2E2E2E2E2E2E2E2E2E2E2E2E2E22DE28383E2E2E2E28383E2E2E2E28383E2E2E2E28383E2E2E2E28383E2E2E2E28383E2E2E2E28383DCDCDCDC8383DC2DDCDCDCDCDCDCDCDCE2E2E2E2E2E2E2E2E2E2E2E2E2E2DCE2DCDCDCDC
310
E2DCDCDCDCDCDCE2E2DCDCE2DCDCDCDCDCDCDCDCE2E2E2E2E2E2E2E2E2E2E2E2E2E2E2E2E2E2E2E2E2E2E2E2E2E2E2E2E2E2E2E2E2E2E2E2E2E2E2E2E2E2E2E2E2E2E2BEE2E2E2E2E2E2E2E2E2E2E2E2E2E2E2E2E2E2E2E2E2E2E2E2E2E2E2E2E2E2E2E2E2E2E2E2E2E2E2E2E2E2E2E2E2E2BEE2E2E2E2E2BEE2BEE2BEE2BE
310
E2BEE2E2BEE2E2E2E2E2E2E2E2E2E2E2E2E2E2E2E2E2E2E2E2E2E2E2E2E2E2E2E2E2E2E2E2E2E2E2E2E2E2E2E2E2E2E2E2E2E2E2E22DE28383E2E2E2E28383E2E2E2E28383E2E2E2E28383E2E2E2E28383E2E2E2E28383E2E2E2E28383E2E2E2E28383E22DE2E2E2E2E2E2E2E2E2E2E2E2E2E2E2E2E2E2E2E2E2E2DCDCDCDC
310
DCDCE2DCDCDCDCDCDCE2E2DCDCDCDCDCDCDCDCDCDCDCE2E2E2E2E2E2E2E2E2E2E2E2E2E2E2E2E2E2E2E2E2E2E2E2E2E2E2E2E2E2E2E2E2E2E2E2E2E2E2E2E2E2E2E2E2E2E2BEE2E2E2E2E2E2E2E2E2E2E2E2E2E2E2E2E2E2E2E2E2E2E2E2E2E2E2E2E2E2E2E2E2E2E2E2E2E2E2E2E2E2E2E2E2E2BEE2E2E2E2E2BEE2BEE2BE
310
E2BEE2BEE2E2BEE2E2E2E2E2E2E2E2E2E2E2E2E2E2E2E2E2E2E2E2E2E2E2E2E2E2E2E2E2E2E2E2E2E2E2E2E2E2E2E2E2E2E2E2E2E2E2E22DE28383E2E2E2E28383E2E2E2E28383E2E2E2E28383E2E2E2E28383E2E2E2E28383E2E2E2E28383E2E2E2E28383E22DE2E2E2E2E2E2E2E2E2E2E2E2E2E2E2E2E2E2E2E2E2E2DCDC
310
DCDCDCDCE2DCDCDCDCDCDCE2E2DCDCDCDCDCDCDCDCDCDCDCE2E2E2E2E2E2E2E2E2E2E2E2E2E2E2E2E2E2E2E2E2E2E2E2E2E2E2E2E2E2E2E2E2E2E2E2E2E2E2E2E2E2E2E2E2E2E2BEE2E2E2E2E2E2E2E2E2E2E2E2E2E2E2E2E2E2E2E2E2E2E2E2E2E2E2E2E2E2E2E2E2E2E2E2E2E2E2E2E2E2E2E2E2E2BEE2E2E2E2E2BEE2BE
310
E2BEE2BEE2BEE2E2BEE2E2E2E2E2E2E2E2E2E2E2E2E2E2E2E2E2E2E2E2E2E2E2E2E2E2E2E2E2E2E2E2E2E2E2E2E2E2E2E2E2E2E2E2E2E2E2E22DE28383E2E2E2E28383E2E2E2E28383E2E2E2E28383E2E2E2E28383E2E2E2E28383E2E2E2E28383E2E2E2E28383E22DE2E2E2E2E2E2E2E2E2E2E2E2E2E2E2E2E2E2E2E2E2E2
310
DCDCDCDCDCDCE2DCDCDCE2DCDCDCDCDCDCDCDCE2DCDCDCDCDCDCDCDCE2E2E2E2E2E2E2E2E2E2E2E2E2E2E2E2E2E2E2E2E2E2E2E2E2E2E2E2E2E2E2E2E2E2E2E2E2E2E2E2E2E2E2E2E2BEE2E2E2E2E2E2E2E2E2E2E2E2E2E2E2E2E2E2E2E2E2E2E2E2E2E2E2E2E2E2E2E2E2E2E2E2E2E2E2E2E2E2E2E2E2E2BEE2E2E2E2E2BE
310
E2BEE2BEE2BEE2BEE2E2BEE2E2E2E2E2E2E2E2E2E2E2E2E2E2E2E2E2E2E2E2E2E2E2E2E2E2E2E2E2E2E2E2E2E2E2E2E2E2E2E2E2E2E2E2E2E2E2E2E2E28383E2E2E2E28383E2E2E2E28383E2E2E2E28383E2E2E2E28383E2E2E2E28383E2E2E2E28383DCDCDCDC8383DCDCDCDCDCDCDCDCDCDCDCDCDCDCDCDCDCDCDCDCDCDC
310
DCE2DCDCDCDCDCE2E2DCDCDCDCDCDCDCDCDCDCDCDCDCDCDCDCDCDCDCDCDCE2E2E2E2E2E2E2E2E2E2E2E2E2E2E2E2E2E2E2E2E2E2E2E2E2E2E2E2E2E2E2E2E2E2E2E2E2E2E2E2E2E2E2E2E2BEE2E2E2E2E2E2E2E2E2E2E2E2E2E2E2E2E2E2E2E2E2E2E2E2E2E2E2E2E2E2E2E2E2E2E2E2E2E2E2E2E2E2E2E2E2E2BEE2E2E2E2
310
E2BEE2BEE2BEE2BEE2BEE2E2BEE2E2E2E2E2E2E2E2E2E2E2E2E2E2E2E2E2E2E2E2E2E2E2E2E2E2E2E2E2E2E2E2E2E2E2E2E2E2E2E2E2E2E2E2E2E2E2E22DE28383E2E2E2E28383E2E2E2E28383E2E2E2E28383E2E2E2E28383E2E2E2E28383E2E2E2E28383E2E2E2E28383E22DE2E2E2E2E2E2E2E2E2E2E2E2E2E2E2E2E2E2
310
E2E2E2E2DCDCDCDCDCDCE2DCDCDCDCDCDCDCDCDCDCDCDCDCDCDCDCDCDCDCDCDCE2E2E2E2E2E2E2E2E2E2E2E2E2E2E2E2E2E2E2E2E2E2E2E2E2E2E2E2E2E2E2E2E2E2E2E2E2E2E2E2E2E2E2E2E2BEE2E2E2E2E2E2E2E2E2E2E2E2E2E2E2E2E2E2E2E2E2E2E2E2E2E2E2E2E2E2E2E2E2E2E2E2E2E2E2E2E2E2E2E2E2E2BEE2E2
310
E2E2E2BEE2BEE2BEE2BEE2BEE2E2BEE2E2E2E2E2E2E2E2E2E2E2E2E2E2E2E2E2E2E2E2E2E2E2E2E2E2E2E2E2E2E2E2E2E2E2E2E2E2E2E2E2E2E2E2E2E2E2E22DE28383E2E2E2E28383E2E2E2E28383E2E2E2E28383E2E2E2E28383E2E2E2E28383E2E2E2E28383E2E2E2E28383E22DE2E2E2E2E2E2E2E2E2E2E2E2E2E2E2E2
310
E2E2E2E2E2E2E2E2E2E2E2E2E2E2E2E2E2E2E2E2E2E2E2E2E2E2E2E2E2E2E2E2E2E2E2E2E2E2E2E2E2E2E2E2E2E2E2E2E2E2E2E2E2E2E2E2E2E2E2E2E2E2E2E2E2E2E2E2E2E2E2E2E2E2E2E2E2E2E2BEE2E2E2E2E2E2E2E2E2E2E2E2E2E2E2E2E2E2E2E2E2E2E2E2E2E2E2E2E2E2E2E2E2E2E2E2E2E2E2E2E2E2E2E2E2E2BE
310
E2E2E2E2E2BEE2BEE2BEE2BEE2BEE2E2BEE2E2E2E2E2E2E2E2E2E2E2E2E2E2E2E2E2E2E2E2E2E2E2E2E2E2E2E2E2E2E2E2E2E2E2E2E2E2E2E2E2E2E2E2E2E2E2E22DE28383E2E2E2E28383E2E2E2E28383E2E2E2E28383E2E2E2E28383E2E2E2E28383E2E2E2DC8383E2E2E2E28383E22DE2E2E2E2E2E2E2E2E2E2E2E2E2E2
310
E2E2E2E2E2E2E2E2E2E2E2E2E2E2E2E2E2E2E2E2E2E2E2E2E2E2E2E2E2E2E2E2E2E2E2E2E2E2E2E2E2E2E2E2E2E2E2E2E2E2E2E2E2E2E2E2E2E2E2E2E2E2E2E2E2E2E2E2E2E2E2E2E2E2E2E2E2E2E2E2E2BEE2E2E2E2E2E2E2E2E2E2E2E2E2E2E2E2E2E2E2E2E2E2E2E2E2E2E2E2E2E2E2E2E2E2E2E2E2E2E2E2E2E2E2E2E2
310
E2BEE2E2E2E2E2BEE2BEE2BEE2BEE2BEE2E2BEE2E2E2E2E2E2E2E2E2E2E2E2E2E2E2E2E2E2E2E2E2E2E2E2E2E2E2E2E2E2E2E2E2E2E2E2E2E2E2E2E2E2E2E2E2E2E2E22DE28383E2E2E2E28383E2E2E2E28383E2E2E2E28383E2E2E2E28383E2E2E2E28383E2E2E2DC8383E2E2E2E28383E22DE2E2E2E2E2E2E2E2E2E2E2E2
310
E2E2E2E2E2E2E2E2E2E2E2E2E2E2E2E2E2E2E2E2E2E2E2E2E2E2E2E2E2E2E2E2E2E2E2E2E2E2E2E2E2E2E2E2E2E2E2E2E2E2E2E2E2E2E2E2E2E2E2E2E2E2E2E2E2E2E2E2E2E2E2E2E2E2E2E2E2E2E2E2E2E2E2BEE2E2E2E2E2E2E2E2E2E2E2E2E2E2E2E2E2E2E2E2E2E2E2E2E2E2E2E2E2E2E2E2E2E2E2E2E2E2E2E2E2E2E2
310
E2E2E2BEE2E2E2E2E2BEE2BEE2BEE2BEE2BEE2E2BEE2E2E2E2E2E2E2E2E2E2E2E2E2E2E2E2E2E2E2E2E2E2E2E2E2E2E2E2E2E2E2E2E2E2E2E2E2E2E2E2E2E2E2E2E2E2E2E22DE28383E2E2E2E28383E2E2E2E28383E2E2E2E28383E2E2E2E28383E2E2E2E28383E2DCDCDC8383E2E2E2E28383E22DE2E2E2E2E2E2E2E2E2E2
310
E2E2E2E2E2E2E2E2E2E2E2E2E2E2E2E2E2E2E2E2E2E2E2E2E2E2E2E2E2E2E2E2E2E2E2E2E2E2E2E2E2E2E2E2E2E2E2E2E2E2E2E2E2E2E2E2E2E2E2E2E2E2E2E2E2E2E2E2E2E2E2E2E2E2E2E2E2E2E2E2E2E2E2E2E2BEE2E2E2E2E2E2E2E2E2E2E2E2E2E2E2E2E2E2E2E2E2E2E2E2E2E2E2E2E2E2E2E2E2E2E2E2E2E2E2E2E2
310
E2E2E2E2E2BEE2E2E2E2E2BEE2BEE2BEE2BEE2BEE2E2BEE2E2E2E2E2E2E2E2E2E2E2E2E2E2E2E2E2E2E2E2E2E2E2E2E2E2E2E2E2E2E2E2E2E2E2E2E2E2E2E2E2E2E2E2E2E2E2E22DE28383E2E2E2E28383E2E2E2E28383E2E2E2E28383E2E2E2E28383E2E2E2E28383DCDCDCDC8383E2E2E2E28383E22DE2E2E2E2E2E2E2E2
310
E2E2E2E2E2E2E2E2E2E2E2E2E2E2E2E2E2E2E2E2E2E2E2E2E2E2E2E2E2E2E2E2E2E2E2E2E2E2E2E2E2E2E2E2E2E2E2E2E2E2E2E2E2E2E2E2E2E2E2E2E2E2E2E2E2E2E2E2E2E2E2E2E2E2E2E2E2E2E2E2E2E2E2E2E2E2E2BEE2E2E2E2E2E2E2E2E2E2E2E2E2E2E2E2E2E2E2E2E2E2E2E2E2E2E2E2E2E2E2E2E2E2E2E2E2E2E2
310
E2E2E2E2E2E2E2BEE2E2E2E2E2BEE2BEE2BEE2BEE2BEE2E2BEE2E2E2E2E2E2E2E2E2E2E2E2E2E2E2E2E2E2E2E2E2E2E2E2E2E2E2E2E2E2E2E2E2E2E2E2E2E2E2E2E2E2E2E2E2E2E2E2E2E28383E2E2E2E28383E2E2E2E28383E2E2E2E28383E2E2E2E28383E2E2E2E28383E2E2E2E28383E2E2E2E28383E2E2E2E2E2E2E2E2
310
E2E2E2E2E2E2E2E2E2E2E2E2E2E2E2E2E2E2E2E2E2E2E2E2E2E2E2E2E2E2E2E2E2E2E2E2E2E2E2E2E2E2E2E2E2E2E2E2E2E2E2E2E2E2E2E2E2E2E2E2E2E2E2E2E2E2E2E2E2E2E2E2E2E2E2E2E2E2E2E2E2E2E2E2E2E2E2E2E2BEE2E2E2E2E2E2E2E2E2E2E2E2E2E2E2E2E2E2E2E2E2E2E2E2E2E2E2E2E2E2E2E2E2E2E2E2E2
310
E2E2E2E2E2E2E2E2E2BEE2E2E2E2E2BEE2BEE2BEE2BEE2BEE2E2BEE2E2E2E2E2E2E2E2E2E2E2E2E2E2E2E2E2E2E2E2E2E2E2E2E2E2E2E2E2E2E2E2E2E2E2E2E2E2E2E2E2E2E2E2E2E2E2E2E2E28383E2E2E2E28383E2E2E2E28383E2E2E2E28383E2E2E2E28383E2E2E2E28383E2E2E2E28383E2E2E2E28383E2E2E2E2E2E2
310
E2E2E2E2E2E2E2E2E2E2E2E2E2E2E2E2E2E2E2E2E2E2E2E2E2E2E2E2E2E2E2E2E2E2E2E2E2E2E2E2E2E2E2E2E2E2E2E2E2E2E2E2E2E2E2E2E2E2E2E2E2E2E2E2E2E2E2E2E2E2E2E2E2E2E2E2E2E2E2E2E2E2E2E2E2E2E2E2E2E2E2BEE2E2E2E2E2E2E2E2E2E2E2E2E2E2E2E2E2E2E2E2E2E2E2E2E2E2E2E2E2E2E2E2E2E2E2
310
E2E2E2E2E2E2E2E2E2E2E2BEE2E2E2E2E2BEE2BEE2BEE2BEE2BEE2E2BEE2E2E2E2E2E2E2E2E2E2E2E2E2E2E2E2E2E2E2E2E2E2E2E2E2E2E2E2E2E2E2E2E2E2E2E2E2E2E2E2E2E2E2E2E2E2E2E22DE28383E2E2E2E28383E2E2E2E28383E2E2E2E28383E2E2E2E28383E2E2E2E28383E2E2E2E28383E2E2E2E28383E22DE2E2
310
E2E2E2E2E2E2E2E2E2E2E2E2E2E2E2E2E2E2E2E2E2DCE2DCDCDCE2E2DCDCDCDCE2DCE2DCDCDCDCDCE2E2DCDCE2DCDCDCDCDCDCDCDCE2E2DCDCDCDCDCDCDCDCDCDCDCE2E2E2E2E2E2E2E2E2E2E2E2E2E2E2E2E2E2E2E2E2E2E2E2E2E2E2BEE2E2E2E2E2E2E2E2E2E2E2E2E2E2E2E2E2E2E2E2E2E2E2E2E2E2E2E2E2E2E2E2E2
310
E2E2E2E2E2E2E2E2E2E2E2E2E2BEE2E2E2E2E2BEE2BEE2BEE2BEE2BEE2E2BEE2E2E2E2E2E2E2E2E2E2E2E2E2E2E2E2E2E2E2E2E2E2E2E2E2E2E2E2E2E2E2E2E2E2E2E2E2E2E2E2E2E2E2E2E2E2E2E22DE28383E2E2E2E28383E2E2E2E28383E2E2E2E28383E2E2E2E28383E2E2E2E28383E2E2E2E28383E2E2E2E28383E22D
310
E2E2E2E2DCDCDCDCDCDCDCDCDCDCDCDCDCDCDCDCDCDCE2DCDCDCDCDCE2E2DCDCDCDCE2DCDCDCDCDCE2DCE2E2DCE2DCDCDCDCDCDCDCDCDCE2E2DCDCDCDCDCDCDCDCDCDCDCE2E2E2E2E2E2E2E2E2E2E2E2E2E2E2E2E2E2E2E2E2E2E2E2E2E2E2BEE2E2E2E2E2E2E2E2E2E2E2E2E2E2E2E2E2E2E2E2E2E2E2E2E2E2E2E2E2E2E2
310
E2E2E2E2E2E2E2E2E2E2E2E2E2E2E2BEE2E2E2E2E2BEE2BEE2BEE2BEE2BEE2E2BEE2E2E2E2E2E2E2E2E2E2E2E2E2E2E2E2E2E2E2E2E2E2E2E2E2E2E2E2E2E2E2E2E2E2E2E2E2E2E2E2E2E2E2E2E2E2E2E22DE28383E2E2E2E28383E2E2E2E28383E2E2E2E28383E2E2E2E28383E2E2E2E28383E2E2E2E28383E2E2E2E28383
310
E22DE2E2DCDCE2E2E2E2E2E2E2E2E2E2E2E2E2E2E2E2E2E2E2DCDCDCDCDCE2E2DCDCDCDCE2DCDCDCDCDCDCE2DCE2DCDCE2DCDCDCE2DCDCDCDCDCE2DCDCDCDCDCDCDCDCDCDCDCE2E2E2E2E2E2E2E2E2E2E2E2E2E2E2E2E2E2E2E2E2E2E2E2E2E2E2BEE2E2E2E2E2E2E2E2E2E2E2E2E2E2E2E2E2E2E2E2E2E2E2E2E2E2E2E2E2
310
E2E2E2E2E2E2E2E2E2E2E2E2E2E2E2E2E2BEE2E2E2E2E2BEE2BEE2BEE2BEE2BEE2E2BEE2E2E2E2E2E2E2E2E2E2E2E2E2E2E2E2E2E2E2E2E2E2E2E2E2E2E2E2E2E2E2E2E2E2E2E2E2E2E2E2E2E2E2E2E2E2E2E22DE28383E2E2E2E28383E2E2E2E28383E2E2E2E28383E2E2E2E28383E2E2E2E28383E2E2E2E28383E2E2E2E2
310
8383E22DE2DCE2E2E2E2E2E2E2E2E2E2E2E2E2E2E2E2E2E2E2E2E2E2E2E2E2E2E2E2E2E2E2E2E2E2E2E2E2E2E2E2E2E2E2E2E2E2E2E2E2E2E2E2E2E2E2E2E2E2E2E2E2E2E2E2E2E2E2E2E2E2E2E2E2E2E2E2E2E2E2E2E2E2E2E2E2E2E2E2E2E2E2E2E2BEE2E2E2E2E2E2E2E2E2E2E2E2E2E2E2E2E2E2E2E2E2E2E2E2E2E2E2
310
E2E2E2E2E2E2E2E2E2E2E2E2E2E2E2E2E2E2E2BEE2E2E2E2E2BEE2BEE2BEE2BEE2BEE2E2BEE2E2E2E2E2E2E2E2E2E2E2E2E2E2E2E2E2E2E2E2E2E2E2E2E2E2E2E2E2E2E2E2E2E2E2E2E2E2E2E2E2E2E2E2E2E2E2E22DE28383E2E2E2E28383E2E2E2E28383E2E2E2E28383E2E2E2E28383E2E2E2E28383E2E2E2E28383E2E2
310
E2E28383E22DDCE2E2E2E2E2E2E2E2E2E2E2E2E2E2E2E2E2E2E2E2E2E2E2E2E2E2E2E2E2E2E2E2E2E2E2E2E2E2E2E2E2E2E2E2E2E2E2E2E2E2E2E2E2E2E2E2E2E2E2E2E2E2E2E2E2E2E2E2E2E2E2E2E2E2E2E2E2E2E2E2E2E2E2E2E2E2E2E2E2E2E2E2E2E2BEE2E2E2E2E2E2E2E2E2E2E2E2E2E2E2E2E2E2E2E2E2E2E2E2E2
310
E2E2E2E2E2E2E2E2E2E2E2E2E2E2E2E2E2E2E2E2E2BEE2E2E2E2E2BEE2BEE2BEE2BEE2BEE2E2BEE2E2E2E2E2E2E2E2E2E2E2E2E2E2E2E2E2E2E2E2E2E2E2E2E2E2E2E2E2E2E2E2E2E2E2E2E2E2E2E2E2E2E2E2E2E2E2E22DE28383E2E2E2E28383E2E2E2E28383E2E2E2E28383E2E2E2E28383E2E2E2E28383E2E2E2E28383
310
E2E2E2E28383DC2DE2E2E2E2E2E2E2E2E2E2E2E2E2E2E2E2E2E2E2E2E2E2E2E2E2E2E2E2E2E2E2E2E2E2E2E2E2E2E2E2E2E2E2E2E2E2E2E2E2E2E2E2E2E2E2E2E2E2E2E2E2E2E2E2E2E2E2E2E2E2E2E2E2E2E2E2E2E2E2E2E2E2E2E2E2E2E2E2E2E2E2E2E2E2E2BEE2E2E2E2E2E2E2E2E2E2E2E2E2E2E2E2E2E2E2E2E2E2E2
310
E2E2E2E2E2E2E2E2E2E2E2E2E2E2E2E2E2E2E2E2E2E2E2BEE2E2E2E2E2BEE2BEE2BEE2BEE2BEE2E2BEE2E2E2E2E2E2E2E2E2E2E2E2E2E2E2E2E2E2E2E2E2E2E2E2E2E2E2E2E2E2E2E2E2E2E2E2E2E2E2E2E2E2E2E2E2E2E2E2E2E28383E2E2E2E28383E2E2E2E28383E2E2E2E28383E2E2E2E28383E2E2E2E28383E2E2E2E2
310
8383E2E2E2E28383E2E2E2E2E2E2E2E2E2E2E2E2E2E2E2E2E2E2E2E2E2E2E2E2E2E2E2E2E2E2E2E2E2E2E2E2E2E2E2E2E2E2E2E2E2E2E2E2E2E2E2E2E2E2E2E2E2E2E2E2E2E2E2E2E2E2E2E2E2E2E2E2E2E2E2E2E2E2E2E2E2E2E2E2E2E2E2E2E2E2E2E2E2E2E2E2E2BEE2E2E2E2E2E2E2E2E2E2E2E2E2E2E2E2E2E2E2E2E2
310
E2E2E2E2E2E2E2E2E2E2E2E2E2E2E2E2E2E2E2E2E2E2E2E2E2BEE2E2E2E2E2BEE2BEE2BEE2BEE2BEE2E2BEE2E2E2E2E2E2E2E2E2E2E2E2E2E2E2E2E2E2E2E2E2E2E2E2E2E2E2E2E2E2E2E2E2E2E2E2E2E2E2E2E2E2E2E2E2E2E2E22DE28383E2E2E2E28383E2E2E2E28383E2E2E2E28383E2E2E2E28383E2E2E2E28383E2E2
310
E2E28383E2E2E2DC8383E22DE2E2E2E2E2E2E2E2E2E2E2E2E2E2E2E2E2E2E2E2E2E2E2E2E2E2E2E2E2E2E2E2E2E2E2E2E2E2E2E2E2E2E2E2E2E2E2E2E2E2E2E2E2E2E2E2E2E2E2E2E2E2E2E2E2E2E2E2E2E2E2E2E2E2E2E2E2E2E2E2E2E2E2E2E2E2E2E2E2E2E2E2E2E2E2BEE2E2E2E2E2E2E2E2E2E2E2E2E2E2E2E2E2E2E2
310
E2E2E2E2E2E2E2E2E2E2E2E2E2E2E2E2E2E2E2E2E2E2E2E2E2E2E2BEE2E2E2E2E2BEE2BEE2BEE2BEE2BEE2E2BEE2E2E2E2E2E2E2E2E2E2E2E2E2E2E2E2E2E2E2E2E2E2E2E2E2E2E2E2E2E2E2E2E2E2E2E2E2E2E2E2E2E2E2E2E2E2E2E22D2D83832D2D2D2D83832D2D2D2D83832D2D2D2D83832DDCDC2D83832D2D2D2D8383
310
2D2D2D2D83832D2D2D2D83832D2DE2E2E2E2E2E2E2E2E2E2E2E2E2E2E2E2E2E2E2E2E2E2E2E2E2E2E2E2E2E2E2E2E2E2E2E2E2E2E2E2E2E2E2E2E2E2E2E2E2E2E2E2E2E2E2E2E2E2E2E2E2E2E2E2E2E2E2E2E2E2E2E2E2E2E2E2E2E2E2E2E2E2E2E2E2E2E2E2E2E2E2E2E2E2E2BEE2E2E2E2E2E2E2E2E2E2E2E2E2E2E2E2E2
310
E2E2E2E2E2E2E2E2E2E2E2E2E2E2E2E2E2E2E2E2E2E2E2E2E2E2E2E2E2BEE2E2E2E2E2BEE2BEE2BEE2BEE2BEE2E2BEE2E2E2E2E2E2E2E2E2E2E2E2E2E2E2E2E2E2E2E2E2E2E2E2E2E2E2E2E2E2E2E2E2E2E2E2E2E2E2E2E2E2E2E2E2E2E2E22D2D8383E2E2E2E28383E2E2E2E28383E2E2E2E28383DCE2E2DC8383E2E2E2E2
310
8383E2E2E2E28383E2E2E2E283832D2DE2E2E2E2E2E2E2E2E2E2E2E2E2E2E2E2E2E2E2E2E2E2E2E2E2E2E2E2E2E2E2E2E2E2E2E2E2E2E2E2E2E2E2E2E2E2E2E2E2E2E2E2E2E2E2E2E2E2E2E2E2E2E2E2E2E2E2E2E2E2E2E2E2E2E2E2E2E2E2E2E2E2E2E2E2E2E2E2E2E2E2E2E2E2E2BEE2E2E2E2E2E2E2E2E2E2E2E2E2E2E2
310
E2E2E2E2E2E2E2E2E2E2E2E2E2E2E2E2E2E2E2E2E2E2E2E2E2E2E2E2E2E2E2BEE2E2E2E2E2BEE2BEE2BEE2BEE2BEE2E2BEE2E2E2E2E2E2E2E2E2E2E2E2E2E2E2E2E2E2E2E2E2E2E2E2E2E2E2E2E2E2E2E2E2E2E2E2E2E2E2E2E2E2E2E2E2E2E2E22D2D2D2D2D2D2D2D2D2D2D2D2D2D2D2D2D2D2D2D2D2D2DE2E22D2D2D2D2D
310
2D2D2D2D2D2D2D2D2D2D2D2D2D2D2D2D2D2DE2E2E2E2E2E2E2E2E2E2E2E2E2E2E2E2E2E2E2E2E2E2E2E2E2E2E2E2E2E2E2E2E2E2E2E2E2E2E2E2E2E2E2E2E2E2E2E2E2E2E2E2E2E2E2E2E2E2E2E2E2E2E2E2E2E2E2E2E2E2E2E2E2E2E2E2E2E2E2E2E2E2E2E2E2E2E2E2E2E2E2E2E2E2E2BEE2E2E2E2E2E2E2E2E2E2E2E2E2
310
E2E2E2E2E2E2E2E2E2E2E2E2E2E2E2E2E2E2E2E2E2E2E2E2E2E2E2E2E2E2E2E2E2BEE2E2E2E2E2BEE2BEE2BEE2BEE2BEE2E2BEE2E2E2E2E2E2E2E2E2E2E2E2E2E2E2E2E2E2E2E2E2E2E2E2E2E2E2E2E2E2E2E2E2E2E2E2E2E2E2E2E2E2E2E2E2E2E2E22D2D2D2D2DE22D2D2D2D2D2DE2E22D2D2D2D2D2DE22DDC2D2DDC2DE2
310
E22D2D2D2D2D2DDC2D2D2D2D2D2DE22D2D2D2D2DE2E2E2E2E2E2E2E2E2E2E2E2E2E2E2E2E2E2E2E2E2E2E2DCDCDCDCDCDCDCE2DCE2DCDCE2DCE2DCDCDCDCDCE2DCE2DCDCDCDCE2E2DCDCDCDCDCE2E2E2E2E2E2E2E2E2E2E2E2E2E2E2E2E2E2E2E2E2E2E2E2E2E2E2E2E2E2E2E2E2E2E2E2E2E2BEE2E2E2E2E2E2E2E2E2E2E2
310
E2E2E2E2E2E2E2E2E2E2E2E2E2E2E2E2E2E2E2E2E2E2E2E2E2E2E2E2E2E2E2E2E2E2E2BEE2E2E2E2E2BEE2BEE2BEE2BEE2BEE2E2BEE2E2E2E2E2E2E2E2E2E2E2E2E2E2E2E2E2E2E2E2E2E2E2E2E2E2E2E2E2E2E2E2E2E2E2E2E2E2E2E2E2E2E2E2E2E2E2E2E2E2E2E2E2E2E2E2E2E2E2E2E2E2E2E2E2E2E2E22D2D2D2D2D2D
310
2D2DE2E2E2E2E2E2E2E2DCE2E2E2E2E2E2E2E2E2E2E2E2E2E2E2E2E2E2E2E2E2E2E2E2E2E2E2E2E2E2E2E2E2E2DCDCDCDCDCDCDCE2DCDCDCDCDCDCDCDCDCDCDCDCE2E2DCDCDCDCDCE2E2DCDCDCDCE2E2E2E2E2E2E2E2E2E2E2E2E2E2E2E2E2E2E2E2E2E2E2E2E2E2E2E2E2E2E2E2E2E2E2E2E2E2E2BEE2E2E2E2E2E2E2E2E2
310
E2E2E2E2E2E2E2E2E2E2E2E2E2E2E2E2E2E2E2E2E2E2E2E2E2E2E2E2E2E2E2E2E2E2E2E2E2BEE2E2E2E2E2BEE2BEE2BEE2BEE2BEE2E2BEE2E2E2E2E2E2E2E2E2E2E2E2E2E2E2E2E2E2E2E2E2E2E2E2E2E2E2E2E2E2E2E2E2E2E2E2E2E2E2E2E2E2E2E2E2E2E2E2E2E2E2E2E2E2E2E2E2E2E2E2E2E2E2E2E2E2E22D2D2D2D2D
310
2D2D2D2D2DE2E2E2E2E2E2E2E2DCE2E2E2E2E2E2E2E2E2E2E2E2E2E2E2E2E2E2E2E2E2E2E2E2E2E2E2E2E2E2E2E2E2DCDCDCE2DCDCDCE2E2DCDCDCDCDCDCDCDCDCDCDCE2E2DCDCDCDCDCE2DCDCDCDCDCDCE2E2E2E2E2E2E2E2E2E2E2E2E2E2E2E2E2E2E2E2E2E2E2E2E2E2E2E2E2E2E2E2E2E2E2E2E2E2BEE2E2E2E2E2E2E2
310
E2E2E2E2E2E2E2E2E2E2E2E2E2E2E2E2E2E2E2E2E2E2E2E2E2E2E2E2E2E2E2E2E2E2E2E2E2E2E2BEE2E2E2E2E2BEE2BEE2BEE2BEE2BEE2E2BEE2E2E2E2E2E2E2E2E2E2E2E2E2E2E2E2E2E2E2E2E2E2E2E2E2E2E2E2E2E2E2E2E2E2E2E2E2E2E2E2E2E2E2E2E2E2E2E2E2E2E2E2E2E2E2E2E2E2E2E2E2E2E2E2E2E2E22D2DE2
310
E2E2E2E22D2D2DE2E2E2E2E2E2E2E2E2DCE2E2E2E2E2E2E2E2E2E2E2E2E2E2E2E2E2E2E2E2E2E2E2E2E2E2E2E2E2E2E2E2E2DCDCDCDCDCDCDCDCDCDCDCDCE2DCE2DCDCE2E2DCDCDCDCDCDCDCDCE2E2DCDCDCDCE2DCDCDCDCDCDCDCDCDCDCE2DCE2E2E2E2E2E2E2E2E2E2E2E2E2E2E2E2E2E2E2E2E2E2E2E2E2BEE2E2E2E2E2
310
E2E2E2E2E2E2E2E2E2E2E2E2E2E2E2E2E2E2E2E2E2E2E2E2E2E2E2E2E2E2E2E2E2E2E2E2E2E2E2E2E2BEE2E2E2E2E2BEE2BEE2BEE2BEE2BEE2E2BEE2E2E2E2E2E2E2E2E2E2E2E2E2E2E2E2E2E2E2E2E2E2E2E2E2E2E2E2E2E2E2E2E2E2E2E2E2E2E2E2E2E2E2E2E2E2E2E2E2E2E2E2E2E2E2E2E2E2E2E2E2E2E2E2E2E2E22D
310
2DE2E2E2E2E2E22D2DE2E2E2E2E2E2E2E2E2E2DCDCDCDCDCDCDCDCDCDCDCDCDCDCDCDCDCDCDCDCDCDCDCDCDCDCDCDCDCDCDCE2E2DCDCDCDCDCDCDCDCDCDCDCDCE2DCDCDCDCDCE2DCDCDCDCDCDCDCDCE2E2DCDCDCDCDCDCDCDCDCDCDCDCDCDCDCDCDCE2E2E2E2E2E2E2E2E2E2E2E2E2E2E2E2E2E2E2E2E2E2E2E2E2BEE2E2E2
310
E2E2E2E2E2E2E2E2E2E2E2E2E2E2E2E2E2E2E2E2E2E2E2E2E2E2E2E2E2E2E2E2E2E2E2E2E2E2E2E2E2E2E2BEE2E2E2E2E2BEE2BEE2BEE2BEE2BEE2E2BEE2E2E2E2E2E2E2E2E2E2E2E2E2E2E2E2E2E2E2E2E2E2E2E2E2E2E2E2E2E2E2E2E2E2E2E2E2E2E2E2E2E2E2E2E2E2E2E2E2E2E2E2E2E2E2E2E2E2E2E2E2E2E2E2E2E2
310
E22D2DE2E2E2E2E2E22D2DE2E2E2E2E2E2E2E2E2E2E2E2E2E2E2E2E2E2E2E2E2E2E2E2E2E2E2E2E2E2E2E2E2E2E2E2E2E2E2E2E2E2DCDCE2E2E2DCDCDCE2E2E2E2E2E2DCDCDCDCDCE2DCDCDCDCDCDCDCDCE2E2DCDCDCDCE2DCDCDCDCDCDCDCDCDCDCE2DCE2E2E2E2E2E2E2E2E2E2E2E2E2E2E2E2E2E2E2E2E2E2E2E2E2BEE2
310
E2E2E2E2E2E2E2E2E2E2E2E2E2E2E2E2E2E2E2E2E2E2E2E2E2E2E2E2E2E2E2E2E2E2E2E2E2E2E2E2E2E2E2E2E2BEE2E2E2E2E2BEE2BEE2BEE2BEE2BEE2E2BEE2E2E2E2E2E2E2E2E2E2E2E2E2E2E2E2E2E2E2E2E2E2E2E2E2E2E2E2E2E2E2E2E2E2E2E2E2E2E2E2E2E2E2E2E2E2E2E2E2E2E2E2E2E2E2E2E2E2E2E2E2E2E2E2
310
E2E2E22D2DE2E2E2E2E2E22D2DE2E2E2E2E2E2E2E2E2E2E2E2E2E2E2E2E2E2E2E2E2E2E2E2E2E2E2E2E2E2E2E2E2E2E2E2E2E2E2E2E2E2E2E2E2E2E2E2E2E2E2E2E2E2E2E2E2E2E2E2E2E2E2E2E2E2E2E2E2E2E2E2E2E2E2E2E2E2E2E2E2E2E2E2E2E2E2E2E2E2E2E2E2E2E2E2E2E2E2E2E2E2E2E2E2E2E2E2E2E2E2E2E2E2
310
BEE2E2E2E2E2E2E2E2E2E2E2E2E2E2E2E2E2E2E2E2E2E2E2E2E2E2E2E2E2E2E2E2E2E2E2E2E2E2E2E2E2E2E2E2E2E2BEE2E2E2E2E2BEE2BEE2BEE2BEE2BEE2E2BEE2E2E2E2E2E2E2E2E2E2E2E2E2E2E2E2E2E2E2E2E2E2E2E2E2E2E2E2E2E2E2E2E2E2E2E2E2E2E2E2E2E2E2E2E2E2E2E2E2E2E2E2E2E2E2E2E2E2E2E2E2E2
310
E2E2E2E2E22D2DE2E2E2E2E2E22D2DDCDCDCE2E2E2E2E2E2E2E2E2E2E2E2E2E2E2E2E2E2E2E2E2E2E2E2E2E2E2E2E2E2E2E2E2E2E2E2E2E2E2E2E2E2E2E2E2E2E2E2E2E2E2E2E2E2E2E2E2E2E2E2E2E2E2E2E2E2E2E2E2E2E2E2E2E2E2E2E2E2E2E2E2E2E2E2E2E2E2E2E2E2E2E2E2E2E2E2E2E2E2E2E2E2E2E2E2E2E2E2E2
310
E2E2BEE2E2E2E2E2E2E2E2E2E2E2E2E2E2E2E2E2E2E2E2E2E2E2E2E2E2E2E2E2E2E2E2E2E2E2E2E2E2E2E2E2E2E2E2E2E2BEE2E2E2E2E2BEE2BEE2BEE2BEE2BEE2E2BEE2E2E2E2E2E2E2E2E2E2E2E2E2E2E2E2E2E2E2E2E2E2E2E2E2E2E2E2E2E2E2E2E2E2E2E2E2E2E2E2E2E2E2E2E2E2E2E2E2E2E2E2E2E2E2E2E2E2E2E2
310
E2E2E2E2E2E2E22D2DE2E2E2E2E2E22D2DDCDCDCDCE2E2E2E2E2E2E2E2E2E2E2E2E2E2E2E2E2E2E2E2E2E2E2E2E2E2E2E2E2E2E2E2E2E2E2E2E2E2E2E2E2E2E2E2E2E2E2E2E2E2E2E2E2E2E2E2E2E2E2E2E2E2E2E2E2E2E2E2E2E2E2E2E2E2E2E2E2E2E2E2E2E2E2E2E2E2E2E2E2E2E2E2E2E2E2E2E2E2E2E2E2E2E2E2E2E2
310
E2E2E2E2BEE2E2E2E2E2E2E2E2E2E2E2E2E2E2E2E2E2E2E2E2E2E2E2E2E2E2E2E2E2E2E2E2E2E2E2E2E2E2E2E2E2E2E2E2E2E2BEE2E2E2E2E2BEE2BEE2BEE2BEE2BEE2E2BEE2E2E2E2E2E2E2E2E2E2E2E2E2E2E2E2E2E2E2E2E2E2E2E2E2E2E2E2E2E2E2E2E2E2E2E2E2E2E2E2E2E2E2E2E2E2E2E2E2E2E2E2E2E2E2E2E2E2
310
E2E2E2E2E2E2E2E2E22D2DE2E2E2E2E2E22D2DE2E2E2E2DCDCDCDCDCE2E2E2E2E2E2E2E2E2E2E2E2E2E2E2E2E2E2E2E2E2E2E2E2E2E2E2E2E2E2E2E2E2E2E2E2E2E2E2E2E2E2E2E2E2E2E2E2E2E2E2E2E2E2E2E2E2E2E2E2E2E2E2E2E2E2E2E2E2E2E2E2E2E2E2E2E2E2E2E2E2E2E2E2E2E2E2E2E2E2E2E2E2E2E2E2E2E2E2
310
E2E2E2E2E2E2BEE2E2E2E2E2E2E2E2E2E2E2E2E2E2E2E2E2E2E2E2E2E2E2E2E2E2E2E2E2E2E2E2E2E2E2E2E2E2E2E2E2E2E2E2E2E2BEE2E2E2E2E2BEE2BEE2BEE2BEE2BEE2E2BEE2E2E2E2E2E2E2E2E2E2E2E2E2E2E2E2E2E2E2E2E2E2E2E2E2E2E2E2E2E2E2E2E2E2E2E2E2E2E2E2E2E2E2E2E2E2E2E2E2E2E2E2E2E2E2E2
310
E2E2E2E2E2E2E2E2E2E2E22D2DE2E2E2E2E2E22D2DE2E2E2E2E2E2E2E2E2DCDCDCDCDCDCE2E2E2E2E2E2E2E2E2E2E2E2E2E2E2E2E2E2E2E2E2E2E2E2E2E2E2DCDCDCDCDCDCE2E2DCDCDCDCDCDCE2E2DCDCDCDCDCDCDCE2DCE2DCDCE2DCDCE2E2DCE2DCDCDCE2E2E2E2E2E2E2E2E2E2E2E2E2E2E2E2E2E2E2E2E2E2E2E2E2E2
310
E2E2E2E2E2E2E2E2BEE2E2E2E2E2E2E2E2E2E2E2E2E2E2E2E2E2E2E2E2E2E2E2E2E2E2E2E2E2E2E2E2E2E2E2E2E2E2E2E2E2E2E2E2E2E2BEE2E2E2E2E2BEE2BEE2BEE2BEE2BEE2E2BEE2E2E2E2E2E2E2E2E2E2E2E2E2E2E2E2E2E2E2E2E2E2E2E2E2E2E2E2E2E2E2E2E2E2E2E2E2E2E2E2E2E2E2E2E2E2E2E2E2E2E2E2E2E2
310
E2E2E2E2E2E2E2E2E2E2E2E2E22D2DE2E2E2E2E2E22D2DE2E2E2E2E2E2E2E2E2E2E2E2E2E2E2DCDCDCDCDCE2E2E2E2E2E2E2E2E2E2E2E2E2E2E2E2E2E2E2E2E2E2DCDCDCDCDCDCE2E2DCDCDCDCDCDCE2E2DCDCDCE2DCDCDCDCDCE2DCDCDCDCDCDCE2DCDCDCDCDCDCE2E2E2E2E2E2E2E2E2E2E2E2E2E2E2E2E2E2E2E2E2E2E2
310
E2E2E2E2E2E2E2E2E2E2BEE2E2E2E2E2E2E2E2E2E2E2E2E2E2E2E2E2E2E2E2E2E2E2E2E2E2E2E2E2E2E2E2E2E2E2E2E2E2E2E2E2E2E2E2E2E2BEE2E2E2E2E2BEE2BEE2BEE2BEE2BEE2E2BEE2E2E2E2E2E2E2E2E2E2E2E2E2E2E2E2E2E2E2E2E2E2E2E2E2E2E2E2E2E2E2E2E2E2E2E2E2E2E2E2E2E2E2E2E2E2E2E2E2E2E2E2
310
E2E2E2E2E2E2E2E2E2E2E2E2E2E2E22D2DE2E2E2E2E2E22D2DE2E2E2E2E2E2E2E2E2E2E2E2E2E2E2E2E2E2E2E2DCDCDCDCDCE2E2E2E2E2E2E2E2E2E2E2E2E2E2E2E2E2DCDCDCDCDCDCE2E2DCDCDCDCDCDCE2E2DCDCDCDCDCDCDCDCE2E2DCDCE2DCDCE2E2DCDCDCDCE2DCE2E2E2E2E2E2E2E2E2E2E2E2E2E2E2E2E2E2E2E2E2
310
E2E2E2E2E2E2E2E2E2E2E2E2BEE2E2E2E2E2E2E2E2E2E2E2E2E2E2E2E2E2E2E2E2E2E2E2E2E2E2E2E2E2E2E2E2E2E2E2E2E2E2E2E2E2E2E2E2E2E2BEE2E2E2E2E2BEE2BEE2BEE2BEE2BEE2E2BEE2E2E2E2E2E2E2E2E2E2E2E2E2E2E2E2E2E2E2E2E2E2E2E2E2E2E2E2E2E2E2E2E2E2E2E2E2E2E2E2E2E2E2E2E2E2E2E2E2E2
310
E2E2E2E2E2E2E2E2E2E2E2E2E2E2E2E2E22D2DE2E2E2E2E2E22D2DE2E2E2E2E2E2E2E2E2E2E2E2E2E2E2E2E2E2E2E2E2E2E2E2E2DCDCDCDCDCDCE2E2E2E2E2E2E2E2E2E2E2DCDCDCDCDCDCDCDCDCDCDCE2DCDCDCDCDCDCDCDCDCDCDCDCDCE2DCDCDCDCDCDCDCDCE2E2E2E2E2E2E2E2E2E2E2E2E2E2E2E2E2E2E2E2E2E2E2E2
310
E2E2E2E2E2E2E2E2E2E2E2E2E2E2BEE2E2E2E2E2E2E2E2E2E2E2E2E2E2E2E2E2E2E2E2E2E2E2E2E2E2E2E2E2E2E2E2E2E2E2E2E2E2E2E2E2E2E2E2E2E2BEE2E2E2E2E2BEE2BEE2BEE2BEE2BEE2E2BEE2E2E2E2E2E2E2E2E2E2E2E2E2E2E2E2E2E2E2E2E2E2E2E2E2E2E2E2E2E2E2E2E2E2E2E2E2E2E2E2E2E2E2E2E2E2E2E2
310
E2E2E2E2E2E2E2E2E2E2E2E2E2E2E2E2E2E2E22D2D2D2D2D2D2D2D2D2DE2E2E2E2E2E2E2E2E2E2E2E2E2E2E2E2E2E2E2E2E2E2E2E2E2E2E2E2E2E2E2DCDCDCDCDCDCDCDCDCDCE2DCDCDCDCDCDCDCDCDCDCE2E2DCDCDCDCDCDCDCDCDCDCDCDCE2E2DCDCDCDCE2DCDCDCE2E2E2E2E2E2E2E2E2E2E2E2E2E2E2E2E2E2E2E2E2E2
310
E2E2E2E2E2E2E2E2E2E2E2E2E2E2E2E2BEE2E2E2E2E2E2E2E2E2E2E2E2E2E2E2E2E2E2E2E2E2E2E2E2E2E2E2E2E2E2E2E2E2E2E2E2E2E2E2E2E2E2E2E2E2E2BEE2E2E2E2E2BEE2BEE2E2E2BEE2BEE2E2BEE2E2E2E2E2E2E2E2E2E2E2E2E2E2E2E2E2E2E2E2E2E2E2E2E2E2E2E2E2E2E2E2E2E2E2E2E2E2E2E2E2E2E2E2E2E2
310
E2E2E2E2E2E2E2E2E2E2E2E2E2E2E2E2E2E2E2E2E22D2D2D2D2D2D2D2D2D2DE2E2E2E2E2E2E2E2E2E2E2E2E2E2E2E2E2E2E2E2E2E2E2E2E2E2E2E2E2E2E2E2E2E2E2E2E2E2E2E2E2E2DCDCDCDCE2DCDCDCDCDCDCE2DCDCDCDCDCDCDCDCDCDCDCDCE2E2DCDCDCDCDCE2DCDCE2E2E2E2E2E2E2E2E2E2E2E2E2E2E2E2E2E2E2E2
310
E2E2E2E2E2E2E2E2E2E2E2E2E2E2E2E2E2E2BEE2E2E2E2E2E2E2E2E2E2E2E2E2E2E2E2E2E2E2E2E2E2E2E2E2E2E2E2E2E2E2E2E2E2E2E2E2E2E2E2E2E2E2E2E2E2BEE2E2E2E2E2BEE2BEE2E2E2BEE2E2E2E2BEE2E2E2E2E2E2E2E2E2E2E2E2E2E2E2E2E2E2E2E2E2E2E2E2E2E2E2E2E2E2E2E2E2E2E2E2E2E2E2E2E2E2E2E2
310
E2E2E2E2E2E2E2E2E2E2E2E2E2E2E2E2E2E2E2E2E2E2E2E2E2E2E2E2E2E2E2E2E2E2E2E2E2E2E2E2E2E2E2E2E2E2E2E2E2E2E2E2E2E2E2E2E2E2E2E2E2E2E2E2E2E2E2E2E2E2E2E2E2E2E2E2E2E2E2E2E2E2E2E2E2E2E2E2E2E2E2E2E2E2E2E2E2E2E2E2E2E2E2E2E2E2E2E2E2E2E2E2E2E2E2E2E2E2E2E2E2E2E2E2E2E2E2
310
E2E2E2E2E2E2E2E2E2E2E2E2E2E2E2E2E2E2E2E2BEE2E2E2E2E2E2E2E2E2E2E2E2E2E2E2E2E2E2E2E2E2E2E2E2E2E2E2E2E2E2E2E2E2E2E2E2E2E2E2E2E2E2E2E2E2E2BEE2E2E2E2E2E2E2BEE2E2E2BEE2E2E2E2BEE2E2E2E2E2E2E2E2E2E2E2E2E2E2E2E2E2E2E2E2E2E2E2E2E2E2E2E2E2E2E2E2E2E2E2E2E2E2E2E2E2E2
310
E2E2E2E2E2E2E2E2E2E2E2E2E2E2E2E2E2E2E2E2E2E2E2E2E2E2E2E2E2E2E2E2E2E2E2E2E2E2E2E2E2E2E2E2E2E2E2E2E2E2E2E2E2E2E2E2E2E2E2E2E2E2E2E2E2E2E2E2E2E2E2E2E2E2E2E2E2E2E2E2E2E2E2E2E2E2E2E2E2E2E2E2E2E2E2E2E2E2E2E2E2E2E2E2E2E2E2E2E2E2E2E2E2E2E2E2E2E2E2E2E2E2E2E2E2E2E2
310
E2E2E2E2E2E2E2E2E2E2E2E2E2E2E2E2E2E2E2E2E2E2BEE2E2E2E2E2E2E2E2E2E2E2E2E2E2E2E2E2E2E2E2E2E2E2E2E2E2E2E2E2E2E2E2E2E2E2E2E2E2E2E2E2E2E2E2E2E2BEE2E2E2E2E2E2E2E2E2E2E2E2E2E2E2E2BEE2E2E2E2E2E2E2E2E2E2E2E2E2E2E2E2E2E2E2E2E2E2E2E2E2E2E2E2E2E2E2E2E2E2E2E2E2E2E2E2
310
E2E2E2E2E2E2E2E2E2E2E2E2E2E2E2E2E2E2E2E2E2E2E2E2E2E2E2E2E2E2E2E2E2E2E2E2E2E2E2E2E2E2E2E2E2E2E2E2E2E2E2E2E2E2E2E2E2E2E2E2E2E2E2E2E2E2E2E2E2E2E2E2E2E2E2E2E2E2E2E2E2E2E2E2E2E2E2E2E2E2E2E2E2E2E2E2E2E2E2E2E2E2E2E2E2E2E2E2E2E2E2E2E2E2E2E2E2E2E2E2E2E2E2E2E2E2E2
310
E2E2E2E2E2E2E2E2E2E2E2E2E2E2E2E2E2E2E2E2E2E2E2E2BEE2E2E2E2E2E2E2E2E2E2E2E2E2E2E2E2E2E2E2E2E2E2E2E2E2E2E2E2E2E2E2E2E2E2E2E2E2E2E2E2E2E2E2E2E2E2BEE2E2E2E2E2E2E2E2E2E2E2E2E2E2E2E2BEE2E2E2E2E2E2E2E2E2E2E2E2E2E2E2E2E2E2E2E2E2E2E2E2E2E2E2E2E2E2E2E2E2E2E2E2E2E2
310
E2E2E2E2E2E2E2E2E2E2E2E2E2E2E2E2E2E2E2E2E2E2E2E2E2E2E2E2E2E2E2E2E2E2E2E2E2E2E2E2E2E2E2E2E2E2E2E2E2E2E2E2E2E2E2E2E2E2E2E2E2E2E2E2E2E2E2E2E2E2E2E2E2E2E2E2E2E2E2E2E2E2E2E2E2E2E2E2E2E2E2E2E2E2E2E2E2E2E2E2E2E2E2E2E2E2E2E2E2E2E2E2E2E2E2E2E2E2E2E2E2E2E2E2E2E2E2
310
E2E2E2E2E2E2E2E2E2E2E2E2E2E2E2E2E2E2E2E2E2E2E2E2E2E2BEE2E2E2E2E2E2E2E2E2E2E2E2E2E2E2E2E2E2E2E2E2E2E2E2E2E2E2E2E2E2E2E2E2E2E2E2E2E2E2E2E2E2E2E2E2E2BEE2E2E2E2E2E2E2E2E2E2E2E2E2E2E2E2BEE2E2E2E2E2E2E2E2E2E2E2E2E2E2E2E2E2E2E2E2E2E2E2E2E2E2E2E2E2E2E2E2E2E2E2E2
310
E2E2E2E2E2E2E2E2E2E2E2E2E2E2E2E2E2E2E2E2E2E2E2E2E2E2E2E2E2E2E2E2E2E2E2E2E2E2E2E2E2E2E2E2E2E2E2E2E2E2E2E2E2E2E2E2E2E2E2E2E2E2E2E2E2E2E2E2E2E2E2E2E2E2E2E2E2E2E2E2E2E2E2E2E2E2E2E2E2E2E2E2E2E2E2E2E2E2E2E2E2E2E2E2E2E2E2E2E2E2E2E2E2E2E2E2E2E2E2E2E2E2E2E2E2E2E2
310
E2E2E2E2E2E2E2E2E2E2E2E2E2E2E2E2E2E2E2E2E2E2E2E2E2E2E2E2BEE2E2E2E2E2E2E2E2E2E2E2E2E2E2E2E2E2E2E2E2E2E2E2E2E2E2E2E2E2E2E2E2E2E2E2E2E2E2E2E2E2E2E2E2E2E2BEBEBEBEBEBEBEBEBEBEBEBEBEBEBEBEBEBEBEBEBEBEBEBEBEBEBEBEBEBEBEBEBEBEBEBEBEBEBEBEBEBEBEBEBEBEBEBEBEBEBEBE
310
BEBEBEBEBEBEBEBEBEBEBEBEBEBEBEBEBEBEBEBEBEBEBEBEBEBEBEBEBEBEBEBEBEBEBEBEBEBEBEBEBEBEBEBEBEBEBEBEBEBEBEBEBEBEBEBEBEBEBEBEBEBEBEBEBEBEBEBEBEBEBEBEBEBEBEBEBEBEBEBEBEBEBEBEBEBEBEBEBEBEBEBEBEBEBEBEBEBEBEBEBEBEBEBEBEBEBEBEBEBEBEBEBEBEBEBEBEBEBEBEBEBEBEBEBEBEBE
310
BEBEBEBEBEBEBEBEBEBEBEBEBEBEBEBEBEBEBEBEBEBEBEBEBEBEBEBEBEBEBEE2E2E2E2E2E2E2E2E2E2E2E2E2E2E2E2E2E2E2E2E2E2E2E2E2E2E2E2E2E2E2E2E2E2E2E2E2E2E2E2E2E2E2E2E2E2E2E2E2E2E2E2E2E2E2E2E2E2E2E2E2E2E2E2E2E2E2E2E2E2E2E2E2E2E2E2E2E2E2E2E2E2E2E2E2E2E2E2E2E2E2E2E2E2E2E2
310
E2E2E2E2E2E2E2E2E2E2E2E2E2E2E2E2E2E2E2E2E2E2E2E2E2E2E2E2E2E2E2E2E2E2E2E2E2E2E2E2E2E2E2E2E2E2E2E2E2E2E2E2E2E2E2E2E2E2E2E2E2E2E2E2E2E2E2E2E2E2E2E2E2E2E2E2E2E2E2E2E2E2E2E2E2E2E2E2E2E2E2E2E2E2E2E2E2E2E2E2E2E2E2E2E2E2E2E2E2E2E2E2E2E2E2E2E2E2E2E2E2E2E2E2E2E2E2
310
E2E2E2E2E2E2E2E2E2E2E2E2E2E2E2E2E2E2E2E2E2E2E2E2E2E2E2E2E2E2E2E2E2E2E2E2E2E2E2E2E2E2E2E2E2E2E2E2E2E2E2E2E2E2E2E2E2E2E2E2E2E2E2E2E2E2E2E2E2E2E2E2E2E2E2E2E2E2E2E2E2E2E2E2E2E2E2E2E2E2E2E2E2E2E2E2E2E2E2E2E2E2E2E2E2E2E2E2E2E2E2E2E2E2E2E2E2E2E2E2E2E2E2E2E2E2E2
310
E2E2E2E2E2E2E2E2E2E2E2E2E2E2E2E2E2E2E2E2E2E2E2E2E2E2E2E2E2E2E2E2E2E2E2E2E2E2E2E2E2E2E2E2E2E2E2E2E2E2E2E2E2E2E2E2E2E2E2E2E2E2E2E2E2E2E2E2E2E2E2E2E2E2E2E2E2E2E2E2E2E2E2E2E2E2E2E2E2E2E2E2E2E2E2E2E2E2E2E2E2E2E2E2E2E2E2E2E2E2E2E2E2E2E2E2E2E2E2E2E2E2E2E2E2E2E2
310
E2E2E2E2E2E2E2E2E2E2E2E2E2E2E2E2E2E2E2E2E2E2E2E2E2E2E2E2E2E2E2E2E2E2E2E2E2E2E2E2E2E2E2E2E2E2E2E2E2E2E2E2E2E2E2E2E2E2E2E2E2E2E2E2E2E2E2E2E2E2E2E2E2E2E2E2E2E2E2E2E2E2E2E2E2E2E2E2E2E2E2E2E2E2E2E2E2E2E2E2E2E2E2E2E2E2E2E2E2E2E2E2E2E2E2E2E2E2E2E2E2E2E2E2E2E2E2
310
E2E2E2E2E2E2E2E2E2E2E2E2E2E2E2E2E2E2E2E2E2E2E2E2E2E2E2E2E2E2E2E2E2E2E2E2E2E2E2E2E2E2E2E2E2E2E2E2E2E2E2E2E2E2E2E2E2E2E2E2E2E2E2E2E2E2E2E2E2E2E2E2E2E2E2E2E2E2E2E2E2E2E2E2E2E2E2E2E2E2E2E2E2E2E2E2E2E2E2E2E2E2E2E2E2E2E2E2E2E2E2E2E2E2E2E2E2E2E2E2E2E2E2E2E2E2E2
310
E2E2E2E2E2E2E2E2E2E2E2E2E2E2E2E2E2E2E2E2E2E2E2E2E2E2E2E2E2E2E2E2E2E2E2E2E2E2E2E2E2E2E2E2E2E2E2E2E2E2E2E2E2E2E2E2E2E2E2E2E2E2E2E2E2E2E2E2E2E2E2E2E2E2E2E2E2E2E2E2E2E2E2E2E2E2E2E2E2E2E2E2E2E2E2E2E2E2E2E2E2E2E2E2E2E2E2E2E2E2E2E2E2E2E2E2E2E2E2E2E2E2E2E2E2E2E2
310
E2E2E2E2E2E2E2E2E2E2E2E2E2E2E2E2E2E2E2E2E2E2E2E2E2E2E2E2E2E2E2E2E2E2E2E2E2E2E2E2E2E2E2E2E2E2E2E2E2E2E2E2E2E2E2E2E2E2E2E2E2E2E2E2E2E2E2E2E2E2E2E2E2E2E2E2E2E2E2E2E2E2E2E2E2E2E2E2E2E2E2E2E2E2E2E2E2E2E2E2E2E2E2E2E2E2E2E2E2E2E2E2E2E2E2E2E2E2E2E2E2E2E2E2E2E2E2
310
E2E2E2E2E2E2E2E2E2E2E2E2E2E2E2E2E2E2E2E2E2E2E2E2E2E2E2E2E2E2E2E2E2E2E2E2E2E2E2E2E2E2E2E2E2E2E2E2E2E2E2E2E2E2E2E2E2E2E2E2E2E2E2E2E2E2E2E2E2E2E2E2E2E2E2E2E2E2E2E2E2E2E2E2E2E2E2E2E2E2E2E2E2E2E2E2E2E2E2E2E2E2E2E2E2E2E2E2E2E2E2E2E2E2E2E2E2E2E2E2E2E2E2E2E2E2E2
310
E2E2E2E2E2E2E2E2E2E2E2E2E2E2E2E2E2E2E2E2E2E2E2E2E2E2E2E2E2E2E2E2E2E2E2E2E2E2E2E2E2E2E2E2E2E2E2E2E2E2E2E2E2E2E2E2E2E2E2E2E2E2E2E2E2E2E2E2E2E2E2E2E2E2E2E2E2E2E2E2E2E2E2E2E2E2E2E2E2E2E2E2E2E2E2E2E2E2E2E2E2E2E2E2E2E2E2E2E2E2E2E2E2E2E2E2E2E2E2E2E2E2E2E2E2E2E2
310
E2E2E2E2E2E2E2E2E2E2E2E2E2E2E2E2E2E2E2E2E2E2E2E2E2E2E2E2E2E2E2E2E2E2E2E2E2E2E2E2E2E2E2E2E2E2E2E2E2E2E2E2E2E2E2E2E2E2E2E2E2E2E2E2E2E2E2E2E2E2E2E2E2E2E2E2E2E2E2E2E2E2E2E2E2E2E2E2E2E2E2E2E2E2E2E2E2E2E2E2E2E2E2E2E2E2E2E2E2E2E2E2E2E2E2E2E2E2E2E2E2E2E2E2E2E2E2
310
E2E2E2E2E2E2E2E2E2E2E2E2E2E2E2E2E2E2E2E2E2E2E2E2E2E2E2E2E2E2E2E2E2E2E2E2E2E2E2E2E2E2E2E2E2E2E2E2E2E2E2E2E2E2E2E2E2E2E2E2E2E2E2E2E2E2E2E2E2E2E2E2E2E2E2E2E2E2E2E2E2E2E2E2E2E2E2E2E2E2E2E2E2E2E2E2E2E2E2E2E2E2E2E2E2E2E2E2E2E2E2E2E2E2E2E2E2E2E2E2E2E2E2E2E2E2E2
310
E2E2E2E2E2E2E2E2E2E2E2E2E2E2E2E2E2E2E2E2E2E2E2E2E2E2E2E2E2E2E2E2E2E2E2E2E2E2E2E2E2E2E2E2E2E2E2E2E2E2E2E2E2E2E2E2E2E2E2E2E2E2E2E2E2E2E2E2E2E2E2E2E2E2E2E2E2E2E2E2E2E2E2E2E2E2E2E2E2E2E2E2E2E2E2E2E2E2E2E2E2E2E2E2E2E2E2E2E2E2E2E2E2E2E2E2E2E2E2E2E2E2E2E2E2E2E2
310
E2E2E2E2E2E2E2E2E2E2E2E2E2E2E2E2E2E2E2E2E2E2E2E2E2E2E2E2E2E2E2E2E2E2E2E2E2E2E2E2E2E2E2E2E2E2E2E2E2E2E2E2E2E2E2E2E2E2E2E2E2E2E2E2E2E2E2E2E2E2E2E2E2E2E2E2E2E2E2E2E2E2E2E2E2E2E2E2E2E2E2E2E2E2E2E2E2E2E2E2E2E2E2E2E2E2E2E2E2E2E2E2E2E2E2E2E2E2E2E2E2E2E2E2E2E2E2
310
E2E2E2E2E2E2E2E2E2E2E2E2E2E2E2E2E2E2E2E2E2E2E2E2E2E2E2E2E2E2E2E2E2E2E2E2E2E2E2E2E2E2E2E2E2E2E2E2E2E2E2E2E2E2E2E2E2E2E2E2E2E2E2E2E2E2E2E2E2E2E2E2E2E2E2E2E2E2E2E2E2E2E2E2E2E2E2E2E2E2E2E2E2E2E2E2E2E2E2E2E2E2E2E2E2E2E2E2E2E2E2E2E2E2E2E2E2E2E2E2E2E2E2E2E2E2E2
310
E2E2E2E2E2E2E2E2E2E2E2E2E2E2E2E2E2E2E2E2E2E2E2E2E2E2E2E2E2E2E2E2E2E2E2E2E2E2E2E2E2E2E2E2E2E2E2E2E2E2E2E2E2E2E2E2E2E2E2E2E2E2E2E2E2E2E2E2E2E2E2E2E2E2E2E2E2E2E2E2E2E2E2E2E2E2E2E2E2E2E2E2E2E2E2E2E2E2E2E2E2E2E2E2E2E2E2E2E2E2E2E2E2E2E2E2E2E2E2E2E2E2E2E2E2E2E2
310
E2E2E2E2E2E2E2E2E2E2E2E2E2E2E2E2E2E2E2E2E2E2E2E2E2E2E2E2E2E2E2E2E2E2E2E2E2E2E2E2E2E2E2E2E2E2E2E2E2E2E2E2E2E2E2E2E2E2E2E2E2E2E2E2E2E2E2E2E2E2E2E2E2E2E2E2E2E2E2E2E2E2E2E2E2E2E2E2E2E2E2E2E2E2E2E2E2E2E2E2E2E2E2E2E2E2E2E2E2E2E2E2E2E2E2E2E2E2E2E2E2E2E2E2E2E2E2
310
E2E2E2E2E2E2E2E2E2E2E2E2E2E2E2E2E2E2E2E2E2E2E2E2E2E2E2E2E2E2E2E2E2E2E2E2E2E2E2E2E2E2E2E2E2E2E2E2E2E2E2E2E2E2E2E2E2E2E2E2E2E2E2E2E2E2E2E2E2E2E2E2E2E2E2E2E2E2E2E2E2E2E2E2E2E2E2E2E2E2E2E2E2E2E2E2E2E2E2E2E2E2E2E2E2E2E2E2E2E2E2E2E2E2E2E2E2E2E2E2E2E2E2E2E2E2E2
310
E2E2E2E2E2E2E2E2E2E2E2E2E2E2E2E2E2E2E2E2E2E2E2E2E2E2E2E2E2E2E2E2E2E2E2E2E2E2E2E2E2E2E2E2E2E2E2E2E2E2E2E2E2E2E2E2E2E2E2E2E2E2E2E2E2E2E2E2E2E2E2E2E2E2E2E2E2E2E2E2E2E2E2E2E2E2E2E2E2E2E2E2E2E2E2E2E2E2E2E2E2E2E2E2E2E2E2E2E2E2E2E2E2E2E2E2E2E2E2E2E2E2E2E2E2E2E2
310
E2E2E2E2E2E2E2E2E2E2E2E2E2E2E2E2E2E2E2E2E2E2E2E2E2E2E2E2E2E2E2E2E2E2E2E2E2E2E2E2E2E2E2E2E2E2E2E2E2E2E2E2E2E2E2E2E2E2E2E2E2E2E2E2E2E2E2E2E2E2E2E2E2E2E2E2E2E2E2E2E2E2E2E2E2E2E2E2E2E2E2E2E2E2E2E2E2E2E2E2E2E2E2E2E2E2E2E2E2E2E2E2E2E2E2E2E2E2E2E2E2E2E2E2E2E2E2
310
E2E2E2E2E2E2E2E2E2E2E2E2E2E2E2E2E2E2E2E2E2E2E2E2E2E2E2E2E2E2E2E2E2E2E2E2E2E2E2E2E2E2E2E2E2E2E2E2E2E2E2E2E2E2E2E2E2E2E2E2E2E2E2E2E2E2E2E2E2E2E2E2E2E2E2E2E2E2E2E2E2E2E2E2E2E2E2E2E2E2E2E2E2E2E2E2E2E2E2E2E2E2E2E2E2E2E2E2E2E2E2E2E2E2E2E2E2E2E2E2E2E2E2E2E2E2E2
310
E2E2E2E2E2E2E2E2E2E2E2E2E2E2E2E2E2E2E2E2E2E2E2E2E2E2E2E2E2E2E2E2E2E2E2E2E2E2E2E2E2E2E2E2E2E2E2E2E2E2E2E2E2E2E2E2E2E2E2E2E2E2E2E2E2E2E2E2E2E2E2E2E2E2E2E2E2E2E2E2E2E2E2E2E2E2E2E2E2E2E2E2E2E2E2E2E2E2E2E2E2E2E2E2E2E2E2E2E2E2E2E2E2E2E2E2E2E2E2E2E2E2E2E2E2E2E2
310
E2E2E2E2E2E2E2E2E2E2E2E2E2E2E2E2E2E2E2E2E2E2E2E2E2E2E2E2E2E2E2E2E2E2E2E2E2E2E2E2E2E2E2E2E2E2E2E2E2E2E2E2E2E2E2E2E2E2E2E2E2E2E2E2E2E2E2E2E2E2E2E2E2E2E2E2E2E2E2E2E2E2E2E2E2E2E2E2E2E2E2E2E2E2E2E2E2E2E2E2E2E2E2E2E2E2E2E2E2E2E2E2E2E2E2E2E2E2E2E2E2E2E2E2E2E2E2
310
E2E2E2E2E2E2E2E2E2E2E2E2E2E2E2E2E2E2E2E2E2E2E2E2E2E2E2E2E2E2E2E2E2E2E2E2E2E2E2E2E2E2E2E2E2E2E2E2E2E2E2E2E2E2E2E2E2E2E2E2E2E2E2E2E2E2E2E2E2E2E2E2E2E2E2E2E2E2E2E2E2E2E2E2E2E2E2E2E2E2E2E2E2E2E2E2E2E2E2E2E2E2E2E2E2E2E2E2E2E2E2E2E2E2E2E2E2E2E2E2E2E2E2E2E2E2E2
310
E2E2E2E2E2E2E2E2E2E2E2E2E2E2E2E2E2E2E2E2E2E2E2E2E2E2E2E2E2E2E2E2E2E2E2E2E2E2E2E2E2E2E2E2E2E2E2E2E2E2E2E2E2E2E2E2E2E2E2E2E2E2E2E2E2E2E2E2E2E2E2E2E2E2E2E2E2E2E2E2E2E2E2E2E2E2E2E2E2E2E2E2E2E2E2E2E2E2E2E2E2E2E2E2E2E2E2E2E2E2E2E2E2E2E2E2E2E2E2E2E2E2E2E2E2E2E2
310
E2E2E2E2E2E2E2E2E2E2E2E2E2E2E2E2E2E2E2E2E2E2E2E2E2E2E2E2E2E2E2E2E2E2E2E2E2E2E2E2E2E2E2E2E2E2E2E2E2E2E2E2E2E2E2E2E2E2E2E2E2E2E2E2E2E2E2E2E2E2E2E2E2E2E2E2E2E2E2E2E2E2E2E2E2E2E2E2E2E2E2E2E2E2E2E2E2E2E2E2E2E2E2E2E2E2E2E2E2E2E2E2E2E2E2E2E2E2E2E2E2E2E2E2E2E2E2
310
E2E2E2E2E2E2E2E2E2E2E2E2E2E2E2E2E2E2E2E2E2E2E2E2E2E2E2E2E2E2E2E2E2E2E2E2E2E2E2E2E2E2E2E2E2E2E2E2E2E2E2E2E2E2E2E2E2E2E2E2E2E2E2E2E2E2E2E2E2E2E2E2E2E2E2E2E2E2E2E2
  0
XRECORD
  5
1918
102
{ACAD_REACTORS
330
1917
102
}
330
1917
100
AcDbXrecord
280
     1
102
MATERIAL
148
0.0
149
0.0
149
0.0
 93
        0
 94
       63
282
     0
 72
     1
 77
     1
171
     1
175
     1
179
     1
273
     0
  0
XRECORD
  5
1916
102
{ACAD_REACTORS
330
1915
102
}
330
1915
100
AcDbXrecord
280
     1
102
MATERIAL
148
0.0
149
0.0
149
0.0
 93
        0
 94
       63
282
     0
 72
     1
 77
     1
171
     1
175
     1
179
     1
273
     0
  0
XRECORD
  5
1919
102
{ACAD_REACTORS
330
110
102
}
330
110
100
AcDbXrecord
280
     1
102
MATERIAL
148
0.0
149
0.0
149
0.0
 93
        0
 94
       63
282
     0
 72
     1
 77
     1
171
     1
175
     1
179
     1
273
     0
  0
XRECORD
  5
112
102
{ACAD_REACTORS
330
110
102
}
330
110
100
AcDbXrecord
280
     1
270
     1
271
     1
  0
XRECORD
  5
111
102
{ACAD_REACTORS
330
110
102
}
330
110
100
AcDbXrecord
280
     1
270
     1
271
     1
  0
XRECORD
  5
113
102
{ACAD_REACTORS
330
110
102
}
330
110
100
AcDbXrecord
280
     1
270
     1
271
     1
  0
XRECORD
  5
114
102
{ACAD_REACTORS
330
110
102
}
330
110
100
AcDbXrecord
280
     1
270
     1
271
     1
  0
CELLSTYLEMAP
  5
1912
102
{ACAD_REACTORS
330
1898
102
}
330
1898
100
AcDbCellStyleMap
 90
        3
300
CELLSTYLE
  1
TABLEFORMAT_BEGIN
 90
        5
170
     1
 91
        0
 92
    32768
 62
   257
 93
        1
300
CONTENTFORMAT
  1
CONTENTFORMAT_BEGIN
 90
        0
 91
        0
 92
      512
 93
        0
300

 40
0.0
140
1.0
 94
        5
 62
     0
340
180
144
0.5
309
CONTENTFORMAT_END
171
     0
 94
        6
 95
        1
302
GRIDFORMAT
  1
GRIDFORMAT_BEGIN
 90
        0
 91
        1
 62
     0
 92
       -2
340
0
 93
        1
 40
0.045
309
GRIDFORMAT_END
 95
        2
302
GRIDFORMAT
  1
GRIDFORMAT_BEGIN
 90
        0
 91
        1
 62
     0
 92
       -2
340
0
 93
        1
 40
0.045
309
GRIDFORMAT_END
 95
        4
302
GRIDFORMAT
  1
GRIDFORMAT_BEGIN
 90
        0
 91
        1
 62
     0
 92
       -2
340
0
 93
        1
 40
0.045
309
GRIDFORMAT_END
 95
        8
302
GRIDFORMAT
  1
GRIDFORMAT_BEGIN
 90
        0
 91
        1
 62
     0
 92
       -2
340
0
 93
        1
 40
0.045
309
GRIDFORMAT_END
 95
       16
302
GRIDFORMAT
  1
GRIDFORMAT_BEGIN
 90
        0
 91
        1
 62
     0
 92
       -2
340
0
 93
        1
 40
0.045
309
GRIDFORMAT_END
 95
       32
302
GRIDFORMAT
  1
GRIDFORMAT_BEGIN
 90
        0
 91
        1
 62
     0
 92
       -2
340
0
 93
        1
 40
0.045
309
GRIDFORMAT_END
309
TABLEFORMAT_END
  1
CELLSTYLE_BEGIN
 90
        1
 91
        1
300
_TITLE
309
CELLSTYLE_END
300
CELLSTYLE
  1
TABLEFORMAT_BEGIN
 90
        5
170
     1
 91
        0
 92
        0
 62
   257
 93
        1
300
CONTENTFORMAT
  1
CONTENTFORMAT_BEGIN
 90
        0
 91
        0
 92
      512
 93
        0
300

 40
0.0
140
1.0
 94
        4
 62
     0
340
180
144
0.4
309
CONTENTFORMAT_END
171
     0
 94
        6
 95
        1
302
GRIDFORMAT
  1
GRIDFORMAT_BEGIN
 90
        0
 91
        1
 62
     0
 92
       -2
340
0
 93
        1
 40
0.045
309
GRIDFORMAT_END
 95
        2
302
GRIDFORMAT
  1
GRIDFORMAT_BEGIN
 90
        0
 91
        1
 62
     0
 92
       -2
340
0
 93
        1
 40
0.045
309
GRIDFORMAT_END
 95
        4
302
GRIDFORMAT
  1
GRIDFORMAT_BEGIN
 90
        0
 91
        1
 62
     0
 92
       -2
340
0
 93
        1
 40
0.045
309
GRIDFORMAT_END
 95
        8
302
GRIDFORMAT
  1
GRIDFORMAT_BEGIN
 90
        0
 91
        1
 62
     0
 92
       -2
340
0
 93
        1
 40
0.045
309
GRIDFORMAT_END
 95
       16
302
GRIDFORMAT
  1
GRIDFORMAT_BEGIN
 90
        0
 91
        1
 62
     0
 92
       -2
340
0
 93
        1
 40
0.045
309
GRIDFORMAT_END
 95
       32
302
GRIDFORMAT
  1
GRIDFORMAT_BEGIN
 90
        0
 91
        1
 62
     0
 92
       -2
340
0
 93
        1
 40
0.045
309
GRIDFORMAT_END
309
TABLEFORMAT_END
  1
CELLSTYLE_BEGIN
 90
        2
 91
        1
300
_HEADER
309
CELLSTYLE_END
300
CELLSTYLE
  1
TABLEFORMAT_BEGIN
 90
        5
170
     1
 91
        0
 92
        0
 62
   257
 93
        1
300
CONTENTFORMAT
  1
CONTENTFORMAT_BEGIN
 90
        0
 91
        0
 92
      512
 93
        0
300

 40
0.0
140
1.0
 94
        4
 62
     0
340
180
144
0.4
309
CONTENTFORMAT_END
171
     0
 94
        6
 95
        1
302
GRIDFORMAT
  1
GRIDFORMAT_BEGIN
 90
        0
 91
        1
 62
     0
 92
       -2
340
0
 93
        1
 40
0.045
309
GRIDFORMAT_END
 95
        2
302
GRIDFORMAT
  1
GRIDFORMAT_BEGIN
 90
        0
 91
        1
 62
     0
 92
       -2
340
0
 93
        1
 40
0.045
309
GRIDFORMAT_END
 95
        4
302
GRIDFORMAT
  1
GRIDFORMAT_BEGIN
 90
        0
 91
        1
 62
     0
 92
       -2
340
0
 93
        1
 40
0.045
309
GRIDFORMAT_END
 95
        8
302
GRIDFORMAT
  1
GRIDFORMAT_BEGIN
 90
        0
 91
        1
 62
     0
 92
       -2
340
0
 93
        1
 40
0.045
309
GRIDFORMAT_END
 95
       16
302
GRIDFORMAT
  1
GRIDFORMAT_BEGIN
 90
        0
 91
        1
 62
     0
 92
       -2
340
0
 93
        1
 40
0.045
309
GRIDFORMAT_END
 95
       32
302
GRIDFORMAT
  1
GRIDFORMAT_BEGIN
 90
        0
 91
        1
 62
     0
 92
       -2
340
0
 93
        1
 40
0.045
309
GRIDFORMAT_END
309
TABLEFORMAT_END
  1
CELLSTYLE_BEGIN
 90
        3
 91
        2
300
_DATA
309
CELLSTYLE_END
  0
XRECORD
  5
1940
102
{ACAD_REACTORS
330
1898
102
}
330
1898
100
AcDbXrecord
280
     1
102
ACAD_ROUNDTRIP_PRE2007_TABLESTYLE
 90
      512
 91
        0
  1

 92
      512
 93
        0
  2

 94
      512
 95
        0
  3

  0
CELLSTYLEMAP
  5
1911
102
{ACAD_REACTORS
330
104
102
}
330
104
100
AcDbCellStyleMap
 90
        3
300
CELLSTYLE
  1
TABLEFORMAT_BEGIN
 90
        5
170
     1
 91
        0
 92
    32768
 62
   257
 93
        1
300
CONTENTFORMAT
  1
CONTENTFORMAT_BEGIN
 90
        0
 91
        0
 92
      512
 93
        0
300

 40
0.0
140
1.0
 94
        5
 62
     0
340
11
144
0.25
309
CONTENTFORMAT_END
171
     1
301
MARGIN
  1
CELLMARGIN_BEGIN
 40
0.06
 40
0.06
 40
0.06
 40
0.06
 40
0.18
 40
0.18
309
CELLMARGIN_END
 94
        6
 95
        1
302
GRIDFORMAT
  1
GRIDFORMAT_BEGIN
 90
        0
 91
        1
 62
     0
 92
       -2
340
0
 93
        0
 40
0.045
309
GRIDFORMAT_END
 95
        2
302
GRIDFORMAT
  1
GRIDFORMAT_BEGIN
 90
        0
 91
        1
 62
     0
 92
       -2
340
0
 93
        0
 40
0.045
309
GRIDFORMAT_END
 95
        4
302
GRIDFORMAT
  1
GRIDFORMAT_BEGIN
 90
        0
 91
        1
 62
     0
 92
       -2
340
0
 93
        0
 40
0.045
309
GRIDFORMAT_END
 95
        8
302
GRIDFORMAT
  1
GRIDFORMAT_BEGIN
 90
        0
 91
        1
 62
     0
 92
       -2
340
0
 93
        0
 40
0.045
309
GRIDFORMAT_END
 95
       16
302
GRIDFORMAT
  1
GRIDFORMAT_BEGIN
 90
        0
 91
        1
 62
     0
 92
       -2
340
0
 93
        0
 40
0.045
309
GRIDFORMAT_END
 95
       32
302
GRIDFORMAT
  1
GRIDFORMAT_BEGIN
 90
        0
 91
        1
 62
     0
 92
       -2
340
0
 93
        0
 40
0.045
309
GRIDFORMAT_END
309
TABLEFORMAT_END
  1
CELLSTYLE_BEGIN
 90
        1
 91
        1
300
_TITLE
309
CELLSTYLE_END
300
CELLSTYLE
  1
TABLEFORMAT_BEGIN
 90
        5
170
     1
 91
        0
 92
        0
 62
   257
 93
        1
300
CONTENTFORMAT
  1
CONTENTFORMAT_BEGIN
 90
        0
 91
        0
 92
      512
 93
        0
300

 40
0.0
140
1.0
 94
        5
 62
     0
340
11
144
0.18
309
CONTENTFORMAT_END
171
     1
301
MARGIN
  1
CELLMARGIN_BEGIN
 40
0.06
 40
0.06
 40
0.06
 40
0.06
 40
0.18
 40
0.18
309
CELLMARGIN_END
 94
        6
 95
        1
302
GRIDFORMAT
  1
GRIDFORMAT_BEGIN
 90
        0
 91
        1
 62
     0
 92
       -2
340
0
 93
        0
 40
0.045
309
GRIDFORMAT_END
 95
        2
302
GRIDFORMAT
  1
GRIDFORMAT_BEGIN
 90
        0
 91
        1
 62
     0
 92
       -2
340
0
 93
        0
 40
0.045
309
GRIDFORMAT_END
 95
        4
302
GRIDFORMAT
  1
GRIDFORMAT_BEGIN
 90
        0
 91
        1
 62
     0
 92
       -2
340
0
 93
        0
 40
0.045
309
GRIDFORMAT_END
 95
        8
302
GRIDFORMAT
  1
GRIDFORMAT_BEGIN
 90
        0
 91
        1
 62
     0
 92
       -2
340
0
 93
        0
 40
0.045
309
GRIDFORMAT_END
 95
       16
302
GRIDFORMAT
  1
GRIDFORMAT_BEGIN
 90
        0
 91
        1
 62
     0
 92
       -2
340
0
 93
        0
 40
0.045
309
GRIDFORMAT_END
 95
       32
302
GRIDFORMAT
  1
GRIDFORMAT_BEGIN
 90
        0
 91
        1
 62
     0
 92
       -2
340
0
 93
        0
 40
0.045
309
GRIDFORMAT_END
309
TABLEFORMAT_END
  1
CELLSTYLE_BEGIN
 90
        2
 91
        1
300
_HEADER
309
CELLSTYLE_END
300
CELLSTYLE
  1
TABLEFORMAT_BEGIN
 90
        5
170
     1
 91
        0
 92
        0
 62
   257
 93
        1
300
CONTENTFORMAT
  1
CONTENTFORMAT_BEGIN
 90
        0
 91
        0
 92
      512
 93
        0
300

 40
0.0
140
1.0
 94
        2
 62
     0
340
11
144
0.18
309
CONTENTFORMAT_END
171
     1
301
MARGIN
  1
CELLMARGIN_BEGIN
 40
0.06
 40
0.06
 40
0.06
 40
0.06
 40
0.18
 40
0.18
309
CELLMARGIN_END
 94
        6
 95
        1
302
GRIDFORMAT
  1
GRIDFORMAT_BEGIN
 90
        0
 91
        1
 62
     0
 92
       -2
340
0
 93
        0
 40
0.045
309
GRIDFORMAT_END
 95
        2
302
GRIDFORMAT
  1
GRIDFORMAT_BEGIN
 90
        0
 91
        1
 62
     0
 92
       -2
340
0
 93
        0
 40
0.045
309
GRIDFORMAT_END
 95
        4
302
GRIDFORMAT
  1
GRIDFORMAT_BEGIN
 90
        0
 91
        1
 62
     0
 92
       -2
340
0
 93
        0
 40
0.045
309
GRIDFORMAT_END
 95
        8
302
GRIDFORMAT
  1
GRIDFORMAT_BEGIN
 90
        0
 91
        1
 62
     0
 92
       -2
340
0
 93
        0
 40
0.045
309
GRIDFORMAT_END
 95
       16
302
GRIDFORMAT
  1
GRIDFORMAT_BEGIN
 90
        0
 91
        1
 62
     0
 92
       -2
340
0
 93
        0
 40
0.045
309
GRIDFORMAT_END
 95
       32
302
GRIDFORMAT
  1
GRIDFORMAT_BEGIN
 90
        0
 91
        1
 62
     0
 92
       -2
340
0
 93
        0
 40
0.045
309
GRIDFORMAT_END
309
TABLEFORMAT_END
  1
CELLSTYLE_BEGIN
 90
        3
 91
        2
300
_DATA
309
CELLSTYLE_END
  0
XRECORD
  5
1914
102
{ACAD_REACTORS
330
104
102
}
330
104
100
AcDbXrecord
280
     1
102
ACAD_ROUNDTRIP_PRE2007_TABLESTYLE
 90
      512
 91
        0
  1

 92
      512
 93
        0
  2

 94
      512
 95
        0
  3

  0
XRECORD
  5
1925
102
{ACAD_REACTORS
330
1924
102
}
330
1924
100
AcDbXrecord
280
     1
102
RTVSPropertyOp0
 70
     1
102
RTVSPropertyOp1
 70
     1
102
RTVSPropertyOp2
 70
     1
102
RTVSPropertyOp3
 70
     1
102
RTVSPropertyOp4
 70
     1
102
RTVSPropertyOp5
 70
     1
102
RTVSPropertyOp6
 70
     1
102
RTVSPropertyOp7
 70
     1
102
RTVSPropertyOp8
 70
     1
102
RTVSPropertyOp9
 70
     1
102
RTVSPropertyOp10
 70
     1
102
RTVSPropertyOp11
 70
     1
102
RTVSPropertyOp12
 70
     1
102
RTVSPropertyOp13
 70
     1
102
RTVSPropertyOp14
 70
     1
102
RTVSPropertyOp15
 70
     1
102
RTVSPropertyOp16
 70
     1
102
RTVSPropertyOp17
 70
     1
102
RTVSPropertyOp18
 70
     1
102
RTVSPropertyOp19
 70
     1
102
RTVSPropertyOp20
 70
     1
102
RTVSPropertyOp21
 70
     1
102
RTVSPropertyOp22
 70
     1
102
RTVSPropertyOp23
 70
     1
102
RTVSPropertyOp24
 70
     1
102
RTVSPropertyOp25
 70
     1
102
RTVSPropertyOp26
 70
     1
102
RTVSPropertyOp27
 70
     1
  0
XRECORD
  5
1929
102
{ACAD_REACTORS
330
1928
102
}
330
1928
100
AcDbXrecord
280
     1
102
RTVSPropertyOp0
 70
     1
102
RTVSPropertyOp1
 70
     1
102
RTVSPropertyOp2
 70
     1
102
RTVSPropertyOp3
 70
     1
102
RTVSPropertyOp4
 70
     1
102
RTVSPropertyOp5
 70
     1
102
RTVSPropertyOp6
 70
     1
102
RTVSPropertyOp7
 70
     1
102
RTVSPropertyOp8
 70
     1
102
RTVSPropertyOp9
 70
     1
102
RTVSPropertyOp10
 70
     1
102
RTVSPropertyOp11
 70
     1
102
RTVSPropertyOp12
 70
     1
102
RTVSPropertyOp13
 70
     1
102
RTVSPropertyOp14
 70
     1
102
RTVSPropertyOp15
 70
     1
102
RTVSPropertyOp16
 70
     1
102
RTVSPropertyOp17
 70
     1
102
RTVSPropertyOp18
 70
     1
102
RTVSPropertyOp19
 70
     1
102
RTVSPropertyOp20
 70
     1
102
RTVSPropertyOp21
 70
     1
102
RTVSPropertyOp22
 70
     1
102
RTVSPropertyOp23
 70
     1
102
RTVSPropertyOp24
 70
     1
102
RTVSPropertyOp25
 70
     1
102
RTVSPropertyOp26
 70
     1
102
RTVSPropertyOp27
 70
     1
  0
XRECORD
  5
1927
102
{ACAD_REACTORS
330
1926
102
}
330
1926
100
AcDbXrecord
280
     1
102
RTVSPropertyOp0
 70
     1
102
RTVSPropertyOp1
 70
     1
102
RTVSPropertyOp2
 70
     1
102
RTVSPropertyOp3
 70
     1
102
RTVSPropertyOp4
 70
     1
102
RTVSPropertyOp5
 70
     1
102
RTVSPropertyOp6
 70
     1
102
RTVSPropertyOp7
 70
     1
102
RTVSPropertyOp8
 70
     1
102
RTVSPropertyOp9
 70
     1
102
RTVSPropertyOp10
 70
     1
102
RTVSPropertyOp11
 70
     1
102
RTVSPropertyOp12
 70
     1
102
RTVSPropertyOp13
 70
     1
102
RTVSPropertyOp14
 70
     1
102
RTVSPropertyOp15
 70
     1
102
RTVSPropertyOp16
 70
     1
102
RTVSPropertyOp17
 70
     1
102
RTVSPropertyOp18
 70
     1
102
RTVSPropertyOp19
 70
     1
102
RTVSPropertyOp20
 70
     1
102
RTVSPropertyOp21
 70
     1
102
RTVSPropertyOp22
 70
     1
102
RTVSPropertyOp23
 70
     1
102
RTVSPropertyOp24
 70
     1
102
RTVSPropertyOp25
 70
     1
102
RTVSPropertyOp26
 70
     1
102
RTVSPropertyOp27
 70
     1
  0
XRECORD
  5
1923
102
{ACAD_REACTORS
330
1922
102
}
330
1922
100
AcDbXrecord
280
     1
102
RTVSPropertyOp0
 70
     1
102
RTVSPropertyOp1
 70
     1
102
RTVSPropertyOp2
 70
     1
102
RTVSPropertyOp3
 70
     1
102
RTVSPropertyOp4
 70
     1
102
RTVSPropertyOp5
 70
     1
102
RTVSPropertyOp6
 70
     1
102
RTVSPropertyOp7
 70
     1
102
RTVSPropertyOp8
 70
     1
102
RTVSPropertyOp9
 70
     1
102
RTVSPropertyOp10
 70
     1
102
RTVSPropertyOp11
 70
     1
102
RTVSPropertyOp12
 70
     1
102
RTVSPropertyOp13
 70
     1
102
RTVSPropertyOp14
 70
     1
102
RTVSPropertyOp15
 70
     1
102
RTVSPropertyOp16
 70
     1
102
RTVSPropertyOp17
 70
     1
102
RTVSPropertyOp18
 70
     1
102
RTVSPropertyOp19
 70
     1
102
RTVSPropertyOp20
 70
     1
102
RTVSPropertyOp21
 70
     1
102
RTVSPropertyOp22
 70
     1
102
RTVSPropertyOp23
 70
     1
102
RTVSPropertyOp24
 70
     1
102
RTVSPropertyOp25
 70
     1
102
RTVSPropertyOp26
 70
     1
102
RTVSPropertyOp27
 70
     1
  0
XRECORD
  5
1931
102
{ACAD_REACTORS
330
1930
102
}
330
1930
100
AcDbXrecord
280
     1
102
RTVSPropertyOp0
 70
     1
102
RTVSPropertyOp1
 70
     1
102
RTVSPropertyOp2
 70
     1
102
RTVSPropertyOp3
 70
     1
102
RTVSPropertyOp4
 70
     1
102
RTVSPropertyOp5
 70
     1
102
RTVSPropertyOp6
 70
     1
102
RTVSPropertyOp7
 70
     1
102
RTVSPropertyOp8
 70
     1
102
RTVSPropertyOp9
 70
     1
102
RTVSPropertyOp10
 70
     1
102
RTVSPropertyOp11
 70
     1
102
RTVSPropertyOp12
 70
     1
102
RTVSPropertyOp13
 70
     1
102
RTVSPropertyOp14
 70
     1
102
RTVSPropertyOp15
 70
     1
102
RTVSPropertyOp16
 70
     1
102
RTVSPropertyOp17
 70
     1
102
RTVSPropertyOp18
 70
     1
102
RTVSPropertyOp19
 70
     1
102
RTVSPropertyOp20
 70
     1
102
RTVSPropertyOp21
 70
     1
102
RTVSPropertyOp22
 70
     1
102
RTVSPropertyOp23
 70
     1
102
RTVSPropertyOp24
 70
     1
102
RTVSPropertyOp25
 70
     1
102
RTVSPropertyOp26
 70
     1
102
RTVSPropertyOp27
 70
     1
  0
XRECORD
  5
1939
102
{ACAD_REACTORS
330
1938
102
}
330
1938
100
AcDbXrecord
280
     1
102
RTVSPropertyOp0
 70
     1
102
RTVSPropertyOp1
 70
     1
102
RTVSPropertyOp2
 70
     1
102
RTVSPropertyOp3
 70
     1
102
RTVSPropertyOp4
 70
     1
102
RTVSPropertyOp5
 70
     1
102
RTVSPropertyOp6
 70
     1
102
RTVSPropertyOp7
 70
     1
102
RTVSPropertyOp8
 70
     1
102
RTVSPropertyOp9
 70
     1
102
RTVSPropertyOp10
 70
     1
102
RTVSPropertyOp11
 70
     1
102
RTVSPropertyOp12
 70
     1
102
RTVSPropertyOp13
 70
     1
102
RTVSPropertyOp14
 70
     1
102
RTVSPropertyOp15
 70
     1
102
RTVSPropertyOp16
 70
     1
102
RTVSPropertyOp17
 70
     1
102
RTVSPropertyOp18
 70
     1
102
RTVSPropertyOp19
 70
     1
102
RTVSPropertyOp20
 70
     1
102
RTVSPropertyOp21
 70
     1
102
RTVSPropertyOp22
 70
     1
102
RTVSPropertyOp23
 70
     1
102
RTVSPropertyOp24
 70
     1
102
RTVSPropertyOp25
 70
     1
102
RTVSPropertyOp26
 70
     1
102
RTVSPropertyOp27
 70
     1
  0
XRECORD
  5
192B
102
{ACAD_REACTORS
330
192A
102
}
330
192A
100
AcDbXrecord
280
     1
102
RTVSPropertyOp0
 70
     1
102
RTVSPropertyOp1
 70
     1
102
RTVSPropertyOp2
 70
     1
102
RTVSPropertyOp3
 70
     1
102
RTVSPropertyOp4
 70
     1
102
RTVSPropertyOp5
 70
     1
102
RTVSPropertyOp6
 70
     1
102
RTVSPropertyOp7
 70
     1
102
RTVSPropertyOp8
 70
     1
102
RTVSPropertyOp9
 70
     1
102
RTVSPropertyOp10
 70
     1
102
RTVSPropertyOp11
 70
     1
102
RTVSPropertyOp12
 70
     1
102
RTVSPropertyOp13
 70
     1
102
RTVSPropertyOp14
 70
     1
102
RTVSPropertyOp15
 70
     1
102
RTVSPropertyOp16
 70
     1
102
RTVSPropertyOp17
 70
     1
102
RTVSPropertyOp18
 70
     1
102
RTVSPropertyOp19
 70
     1
102
RTVSPropertyOp20
 70
     1
102
RTVSPropertyOp21
 70
     1
102
RTVSPropertyOp22
 70
     1
102
RTVSPropertyOp23
 70
     1
102
RTVSPropertyOp24
 70
     1
102
RTVSPropertyOp25
 70
     1
102
RTVSPropertyOp26
 70
     1
102
RTVSPropertyOp27
 70
     1
  0
XRECORD
  5
192F
102
{ACAD_REACTORS
330
192E
102
}
330
192E
100
AcDbXrecord
280
     1
102
RTVSPropertyOp0
 70
     1
102
RTVSPropertyOp1
 70
     1
102
RTVSPropertyOp2
 70
     1
102
RTVSPropertyOp3
 70
     1
102
RTVSPropertyOp4
 70
     1
102
RTVSPropertyOp5
 70
     1
102
RTVSPropertyOp6
 70
     1
102
RTVSPropertyOp7
 70
     1
102
RTVSPropertyOp8
 70
     1
102
RTVSPropertyOp9
 70
     1
102
RTVSPropertyOp10
 70
     1
102
RTVSPropertyOp11
 70
     1
102
RTVSPropertyOp12
 70
     1
102
RTVSPropertyOp13
 70
     1
102
RTVSPropertyOp14
 70
     1
102
RTVSPropertyOp15
 70
     1
102
RTVSPropertyOp16
 70
     1
102
RTVSPropertyOp17
 70
     1
102
RTVSPropertyOp18
 70
     1
102
RTVSPropertyOp19
 70
     1
102
RTVSPropertyOp20
 70
     1
102
RTVSPropertyOp21
 70
     1
102
RTVSPropertyOp22
 70
     1
102
RTVSPropertyOp23
 70
     1
102
RTVSPropertyOp24
 70
     1
102
RTVSPropertyOp25
 70
     1
102
RTVSPropertyOp26
 70
     1
102
RTVSPropertyOp27
 70
     1
  0
XRECORD
  5
193F
102
{ACAD_REACTORS
330
193E
102
}
330
193E
100
AcDbXrecord
280
     1
102
RTVSPropertyOp0
 70
     0
102
RTVSPropertyOp1
 70
     0
102
RTVSPropertyOp2
 70
     0
102
RTVSPropertyOp3
 70
     0
102
RTVSPropertyOp4
 70
     0
102
RTVSPropertyOp5
 70
     0
102
RTVSPropertyOp6
 70
     0
102
RTVSPropertyOp7
 70
     0
102
RTVSPropertyOp8
 70
     0
102
RTVSPropertyOp9
 70
     0
102
RTVSPropertyOp10
 70
     0
102
RTVSPropertyOp11
 70
     0
102
RTVSPropertyOp12
 70
     0
102
RTVSPropertyOp13
 70
     0
102
RTVSPropertyOp14
 70
     2
102
RTVSPropertyOp15
 70
     0
102
RTVSPropertyOp16
 70
     0
102
RTVSPropertyOp17
 70
     0
102
RTVSPropertyOp18
 70
     0
102
RTVSPropertyOp19
 70
     0
102
RTVSPropertyOp20
 70
     0
102
RTVSPropertyOp21
 70
     0
102
RTVSPropertyOp22
 70
     0
102
RTVSPropertyOp23
 70
     0
102
RTVSPropertyOp24
 70
     0
102
RTVSPropertyOp25
 70
     0
102
RTVSPropertyOp26
 70
     0
102
RTVSPropertyOp27
 70
     0
  0
XRECORD
  5
1937
102
{ACAD_REACTORS
330
1936
102
}
330
1936
100
AcDbXrecord
280
     1
102
RTVSPropertyOp0
 70
     1
102
RTVSPropertyOp1
 70
     1
102
RTVSPropertyOp2
 70
     1
102
RTVSPropertyOp3
 70
     1
102
RTVSPropertyOp4
 70
     1
102
RTVSPropertyOp5
 70
     1
102
RTVSPropertyOp6
 70
     1
102
RTVSPropertyOp7
 70
     1
102
RTVSPropertyOp8
 70
     1
102
RTVSPropertyOp9
 70
     1
102
RTVSPropertyOp10
 70
     1
102
RTVSPropertyOp11
 70
     1
102
RTVSPropertyOp12
 70
     1
102
RTVSPropertyOp13
 70
     1
102
RTVSPropertyOp14
 70
     1
102
RTVSPropertyOp15
 70
     1
102
RTVSPropertyOp16
 70
     1
102
RTVSPropertyOp17
 70
     1
102
RTVSPropertyOp18
 70
     1
102
RTVSPropertyOp19
 70
     1
102
RTVSPropertyOp20
 70
     1
102
RTVSPropertyOp21
 70
     1
102
RTVSPropertyOp22
 70
     1
102
RTVSPropertyOp23
 70
     1
102
RTVSPropertyOp24
 70
     1
102
RTVSPropertyOp25
 70
     1
102
RTVSPropertyOp26
 70
     1
102
RTVSPropertyOp27
 70
     1
  0
XRECORD
  5
191B
102
{ACAD_REACTORS
330
191A
102
}
330
191A
100
AcDbXrecord
280
     1
102
RTVSPropertyOp0
 70
     1
102
RTVSPropertyOp1
 70
     1
102
RTVSPropertyOp2
 70
     1
102
RTVSPropertyOp3
 70
     1
102
RTVSPropertyOp4
 70
     1
102
RTVSPropertyOp5
 70
     1
102
RTVSPropertyOp6
 70
     1
102
RTVSPropertyOp7
 70
     1
102
RTVSPropertyOp8
 70
     1
102
RTVSPropertyOp9
 70
     1
102
RTVSPropertyOp10
 70
     1
102
RTVSPropertyOp11
 70
     1
102
RTVSPropertyOp12
 70
     1
102
RTVSPropertyOp13
 70
     1
102
RTVSPropertyOp14
 70
     1
102
RTVSPropertyOp15
 70
     1
102
RTVSPropertyOp16
 70
     1
102
RTVSPropertyOp17
 70
     1
102
RTVSPropertyOp18
 70
     1
102
RTVSPropertyOp19
 70
     1
102
RTVSPropertyOp20
 70
     1
102
RTVSPropertyOp21
 70
     1
102
RTVSPropertyOp22
 70
     1
102
RTVSPropertyOp23
 70
     1
102
RTVSPropertyOp24
 70
     1
102
RTVSPropertyOp25
 70
     1
102
RTVSPropertyOp26
 70
     1
102
RTVSPropertyOp27
 70
     1
  0
XRECORD
  5
191D
102
{ACAD_REACTORS
330
191C
102
}
330
191C
100
AcDbXrecord
280
     1
102
RTVSPropertyOp0
 70
     1
102
RTVSPropertyOp1
 70
     1
102
RTVSPropertyOp2
 70
     1
102
RTVSPropertyOp3
 70
     1
102
RTVSPropertyOp4
 70
     1
102
RTVSPropertyOp5
 70
     1
102
RTVSPropertyOp6
 70
     1
102
RTVSPropertyOp7
 70
     1
102
RTVSPropertyOp8
 70
     1
102
RTVSPropertyOp9
 70
     1
102
RTVSPropertyOp10
 70
     1
102
RTVSPropertyOp11
 70
     1
102
RTVSPropertyOp12
 70
     1
102
RTVSPropertyOp13
 70
     1
102
RTVSPropertyOp14
 70
     1
102
RTVSPropertyOp15
 70
     1
102
RTVSPropertyOp16
 70
     1
102
RTVSPropertyOp17
 70
     1
102
RTVSPropertyOp18
 70
     1
102
RTVSPropertyOp19
 70
     1
102
RTVSPropertyOp20
 70
     1
102
RTVSPropertyOp21
 70
     1
102
RTVSPropertyOp22
 70
     1
102
RTVSPropertyOp23
 70
     1
102
RTVSPropertyOp24
 70
     1
102
RTVSPropertyOp25
 70
     1
102
RTVSPropertyOp26
 70
     1
102
RTVSPropertyOp27
 70
     1
  0
XRECORD
  5
191F
102
{ACAD_REACTORS
330
191E
102
}
330
191E
100
AcDbXrecord
280
     1
102
RTVSPropertyOp0
 70
     1
102
RTVSPropertyOp1
 70
     1
102
RTVSPropertyOp2
 70
     1
102
RTVSPropertyOp3
 70
     1
102
RTVSPropertyOp4
 70
     1
102
RTVSPropertyOp5
 70
     1
102
RTVSPropertyOp6
 70
     1
102
RTVSPropertyOp7
 70
     1
102
RTVSPropertyOp8
 70
     1
102
RTVSPropertyOp9
 70
     1
102
RTVSPropertyOp10
 70
     1
102
RTVSPropertyOp11
 70
     1
102
RTVSPropertyOp12
 70
     1
102
RTVSPropertyOp13
 70
     1
102
RTVSPropertyOp14
 70
     1
102
RTVSPropertyOp15
 70
     1
102
RTVSPropertyOp16
 70
     1
102
RTVSPropertyOp17
 70
     1
102
RTVSPropertyOp18
 70
     1
102
RTVSPropertyOp19
 70
     1
102
RTVSPropertyOp20
 70
     1
102
RTVSPropertyOp21
 70
     1
102
RTVSPropertyOp22
 70
     1
102
RTVSPropertyOp23
 70
     1
102
RTVSPropertyOp24
 70
     1
102
RTVSPropertyOp25
 70
     1
102
RTVSPropertyOp26
 70
     1
102
RTVSPropertyOp27
 70
     1
  0
XRECORD
  5
1921
102
{ACAD_REACTORS
330
1920
102
}
330
1920
100
AcDbXrecord
280
     1
102
RTVSPropertyOp0
 70
     1
102
RTVSPropertyOp1
 70
     1
102
RTVSPropertyOp2
 70
     1
102
RTVSPropertyOp3
 70
     1
102
RTVSPropertyOp4
 70
     1
102
RTVSPropertyOp5
 70
     1
102
RTVSPropertyOp6
 70
     1
102
RTVSPropertyOp7
 70
     1
102
RTVSPropertyOp8
 70
     1
102
RTVSPropertyOp9
 70
     1
102
RTVSPropertyOp10
 70
     1
102
RTVSPropertyOp11
 70
     1
102
RTVSPropertyOp12
 70
     1
102
RTVSPropertyOp13
 70
     1
102
RTVSPropertyOp14
 70
     1
102
RTVSPropertyOp15
 70
     1
102
RTVSPropertyOp16
 70
     1
102
RTVSPropertyOp17
 70
     1
102
RTVSPropertyOp18
 70
     1
102
RTVSPropertyOp19
 70
     1
102
RTVSPropertyOp20
 70
     1
102
RTVSPropertyOp21
 70
     1
102
RTVSPropertyOp22
 70
     1
102
RTVSPropertyOp23
 70
     1
102
RTVSPropertyOp24
 70
     1
102
RTVSPropertyOp25
 70
     1
102
RTVSPropertyOp26
 70
     1
102
RTVSPropertyOp27
 70
     1
  0
XRECORD
  5
1B0
102
{ACAD_REACTORS
330
1AF
102
}
330
1AF
100
AcDbXrecord
280
     1
102
RTVSPropertyOp28
 70
     1
102
RTVSPropertyOp29
 70
     1
102
RTVSPropertyOp30
 70
     1
102
RTVSPropertyOp31
 70
     1
102
RTVSPropertyOp32
 70
     1
102
RTVSPropertyOp0
 70
     1
102
RTVSPropertyOp1
 70
     1
102
RTVSPropertyOp2
 70
     1
102
RTVSPropertyOp3
 70
     1
102
RTVSPropertyOp4
 70
     1
102
RTVSPropertyOp5
 70
     1
102
RTVSPropertyOp6
 70
     1
102
RTVSPropertyOp7
 70
     1
102
RTVSPropertyOp8
 70
     1
102
RTVSPropertyOp9
 70
     1
102
RTVSPropertyOp10
 70
     1
102
RTVSPropertyOp11
 70
     1
102
RTVSPropertyOp12
 70
     1
102
RTVSPropertyOp13
 70
     1
102
RTVSPropertyOp14
 70
     1
102
RTVSPropertyOp15
 70
     1
102
RTVSPropertyOp16
 70
     1
102
RTVSPropertyOp17
 70
     1
102
RTVSPropertyOp18
 70
     1
102
RTVSPropertyOp19
 70
     1
102
RTVSPropertyOp20
 70
     1
102
RTVSPropertyOp21
 70
     1
102
RTVSPropertyOp22
 70
     1
102
RTVSPropertyOp23
 70
     1
102
RTVSPropertyOp24
 70
     1
102
RTVSPropertyOp25
 70
     1
102
RTVSPropertyOp26
 70
     1
102
RTVSPropertyOp27
 70
     1
  0
XRECORD
  5
193B
102
{ACAD_REACTORS
330
193A
102
}
330
193A
100
AcDbXrecord
280
     1
102
RTVSPropertyOp0
 70
     0
102
RTVSPropertyOp1
 70
     0
102
RTVSPropertyOp2
 70
     0
102
RTVSPropertyOp3
 70
     0
102
RTVSPropertyOp4
 70
     0
102
RTVSPropertyOp5
 70
     0
102
RTVSPropertyOp6
 70
     0
102
RTVSPropertyOp7
 70
     0
102
RTVSPropertyOp8
 70
     0
102
RTVSPropertyOp9
 70
     0
102
RTVSPropertyOp10
 70
     0
102
RTVSPropertyOp11
 70
     0
102
RTVSPropertyOp12
 70
     0
102
RTVSPropertyOp13
 70
     0
102
RTVSPropertyOp14
 70
     2
102
RTVSPropertyOp15
 70
     0
102
RTVSPropertyOp16
 70
     0
102
RTVSPropertyOp17
 70
     0
102
RTVSPropertyOp18
 70
     0
102
RTVSPropertyOp19
 70
     0
102
RTVSPropertyOp20
 70
     0
102
RTVSPropertyOp21
 70
     0
102
RTVSPropertyOp22
 70
     0
102
RTVSPropertyOp23
 70
     0
102
RTVSPropertyOp24
 70
     0
102
RTVSPropertyOp25
 70
     0
102
RTVSPropertyOp26
 70
     0
102
RTVSPropertyOp27
 70
     0
  0
XRECORD
  5
1935
102
{ACAD_REACTORS
330
1934
102
}
330
1934
100
AcDbXrecord
280
     1
102
RTVSPropertyOp0
 70
     1
102
RTVSPropertyOp1
 70
     1
102
RTVSPropertyOp2
 70
     1
102
RTVSPropertyOp3
 70
     1
102
RTVSPropertyOp4
 70
     1
102
RTVSPropertyOp5
 70
     1
102
RTVSPropertyOp6
 70
     1
102
RTVSPropertyOp7
 70
     1
102
RTVSPropertyOp8
 70
     1
102
RTVSPropertyOp9
 70
     1
102
RTVSPropertyOp10
 70
     1
102
RTVSPropertyOp11
 70
     1
102
RTVSPropertyOp12
 70
     1
102
RTVSPropertyOp13
 70
     1
102
RTVSPropertyOp14
 70
     1
102
RTVSPropertyOp15
 70
     1
102
RTVSPropertyOp16
 70
     1
102
RTVSPropertyOp17
 70
     1
102
RTVSPropertyOp18
 70
     1
102
RTVSPropertyOp19
 70
     1
102
RTVSPropertyOp20
 70
     1
102
RTVSPropertyOp21
 70
     1
102
RTVSPropertyOp22
 70
     1
102
RTVSPropertyOp23
 70
     1
102
RTVSPropertyOp24
 70
     1
102
RTVSPropertyOp25
 70
     1
102
RTVSPropertyOp26
 70
     1
102
RTVSPropertyOp27
 70
     1
  0
XRECORD
  5
193D
102
{ACAD_REACTORS
330
193C
102
}
330
193C
100
AcDbXrecord
280
     1
102
RTVSPropertyOp0
 70
     0
102
RTVSPropertyOp1
 70
     0
102
RTVSPropertyOp2
 70
     0
102
RTVSPropertyOp3
 70
     0
102
RTVSPropertyOp4
 70
     0
102
RTVSPropertyOp5
 70
     0
102
RTVSPropertyOp6
 70
     0
102
RTVSPropertyOp7
 70
     0
102
RTVSPropertyOp8
 70
     0
102
RTVSPropertyOp9
 70
     0
102
RTVSPropertyOp10
 70
     0
102
RTVSPropertyOp11
 70
     0
102
RTVSPropertyOp12
 70
     0
102
RTVSPropertyOp13
 70
     0
102
RTVSPropertyOp14
 70
     2
102
RTVSPropertyOp15
 70
     0
102
RTVSPropertyOp16
 70
     0
102
RTVSPropertyOp17
 70
     0
102
RTVSPropertyOp18
 70
     0
102
RTVSPropertyOp19
 70
     0
102
RTVSPropertyOp20
 70
     0
102
RTVSPropertyOp21
 70
     0
102
RTVSPropertyOp22
 70
     0
102
RTVSPropertyOp23
 70
     0
102
RTVSPropertyOp24
 70
     0
102
RTVSPropertyOp25
 70
     0
102
RTVSPropertyOp26
 70
     0
102
RTVSPropertyOp27
 70
     0
  0
XRECORD
  5
192D
102
{ACAD_REACTORS
330
192C
102
}
330
192C
100
AcDbXrecord
280
     1
102
RTVSPropertyOp0
 70
     1
102
RTVSPropertyOp1
 70
     1
102
RTVSPropertyOp2
 70
     1
102
RTVSPropertyOp3
 70
     1
102
RTVSPropertyOp4
 70
     1
102
RTVSPropertyOp5
 70
     1
102
RTVSPropertyOp6
 70
     1
102
RTVSPropertyOp7
 70
     1
102
RTVSPropertyOp8
 70
     1
102
RTVSPropertyOp9
 70
     1
102
RTVSPropertyOp10
 70
     1
102
RTVSPropertyOp11
 70
     1
102
RTVSPropertyOp12
 70
     1
102
RTVSPropertyOp13
 70
     1
102
RTVSPropertyOp14
 70
     1
102
RTVSPropertyOp15
 70
     1
102
RTVSPropertyOp16
 70
     1
102
RTVSPropertyOp17
 70
     1
102
RTVSPropertyOp18
 70
     1
102
RTVSPropertyOp19
 70
     1
102
RTVSPropertyOp20
 70
     1
102
RTVSPropertyOp21
 70
     1
102
RTVSPropertyOp22
 70
     1
102
RTVSPropertyOp23
 70
     1
102
RTVSPropertyOp24
 70
     1
102
RTVSPropertyOp25
 70
     1
102
RTVSPropertyOp26
 70
     1
102
RTVSPropertyOp27
 70
     1
  0
XRECORD
  5
1B3
102
{ACAD_REACTORS
330
1B2
102
}
330
1B2
100
AcDbXrecord
280
     1
102
RTVSPropertyOp28
 70
     1
102
RTVSPropertyOp29
 70
     1
102
RTVSPropertyOp30
 70
     1
102
RTVSPropertyOp31
 70
     1
102
RTVSPropertyOp32
 70
     1
102
RTVSPropertyOp0
 70
     1
102
RTVSPropertyOp1
 70
     1
102
RTVSPropertyOp2
 70
     1
102
RTVSPropertyOp3
 70
     1
102
RTVSPropertyOp4
 70
     1
102
RTVSPropertyOp5
 70
     1
102
RTVSPropertyOp6
 70
     1
102
RTVSPropertyOp7
 70
     1
102
RTVSPropertyOp8
 70
     1
102
RTVSPropertyOp9
 70
     1
102
RTVSPropertyOp10
 70
     1
102
RTVSPropertyOp11
 70
     1
102
RTVSPropertyOp12
 70
     1
102
RTVSPropertyOp13
 70
     1
102
RTVSPropertyOp14
 70
     1
102
RTVSPropertyOp15
 70
     1
102
RTVSPropertyOp16
 70
     1
102
RTVSPropertyOp17
 70
     1
102
RTVSPropertyOp18
 70
     1
102
RTVSPropertyOp19
 70
     1
102
RTVSPropertyOp20
 70
     1
102
RTVSPropertyOp21
 70
     1
102
RTVSPropertyOp22
 70
     1
102
RTVSPropertyOp23
 70
     1
102
RTVSPropertyOp24
 70
     1
102
RTVSPropertyOp25
 70
     1
102
RTVSPropertyOp26
 70
     1
102
RTVSPropertyOp27
 70
     1
  0
XRECORD
  5
1B6
102
{ACAD_REACTORS
330
1B5
102
}
330
1B5
100
AcDbXrecord
280
     1
102
RTVSPropertyOp28
 70
     1
102
RTVSPropertyOp29
 70
     1
102
RTVSPropertyOp30
 70
     1
102
RTVSPropertyOp31
 70
     1
102
RTVSPropertyOp32
 70
     1
102
RTVSPropertyOp0
 70
     1
102
RTVSPropertyOp1
 70
     1
102
RTVSPropertyOp2
 70
     1
102
RTVSPropertyOp3
 70
     1
102
RTVSPropertyOp4
 70
     1
102
RTVSPropertyOp5
 70
     1
102
RTVSPropertyOp6
 70
     1
102
RTVSPropertyOp7
 70
     1
102
RTVSPropertyOp8
 70
     1
102
RTVSPropertyOp9
 70
     1
102
RTVSPropertyOp10
 70
     1
102
RTVSPropertyOp11
 70
     1
102
RTVSPropertyOp12
 70
     1
102
RTVSPropertyOp13
 70
     1
102
RTVSPropertyOp14
 70
     1
102
RTVSPropertyOp15
 70
     1
102
RTVSPropertyOp16
 70
     1
102
RTVSPropertyOp17
 70
     1
102
RTVSPropertyOp18
 70
     1
102
RTVSPropertyOp19
 70
     1
102
RTVSPropertyOp20
 70
     1
102
RTVSPropertyOp21
 70
     1
102
RTVSPropertyOp22
 70
     1
102
RTVSPropertyOp23
 70
     1
102
RTVSPropertyOp24
 70
     1
102
RTVSPropertyOp25
 70
     1
102
RTVSPropertyOp26
 70
     1
102
RTVSPropertyOp27
 70
     1
  0
XRECORD
  5
1B9
102
{ACAD_REACTORS
330
1B8
102
}
330
1B8
100
AcDbXrecord
280
     1
102
RTVSPropertyOp28
 70
     1
102
RTVSPropertyOp29
 70
     1
102
RTVSPropertyOp30
 70
     1
102
RTVSPropertyOp31
 70
     1
102
RTVSPropertyOp32
 70
     1
102
RTVSPropertyOp0
 70
     1
102
RTVSPropertyOp1
 70
     1
102
RTVSPropertyOp2
 70
     1
102
RTVSPropertyOp3
 70
     1
102
RTVSPropertyOp4
 70
     1
102
RTVSPropertyOp5
 70
     1
102
RTVSPropertyOp6
 70
     1
102
RTVSPropertyOp7
 70
     1
102
RTVSPropertyOp8
 70
     1
102
RTVSPropertyOp9
 70
     1
102
RTVSPropertyOp10
 70
     1
102
RTVSPropertyOp11
 70
     1
102
RTVSPropertyOp12
 70
     1
102
RTVSPropertyOp13
 70
     1
102
RTVSPropertyOp14
 70
     1
102
RTVSPropertyOp15
 70
     1
102
RTVSPropertyOp16
 70
     1
102
RTVSPropertyOp17
 70
     1
102
RTVSPropertyOp18
 70
     1
102
RTVSPropertyOp19
 70
     1
102
RTVSPropertyOp20
 70
     1
102
RTVSPropertyOp21
 70
     1
102
RTVSPropertyOp22
 70
     1
102
RTVSPropertyOp23
 70
     1
102
RTVSPropertyOp24
 70
     1
102
RTVSPropertyOp25
 70
     1
102
RTVSPropertyOp26
 70
     1
102
RTVSPropertyOp27
 70
     1
  0
XRECORD
  5
1BC
102
{ACAD_REACTORS
330
1BB
102
}
330
1BB
100
AcDbXrecord
280
     1
102
RTVSPropertyOp28
 70
     1
102
RTVSPropertyOp29
 70
     1
102
RTVSPropertyOp30
 70
     1
102
RTVSPropertyOp31
 70
     1
102
RTVSPropertyOp32
 70
     1
102
RTVSPropertyOp0
 70
     1
102
RTVSPropertyOp1
 70
     1
102
RTVSPropertyOp2
 70
     1
102
RTVSPropertyOp3
 70
     1
102
RTVSPropertyOp4
 70
     1
102
RTVSPropertyOp5
 70
     1
102
RTVSPropertyOp6
 70
     1
102
RTVSPropertyOp7
 70
     1
102
RTVSPropertyOp8
 70
     1
102
RTVSPropertyOp9
 70
     1
102
RTVSPropertyOp10
 70
     1
102
RTVSPropertyOp11
 70
     1
102
RTVSPropertyOp12
 70
     1
102
RTVSPropertyOp13
 70
     1
102
RTVSPropertyOp14
 70
     1
102
RTVSPropertyOp15
 70
     1
102
RTVSPropertyOp16
 70
     1
102
RTVSPropertyOp17
 70
     1
102
RTVSPropertyOp18
 70
     1
102
RTVSPropertyOp19
 70
     1
102
RTVSPropertyOp20
 70
     1
102
RTVSPropertyOp21
 70
     1
102
RTVSPropertyOp22
 70
     1
102
RTVSPropertyOp23
 70
     1
102
RTVSPropertyOp24
 70
     1
102
RTVSPropertyOp25
 70
     1
102
RTVSPropertyOp26
 70
     1
102
RTVSPropertyOp27
 70
     1
  0
XRECORD
  5
1933
102
{ACAD_REACTORS
330
1932
102
}
330
1932
100
AcDbXrecord
280
     1
102
RTVSPropertyOp0
 70
     1
102
RTVSPropertyOp1
 70
     1
102
RTVSPropertyOp2
 70
     1
102
RTVSPropertyOp3
 70
     1
102
RTVSPropertyOp4
 70
     1
102
RTVSPropertyOp5
 70
     1
102
RTVSPropertyOp6
 70
     1
102
RTVSPropertyOp7
 70
     1
102
RTVSPropertyOp8
 70
     1
102
RTVSPropertyOp9
 70
     1
102
RTVSPropertyOp10
 70
     1
102
RTVSPropertyOp11
 70
     1
102
RTVSPropertyOp12
 70
     1
102
RTVSPropertyOp13
 70
     1
102
RTVSPropertyOp14
 70
     1
102
RTVSPropertyOp15
 70
     1
102
RTVSPropertyOp16
 70
     1
102
RTVSPropertyOp17
 70
     1
102
RTVSPropertyOp18
 70
     1
102
RTVSPropertyOp19
 70
     1
102
RTVSPropertyOp20
 70
     1
102
RTVSPropertyOp21
 70
     1
102
RTVSPropertyOp22
 70
     1
102
RTVSPropertyOp23
 70
     1
102
RTVSPropertyOp24
 70
     1
102
RTVSPropertyOp25
 70
     1
102
RTVSPropertyOp26
 70
     1
102
RTVSPropertyOp27
 70
     1
  0
XRECORD
  5
1BF
102
{ACAD_REACTORS
330
1BE
102
}
330
1BE
100
AcDbXrecord
280
     1
102
RTVSPropertyOp28
 70
     1
102
RTVSPropertyOp29
 70
     1
102
RTVSPropertyOp30
 70
     1
102
RTVSPropertyOp31
 70
     1
102
RTVSPropertyOp32
 70
     1
102
RTVSPropertyOp0
 70
     1
102
RTVSPropertyOp1
 70
     1
102
RTVSPropertyOp2
 70
     1
102
RTVSPropertyOp3
 70
     1
102
RTVSPropertyOp4
 70
     1
102
RTVSPropertyOp5
 70
     1
102
RTVSPropertyOp6
 70
     1
102
RTVSPropertyOp7
 70
     1
102
RTVSPropertyOp8
 70
     1
102
RTVSPropertyOp9
 70
     1
102
RTVSPropertyOp10
 70
     1
102
RTVSPropertyOp11
 70
     1
102
RTVSPropertyOp12
 70
     1
102
RTVSPropertyOp13
 70
     1
102
RTVSPropertyOp14
 70
     1
102
RTVSPropertyOp15
 70
     1
102
RTVSPropertyOp16
 70
     1
102
RTVSPropertyOp17
 70
     1
102
RTVSPropertyOp18
 70
     1
102
RTVSPropertyOp19
 70
     1
102
RTVSPropertyOp20
 70
     1
102
RTVSPropertyOp21
 70
     1
102
RTVSPropertyOp22
 70
     1
102
RTVSPropertyOp23
 70
     1
102
RTVSPropertyOp24
 70
     1
102
RTVSPropertyOp25
 70
     1
102
RTVSPropertyOp26
 70
     1
102
RTVSPropertyOp27
 70
     1
  0
XRECORD
  5
1C2
102
{ACAD_REACTORS
330
1C1
102
}
330
1C1
100
AcDbXrecord
280
     1
102
RTVSPropertyOp28
 70
     1
102
RTVSPropertyOp29
 70
     1
102
RTVSPropertyOp30
 70
     1
102
RTVSPropertyOp31
 70
     1
102
RTVSPropertyOp32
 70
     1
102
RTVSPropertyOp0
 70
     1
102
RTVSPropertyOp1
 70
     1
102
RTVSPropertyOp2
 70
     1
102
RTVSPropertyOp3
 70
     1
102
RTVSPropertyOp4
 70
     1
102
RTVSPropertyOp5
 70
     1
102
RTVSPropertyOp6
 70
     1
102
RTVSPropertyOp7
 70
     1
102
RTVSPropertyOp8
 70
     1
102
RTVSPropertyOp9
 70
     1
102
RTVSPropertyOp10
 70
     1
102
RTVSPropertyOp11
 70
     1
102
RTVSPropertyOp12
 70
     1
102
RTVSPropertyOp13
 70
     1
102
RTVSPropertyOp14
 70
     1
102
RTVSPropertyOp15
 70
     1
102
RTVSPropertyOp16
 70
     1
102
RTVSPropertyOp17
 70
     1
102
RTVSPropertyOp18
 70
     1
102
RTVSPropertyOp19
 70
     1
102
RTVSPropertyOp20
 70
     1
102
RTVSPropertyOp21
 70
     1
102
RTVSPropertyOp22
 70
     1
102
RTVSPropertyOp23
 70
     1
102
RTVSPropertyOp24
 70
     1
102
RTVSPropertyOp25
 70
     1
102
RTVSPropertyOp26
 70
     1
102
RTVSPropertyOp27
 70
     1
  0
DMBASEELEMENT
  5
182
102
{ACAD_XDICTIONARY
360
186
102
}
102
{ACAD_REACTORS
330
17F
102
}
330
17F
100
AcMapDMBaseElement
 70
     1
  1
Map Base
 70
     1
330
17F
100
AcMapDMBaseElement
 70
     1
  1

 70
     2
  1

 70
     1
 40
1.797693134862314E+99
 70
     1
 70
     1
 70
     1
 70
     1
360
185
100
AcMapDMBaseElement
 70
     1
  0
DMDEFAULTSTYLE
  5
183
102
{ACAD_REACTORS
330
17F
102
}
330
17F
100
AcMapDMDefaultStyle
 70
     1
 90
        1
  1
Default
100
AcMapDMDefaultStyle
 70
     1
280
   100
 90
     0
1001
AcMapDMDisplayStyleRegapp
1070
     2
1071
        1
1000
Default
1000

  0
XRECORD
  5
CBE
102
{ACAD_REACTORS
330
CBD
102
}
330
CBD
100
AcDbXrecord
280
     1
330
B7
  0
DICTIONARY
  5
186
330
182
100
AcDbDictionary
280
     1
281
     1
  3
AcMapDMSurrogateStyleSets
360
187
  0
DMSTYLEREFERENCE
  5
185
330
182
100
AcMapDMStyleReference
 70
     1
 70
     0
340
183
330
17F
  0
DMSURROGATESTYLESETS
  5
187
102
{ACAD_REACTORS
330
186
102
}
330
186
100
AcMapDMSurrogateStyleSets
 70
     1
  1
Map Base
 70
     1
 40
1.797693134862314E+99
 70
     1
 70
     1
 70
     1
 70
     1
330
185
 70
     0
  0
ENDSEC
  0
EOF
